  0
SECTION
  2
HEADER
  9
$ACADVER
  1
AC1014
  9
$ACADMAINTVER
 70
     9
  9
$DWGCODEPAGE
  3
ANSI_1252
  9
$INSBASE
 10
0.0
 20
0.0
 30
0.0
  9
$EXTMIN
 10
0.9599747698121845
 20
1.635135138533215
 30
0.0
  9
$EXTMAX
 10
20.95997476981218
 20
16.69763513853321
 30
0.0
  9
$LIMMIN
 10
0.0
 20
0.0
  9
$LIMMAX
 10
21.0
 20
18.0
  9
$ORTHOMODE
 70
     1
  9
$REGENMODE
 70
     1
  9
$FILLMODE
 70
     1
  9
$QTEXTMODE
 70
     0
  9
$MIRRTEXT
 70
     1
  9
$DRAGMODE
 70
     2
  9
$LTSCALE
 40
1.0
  9
$OSMODE
 70
   548
  9
$ATTMODE
 70
     1
  9
$TEXTSIZE
 40
0.2
  9
$TRACEWID
 40
0.05
  9
$TEXTSTYLE
  7
STANDARD
  9
$CLAYER
  8
DAMAN
  9
$CELTYPE
  6
BYLAYER
  9
$CECOLOR
 62
   256
  9
$CELTSCALE
 40
1.0
  9
$DELOBJ
 70
     1
  9
$DISPSILH
 70
     0
  9
$DIMSCALE
 40
1.0
  9
$DIMASZ
 40
0.18
  9
$DIMEXO
 40
0.0625
  9
$DIMDLI
 40
0.38
  9
$DIMRND
 40
0.0
  9
$DIMDLE
 40
0.0
  9
$DIMEXE
 40
0.18
  9
$DIMTP
 40
0.0
  9
$DIMTM
 40
0.0
  9
$DIMTXT
 40
0.18
  9
$DIMCEN
 40
0.09
  9
$DIMTSZ
 40
0.0
  9
$DIMTOL
 70
     0
  9
$DIMLIM
 70
     0
  9
$DIMTIH
 70
     1
  9
$DIMTOH
 70
     1
  9
$DIMSE1
 70
     0
  9
$DIMSE2
 70
     0
  9
$DIMTAD
 70
     0
  9
$DIMZIN
 70
     0
  9
$DIMBLK
  1

  9
$DIMASO
 70
     1
  9
$DIMSHO
 70
     1
  9
$DIMPOST
  1

  9
$DIMAPOST
  1

  9
$DIMALT
 70
     0
  9
$DIMALTD
 70
     2
  9
$DIMALTF
 40
25.4
  9
$DIMLFAC
 40
1.0
  9
$DIMTOFL
 70
     0
  9
$DIMTVP
 40
0.0
  9
$DIMTIX
 70
     0
  9
$DIMSOXD
 70
     0
  9
$DIMSAH
 70
     0
  9
$DIMBLK1
  1

  9
$DIMBLK2
  1

  9
$DIMSTYLE
  2
STANDARD
  9
$DIMCLRD
 70
     0
  9
$DIMCLRE
 70
     0
  9
$DIMCLRT
 70
     0
  9
$DIMTFAC
 40
1.0
  9
$DIMGAP
 40
0.09
  9
$DIMJUST
 70
     0
  9
$DIMSD1
 70
     0
  9
$DIMSD2
 70
     0
  9
$DIMTOLJ
 70
     1
  9
$DIMTZIN
 70
     0
  9
$DIMALTZ
 70
     0
  9
$DIMALTTZ
 70
     0
  9
$DIMFIT
 70
     3
  9
$DIMUPT
 70
     0
  9
$DIMUNIT
 70
     2
  9
$DIMDEC
 70
     4
  9
$DIMTDEC
 70
     4
  9
$DIMALTU
 70
     2
  9
$DIMALTTD
 70
     2
  9
$DIMTXSTY
  7
STANDARD
  9
$DIMAUNIT
 70
     0
  9
$LUNITS
 70
     2
  9
$LUPREC
 70
     4
  9
$SKETCHINC
 40
0.1
  9
$FILLETRAD
 40
0.0
  9
$AUNITS
 70
     0
  9
$AUPREC
 70
     0
  9
$MENU
  1
tom
  9
$ELEVATION
 40
0.0
  9
$PELEVATION
 40
0.0
  9
$THICKNESS
 40
0.0
  9
$LIMCHECK
 70
     0
  9
$BLIPMODE
 70
     0
  9
$CHAMFERA
 40
0.0
  9
$CHAMFERB
 40
0.0
  9
$CHAMFERC
 40
0.0
  9
$CHAMFERD
 40
0.0
  9
$SKPOLY
 70
     0
  9
$TDCREATE
 40
2450452.663565844
  9
$TDUPDATE
 40
2453410.407355277
  9
$TDINDWG
 40
0.0002155671
  9
$TDUSRTIMER
 40
0.0002155671
  9
$USRTIMER
 70
     1
  9
$ANGBASE
 50
0.0
  9
$ANGDIR
 70
     0
  9
$PDMODE
 70
     0
  9
$PDSIZE
 40
0.0
  9
$PLINEWID
 40
0.0
  9
$COORDS
 70
     1
  9
$SPLFRAME
 70
     0
  9
$SPLINETYPE
 70
     6
  9
$SPLINESEGS
 70
     8
  9
$ATTDIA
 70
     0
  9
$ATTREQ
 70
     1
  9
$HANDLING
 70
-16383
  9
$HANDSEED
  5
290
  9
$SURFTAB1
 70
     6
  9
$SURFTAB2
 70
     6
  9
$SURFTYPE
 70
     6
  9
$SURFU
 70
     6
  9
$SURFV
 70
     6
  9
$UCSNAME
  2

  9
$UCSORG
 10
0.0
 20
0.0
 30
0.0
  9
$UCSXDIR
 10
1.0
 20
0.0
 30
0.0
  9
$UCSYDIR
 10
0.0
 20
1.0
 30
0.0
  9
$PUCSNAME
  2

  9
$PUCSORG
 10
0.0
 20
0.0
 30
0.0
  9
$PUCSXDIR
 10
1.0
 20
0.0
 30
0.0
  9
$PUCSYDIR
 10
0.0
 20
1.0
 30
0.0
  9
$USERI1
 70
     0
  9
$USERI2
 70
     0
  9
$USERI3
 70
     0
  9
$USERI4
 70
     0
  9
$USERI5
 70
     0
  9
$USERR1
 40
0.0
  9
$USERR2
 40
0.0
  9
$USERR3
 40
0.0
  9
$USERR4
 40
0.0
  9
$USERR5
 40
0.0
  9
$WORLDVIEW
 70
     1
  9
$SHADEDGE
 70
     3
  9
$SHADEDIF
 70
    70
  9
$TILEMODE
 70
     1
  9
$MAXACTVP
 70
    16
  9
$PINSBASE
 10
0.0
 20
0.0
 30
0.0
  9
$PLIMCHECK
 70
     0
  9
$PEXTMIN
 10
1.000000000000000E+20
 20
1.000000000000000E+20
 30
1.000000000000000E+20
  9
$PEXTMAX
 10
-1.000000000000000E+20
 20
-1.000000000000000E+20
 30
-1.000000000000000E+20
  9
$PLIMMIN
 10
0.0
 20
0.0
  9
$PLIMMAX
 10
12.0
 20
9.0
  9
$UNITMODE
 70
     0
  9
$VISRETAIN
 70
     0
  9
$PLINEGEN
 70
     0
  9
$PSLTSCALE
 70
     1
  9
$TREEDEPTH
 70
  3020
  9
$PICKSTYLE
 70
     1
  9
$CMLSTYLE
  2
STANDARD
  9
$CMLJUST
 70
     0
  9
$CMLSCALE
 40
1.0
  9
$PROXYGRAPHICS
 70
     1
  9
$MEASUREMENT
 70
     0
  0
ENDSEC
  0
SECTION
  2
CLASSES
  0
CLASS
  1
ACDBDICTIONARYWDFLT
  2
AcDbDictionaryWithDefault
  3
AutoCAD 2000
 90
        0
280
     0
281
     0
  0
CLASS
  1
ACDBPLACEHOLDER
  2
AcDbPlaceHolder
  3
AutoCAD 2000
 90
        0
280
     0
281
     0
  0
CLASS
  1
LAYOUT
  2
AcDbLayout
  3
AutoCAD 2000
 90
        0
280
     0
281
     0
  0
CLASS
  1
LONG_TRANSACTION
  2
AcDbLongTransaction
  3
AutoCAD 2000
 90
        0
280
     0
281
     0
  0
CLASS
  1
LWPOLYLINE
  2
AcDbPolyline
  3
AutoCAD 2000
 90
        0
280
     0
281
     1
  0
CLASS
  1
HATCH
  2
AcDbHatch
  3
AutoCAD 2000
 90
        0
280
     0
281
     1
  0
CLASS
  1
XRECORD
  2
AcDbXrecord
  3
AutoCAD 2000
 90
        0
280
     0
281
     0
  0
ENDSEC
  0
SECTION
  2
TABLES
  0
TABLE
  2
VPORT
  5
8
330
0
100
AcDbSymbolTable
 70
     2
  0
VPORT
  5
26B
330
8
100
AcDbSymbolTableRecord
100
AcDbViewportTableRecord
  2
*ACTIVE
 70
     0
 10
0.0
 20
0.0
 11
1.0
 21
1.0
 12
16.81861575178997
 22
9.711908779748057
 13
0.0
 23
0.0
 14
1.0
 24
1.0
 15
0.0
 25
0.0
 16
0.0
 26
0.0
 36
1.0
 17
0.0
 27
0.0
 37
0.0
 40
19.42381755949611
 41
1.731751824817518
 42
50.0
 43
0.0
 44
0.0
 50
0.0
 51
0.0
 71
     0
 72
   100
 73
     1
 74
     0
 75
     0
 76
     0
 77
     0
 78
     0
  0
ENDTAB
  0
TABLE
  2
LTYPE
  5
5
330
0
100
AcDbSymbolTable
 70
     1
  0
LTYPE
  5
12
330
5
100
AcDbSymbolTableRecord
100
AcDbLinetypeTableRecord
  2
BYBLOCK
 70
     0
  3

 72
    65
 73
     0
 40
0.0
  0
LTYPE
  5
13
330
5
100
AcDbSymbolTableRecord
100
AcDbLinetypeTableRecord
  2
BYLAYER
 70
     0
  3

 72
    65
 73
     0
 40
0.0
  0
LTYPE
  5
14
330
5
100
AcDbSymbolTableRecord
100
AcDbLinetypeTableRecord
  2
CONTINUOUS
 70
     0
  3
Solid line
 72
    65
 73
     0
 40
0.0
  0
ENDTAB
  0
TABLE
  2
LAYER
  5
2
330
0
100
AcDbSymbolTable
 70
     2
  0
LAYER
  5
F
330
2
100
AcDbSymbolTableRecord
100
AcDbLayerTableRecord
  2
0
 70
     0
 62
     7
  6
CONTINUOUS
  0
LAYER
  5
40
330
2
100
AcDbSymbolTableRecord
100
AcDbLayerTableRecord
  2
DAMAN
 70
     0
 62
     5
  6
CONTINUOUS
  0
ENDTAB
  0
TABLE
  2
STYLE
  5
3
330
0
100
AcDbSymbolTable
 70
     1
  0
STYLE
  5
10
330
3
100
AcDbSymbolTableRecord
100
AcDbTextStyleTableRecord
  2
STANDARD
 70
     0
 40
0.0
 41
1.0
 50
0.0
 71
     0
 42
0.2
  3
txt
  4

  0
ENDTAB
  0
TABLE
  2
VIEW
  5
6
330
0
100
AcDbSymbolTable
 70
     0
  0
ENDTAB
  0
TABLE
  2
UCS
  5
7
330
0
100
AcDbSymbolTable
 70
     0
  0
ENDTAB
  0
TABLE
  2
APPID
  5
9
330
0
100
AcDbSymbolTable
 70
     1
  0
APPID
  5
11
330
9
100
AcDbSymbolTableRecord
100
AcDbRegAppTableRecord
  2
ACAD
 70
     0
  0
ENDTAB
  0
TABLE
  2
DIMSTYLE
  5
A
330
0
100
AcDbSymbolTable
 70
     1
  0
DIMSTYLE
105
25D
330
A
100
AcDbSymbolTableRecord
100
AcDbDimStyleTableRecord
  2
STANDARD
 70
     0
  3

  4

  5

  6

  7

 40
1.0
 41
0.18
 42
0.0625
 43
0.38
 44
0.18
 45
0.0
 46
0.0
 47
0.0
 48
0.0
140
0.18
141
0.09
142
0.0
143
25.4
144
1.0
145
0.0
146
1.0
147
0.09
 71
     0
 72
     0
 73
     1
 74
     1
 75
     0
 76
     0
 77
     0
 78
     0
170
     0
171
     2
172
     0
173
     0
174
     0
175
     0
176
     0
177
     0
178
     0
270
     2
271
     4
272
     4
273
     2
274
     2
340
10
275
     0
280
     0
281
     0
282
     0
283
     1
284
     0
285
     0
286
     0
287
     3
288
     0
  0
ENDTAB
  0
TABLE
  2
BLOCK_RECORD
  5
1
330
0
100
AcDbSymbolTable
 70
     4
  0
BLOCK_RECORD
  5
18
102
{ACAD_XDICTIONARY
360
28E
102
}
330
1
100
AcDbSymbolTableRecord
100
AcDbBlockTableRecord
  2
*MODEL_SPACE
  0
BLOCK_RECORD
  5
15
102
{ACAD_XDICTIONARY
360
28C
102
}
330
1
100
AcDbSymbolTableRecord
100
AcDbBlockTableRecord
  2
*PAPER_SPACE
  0
BLOCK_RECORD
  5
1D
330
1
100
AcDbSymbolTableRecord
100
AcDbBlockTableRecord
  2
100CROSS
  0
BLOCK_RECORD
  5
1E
330
1
100
AcDbSymbolTableRecord
100
AcDbBlockTableRecord
  2
050CROSS
  0
BLOCK_RECORD
  5
34
330
1
100
AcDbSymbolTableRecord
100
AcDbBlockTableRecord
  2
20CD61
  0
BLOCK_RECORD
  5
36
330
1
100
AcDbSymbolTableRecord
100
AcDbBlockTableRecord
  2
06SAET
  0
ENDTAB
  0
ENDSEC
  0
SECTION
  2
BLOCKS
  0
BLOCK
  5
4A
330
18
100
AcDbEntity
  8
0
100
AcDbBlockBegin
  2
*MODEL_SPACE
 70
     0
 10
0.0
 20
0.0
 30
0.0
  3
*MODEL_SPACE
  1

  0
ENDBLK
  5
4B
330
18
100
AcDbEntity
  8
0
100
AcDbBlockEnd
  0
BLOCK
  5
48
330
15
100
AcDbEntity
 67
     1
  8
0
100
AcDbBlockBegin
  2
*PAPER_SPACE
 70
     0
 10
0.0
 20
0.0
 30
0.0
  3
*PAPER_SPACE
  1

  0
ENDBLK
  5
49
330
15
100
AcDbEntity
 67
     1
  8
0
100
AcDbBlockEnd
  0
BLOCK
  5
53
330
1D
100
AcDbEntity
  8
0
100
AcDbBlockBegin
  2
100CROSS
 70
     0
 10
5.62500000000004
 20
4.593750000000039
 30
0.0
  3
100CROSS
  1

  0
INSERT
  5
54
330
1D
100
AcDbEntity
  8
0
100
AcDbBlockReference
  2
050CROSS
 10
5.62500000000004
 20
4.593750000000039
 30
0.0
  0
ENDBLK
  5
55
330
1D
100
AcDbEntity
  8
0
100
AcDbBlockEnd
  0
BLOCK
  5
56
330
1E
100
AcDbEntity
  8
0
100
AcDbBlockBegin
  2
050CROSS
 70
     0
 10
5.000000000000039
 20
5.000000000000039
 30
0.0
  3
050CROSS
  1

  0
LINE
  5
57
330
1E
100
AcDbEntity
  8
0
100
AcDbLine
 10
5.000000000000039
 20
5.281250000000039
 30
0.0
 11
5.000000000000079
 21
5.78125000000004
 31
0.0
  0
LINE
  5
58
330
1E
100
AcDbEntity
  8
0
100
AcDbLine
 10
5.000000000000039
 20
4.875000000000039
 30
0.0
 11
5.000000000000079
 21
5.125000000000039
 31
0.0
  0
LINE
  5
59
330
1E
100
AcDbEntity
  8
0
100
AcDbLine
 10
5.000000000000039
 20
4.156250000000039
 30
0.0
 11
5.000000000000079
 21
4.718750000000039
 31
0.0
  0
LINE
  5
5A
330
1E
100
AcDbEntity
  8
0
100
AcDbLine
 10
5.250000000000039
 20
5.000000000000039
 30
0.0
 11
5.81250000000004
 21
5.000000000000079
 31
0.0
  0
LINE
  5
5B
330
1E
100
AcDbEntity
  8
0
100
AcDbLine
 10
4.906250000000039
 20
5.000000000000039
 30
0.0
 11
5.093750000000039
 21
5.000000000000079
 31
0.0
  0
LINE
  5
5C
330
1E
100
AcDbEntity
  8
0
100
AcDbLine
 10
4.187500000000039
 20
5.000000000000039
 30
0.0
 11
4.750000000000039
 21
5.000000000000079
 31
0.0
  0
ENDBLK
  5
5D
330
1E
100
AcDbEntity
  8
0
100
AcDbBlockEnd
  0
BLOCK
  5
1CE
330
34
100
AcDbEntity
  8
0
100
AcDbBlockBegin
  2
20CD61
 70
     0
 10
0.0
 20
0.0
 30
0.0
  3
20CD61
  1

  0
CIRCLE
  5
1CF
330
34
100
AcDbEntity
  8
DAMAN
100
AcDbCircle
 10
1.228895815354336
 20
1.870870872280439
 30
0.0
 40
0.625
  0
INSERT
  5
1D0
330
34
100
AcDbEntity
  8
DAMAN
100
AcDbBlockReference
  2
100CROSS
 10
0.6348958153543274
 20
3.026870872280431
 30
0.0
 41
0.4379999999999999
 42
0.4379999999999999
  0
CIRCLE
  5
1D1
330
34
100
AcDbEntity
  8
DAMAN
100
AcDbCircle
 10
0.6348958153543274
 20
3.026870872280431
 30
0.0
 40
0.1825
  0
CIRCLE
  5
1D2
330
34
100
AcDbEntity
  8
DAMAN
100
AcDbCircle
 10
0.6348958153543274
 20
3.026870872280431
 30
0.0
 40
0.2189999999999999
  0
INSERT
  5
1D3
330
34
100
AcDbEntity
  8
DAMAN
100
AcDbBlockReference
  2
100CROSS
 10
1.822895815354327
 20
3.026870872280431
 30
0.0
 41
0.4379999999999999
 42
0.4379999999999999
  0
CIRCLE
  5
1D4
330
34
100
AcDbEntity
  8
DAMAN
100
AcDbCircle
 10
1.822895815354327
 20
3.026870872280431
 30
0.0
 40
0.1825
  0
CIRCLE
  5
1D5
330
34
100
AcDbEntity
  8
DAMAN
100
AcDbCircle
 10
1.822895815354327
 20
3.026870872280431
 30
0.0
 40
0.2189999999999999
  0
INSERT
  5
1D6
330
34
100
AcDbEntity
  8
DAMAN
100
AcDbBlockReference
  2
100CROSS
 10
1.822895815354327
 20
0.7148708722804314
 30
0.0
 41
0.4379999999999999
 42
0.4379999999999999
  0
CIRCLE
  5
1D7
330
34
100
AcDbEntity
  8
DAMAN
100
AcDbCircle
 10
1.822895815354327
 20
0.7148708722804314
 30
0.0
 40
0.1825
  0
CIRCLE
  5
1D8
330
34
100
AcDbEntity
  8
DAMAN
100
AcDbCircle
 10
1.822895815354327
 20
0.7148708722804314
 30
0.0
 40
0.2189999999999999
  0
INSERT
  5
1D9
330
34
100
AcDbEntity
  8
DAMAN
100
AcDbBlockReference
  2
100CROSS
 10
0.6348958153543279
 20
0.7148708722804314
 30
0.0
 41
0.4379999999999999
 42
0.4379999999999999
  0
CIRCLE
  5
1DA
330
34
100
AcDbEntity
  8
DAMAN
100
AcDbCircle
 10
0.6348958153543279
 20
0.7148708722804314
 30
0.0
 40
0.1825
  0
CIRCLE
  5
1DB
330
34
100
AcDbEntity
  8
DAMAN
100
AcDbCircle
 10
0.6348958153543279
 20
0.7148708722804314
 30
0.0
 40
0.2189999999999999
  0
INSERT
  5
1DC
330
34
100
AcDbEntity
  8
DAMAN
100
AcDbBlockReference
  2
100CROSS
 10
1.228895815354317
 20
1.870870872280421
 30
0.0
 41
0.9375
 42
0.9375
  0
ENDBLK
  5
1DD
330
34
100
AcDbEntity
  8
0
100
AcDbBlockEnd
  0
BLOCK
  5
1FA
330
36
100
AcDbEntity
  8
0
100
AcDbBlockBegin
  2
06SAET
 70
     0
 10
0.0
 20
0.0
 30
0.0
  3
06SAET
  1

  0
INSERT
  5
1FB
330
36
100
AcDbEntity
  8
DAMAN
100
AcDbBlockReference
  2
100CROSS
 10
0.0
 20
0.0
 30
0.0
  0
CIRCLE
  5
1FC
330
36
100
AcDbEntity
  8
DAMAN
100
AcDbCircle
 10
0.0
 20
0.0
 30
0.0
 40
0.28125
  0
CIRCLE
  5
1FD
330
36
100
AcDbEntity
  8
DAMAN
100
AcDbCircle
 10
0.0
 20
0.0
 30
0.0
 40
0.5
  0
CIRCLE
  5
1FE
330
36
100
AcDbEntity
  8
DAMAN
100
AcDbCircle
 10
0.0
 20
0.0
 30
0.0
 40
0.25
  0
ENDBLK
  5
1FF
330
36
100
AcDbEntity
  8
0
100
AcDbBlockEnd
  0
ENDSEC
  0
SECTION
  2
ENTITIES
  0
LINE
  5
206
330
18
100
AcDbEntity
  8
DAMAN
100
AcDbLine
 10
0.9599747698121845
 20
6.635135138533215
 30
0.0
 11
0.9599747698121845
 21
11.63513513853321
 31
0.0
  0
LINE
  5
207
330
18
100
AcDbEntity
  8
DAMAN
100
AcDbLine
 10
0.9599747698121845
 20
11.63513513853321
 30
0.0
 11
4.959974769812184
 21
11.63513513853321
 31
0.0
  0
LINE
  5
208
330
18
100
AcDbEntity
  8
DAMAN
100
AcDbLine
 10
4.959974769812184
 20
6.635135138533215
 30
0.0
 11
4.959974769812184
 21
11.63513513853321
 31
0.0
  0
LINE
  5
209
330
18
100
AcDbEntity
  8
DAMAN
100
AcDbLine
 10
0.9599747698121845
 20
6.635135138533215
 30
0.0
 11
4.959974769812184
 21
6.635135138533215
 31
0.0
  0
LINE
  5
20A
330
18
100
AcDbEntity
  8
DAMAN
100
AcDbLine
 10
5.959974769812184
 20
6.635135138533215
 30
0.0
 11
5.959974769812184
 21
11.63513513853321
 31
0.0
  0
LINE
  5
20B
330
18
100
AcDbEntity
  8
DAMAN
100
AcDbLine
 10
10.45997476981218
 20
6.635135138533215
 30
0.0
 11
10.45997476981218
 21
11.63513513853321
 31
0.0
  0
LINE
  5
20C
330
18
100
AcDbEntity
  8
DAMAN
100
AcDbLine
 10
11.45997476981218
 20
6.635135138533215
 30
0.0
 11
11.45997476981218
 21
11.63513513853321
 31
0.0
  0
LINE
  5
20D
330
18
100
AcDbEntity
  8
DAMAN
100
AcDbLine
 10
15.45997476981218
 20
6.635135138533215
 30
0.0
 11
15.45997476981218
 21
11.63513513853321
 31
0.0
  0
LINE
  5
20E
330
18
100
AcDbEntity
  8
DAMAN
100
AcDbLine
 10
16.45997476981218
 20
6.635135138533215
 30
0.0
 11
16.45997476981218
 21
11.63513513853321
 31
0.0
  0
LINE
  5
20F
330
18
100
AcDbEntity
  8
DAMAN
100
AcDbLine
 10
20.95997476981218
 20
6.635135138533215
 30
0.0
 11
20.95997476981218
 21
11.63513513853321
 31
0.0
  0
LINE
  5
210
330
18
100
AcDbEntity
  8
DAMAN
100
AcDbLine
 10
5.959974769812184
 20
6.635135138533215
 30
0.0
 11
10.45997476981218
 21
6.635135138533215
 31
0.0
  0
LINE
  5
211
330
18
100
AcDbEntity
  8
DAMAN
100
AcDbLine
 10
20.95997476981218
 20
11.63513513853321
 30
0.0
 11
16.45997476981218
 21
11.63513513853321
 31
0.0
  0
LINE
  5
212
330
18
100
AcDbEntity
  8
DAMAN
100
AcDbLine
 10
10.45997476981218
 20
11.63513513853321
 30
0.0
 11
5.959974769812184
 21
11.63513513853321
 31
0.0
  0
LINE
  5
213
330
18
100
AcDbEntity
  8
DAMAN
100
AcDbLine
 10
11.45997476981218
 20
6.635135138533215
 30
0.0
 11
15.45997476981218
 21
6.635135138533215
 31
0.0
  0
LINE
  5
214
330
18
100
AcDbEntity
  8
DAMAN
100
AcDbLine
 10
16.45997476981218
 20
6.635135138533215
 30
0.0
 11
20.95997476981218
 21
6.635135138533215
 31
0.0
  0
LINE
  5
215
330
18
100
AcDbEntity
  8
DAMAN
100
AcDbLine
 10
15.45997476981218
 20
11.63513513853321
 30
0.0
 11
11.45997476981218
 21
11.63513513853321
 31
0.0
  0
LINE
  5
216
330
18
100
AcDbEntity
  8
DAMAN
100
AcDbLine
 10
5.959974769812184
 20
5.635135138533215
 30
0.0
 11
10.45997476981218
 21
5.635135138533215
 31
0.0
  0
LINE
  5
217
330
18
100
AcDbEntity
  8
DAMAN
100
AcDbLine
 10
5.959974769812184
 20
1.635135138533215
 30
0.0
 11
10.45997476981218
 21
1.635135138533215
 31
0.0
  0
LINE
  5
218
330
18
100
AcDbEntity
  8
DAMAN
100
AcDbLine
 10
5.959974769812184
 20
5.635135138533215
 30
0.0
 11
5.959974769812184
 21
1.635135138533215
 31
0.0
  0
LINE
  5
219
330
18
100
AcDbEntity
  8
DAMAN
100
AcDbLine
 10
10.45997476981218
 20
1.635135138533215
 30
0.0
 11
10.45997476981218
 21
5.635135138533215
 31
0.0
  0
INSERT
  5
21A
330
18
100
AcDbEntity
  8
DAMAN
100
AcDbBlockReference
  2
20CD61
 10
10.09000530636502
 20
2.655488541442739
 30
0.0
 50
90.0
  0
INSERT
  5
21B
330
18
100
AcDbEntity
  8
DAMAN
100
AcDbBlockReference
  2
06SAET
 10
8.209974769812184
 20
15.88513513853321
 30
0.0
 50
270.0
  0
TEXT
  5
21C
330
18
100
AcDbEntity
  8
DAMAN
100
AcDbText
 10
7.902136952815837
 20
15.11669014717197
 30
0.0
 40
0.2
  1
Z1
 50
180.0
100
AcDbText
  0
INSERT
  5
21D
330
18
100
AcDbEntity
  8
DAMAN
100
AcDbBlockReference
  2
06SAET
 10
3.209974769812184
 20
9.760135138533193
 30
0.0
  0
TEXT
  5
21E
330
18
100
AcDbEntity
  8
DAMAN
100
AcDbText
 10
3.676844166017687
 20
9.39189188079154
 30
0.0
 40
0.2
  1
X
 50
270.0
100
AcDbText
  0
INSERT
  5
21F
330
18
100
AcDbEntity
  8
DAMAN
100
AcDbBlockReference
  2
06SAET
 10
4.459974769812165
 20
7.885135138533193
 30
0.0
  0
TEXT
  5
220
330
18
100
AcDbEntity
  8
DAMAN
100
AcDbText
 10
3.961585960164569
 20
7.310810831199219
 30
0.0
 40
0.2
  1
Z2
 50
270.0
100
AcDbText
  0
CIRCLE
  5
221
330
18
100
AcDbEntity
  8
DAMAN
100
AcDbCircle
 10
8.224718580903934
 20
9.760135138533192
 30
0.0
 40
0.8849999999999999
  0
CIRCLE
  5
222
330
18
100
AcDbEntity
  8
DAMAN
100
AcDbCircle
 10
8.224718580903934
 20
9.760135138533192
 30
0.0
 40
0.6700000000000001
  0
CIRCLE
  5
223
330
18
100
AcDbEntity
  8
DAMAN
100
AcDbCircle
 10
8.224718580903934
 20
9.760135138533192
 30
0.0
 40
0.4900000000000001
  0
INSERT
  5
224
330
18
100
AcDbEntity
  8
DAMAN
100
AcDbBlockReference
  2
100CROSS
 10
9.364718580903922
 20
10.90013513853318
 30
0.0
 41
0.4987500000000001
 42
0.4987500000000001
  0
CIRCLE
  5
225
330
18
100
AcDbEntity
  8
DAMAN
100
AcDbCircle
 10
9.364718580903922
 20
10.90013513853318
 30
0.0
 40
0.249375
  0
CIRCLE
  5
226
330
18
100
AcDbEntity
  8
DAMAN
100
AcDbCircle
 10
9.364718580903922
 20
10.90013513853318
 30
0.0
 40
0.2078125
  0
CIRCLE
  5
227
330
18
100
AcDbEntity
  8
DAMAN
100
AcDbCircle
 10
7.084718580903924
 20
10.90013513853318
 30
0.0
 40
0.249375
  0
CIRCLE
  5
228
330
18
100
AcDbEntity
  8
DAMAN
100
AcDbCircle
 10
7.084718580903924
 20
10.90013513853318
 30
0.0
 40
0.2078125
  0
INSERT
  5
229
330
18
100
AcDbEntity
  8
DAMAN
100
AcDbBlockReference
  2
100CROSS
 10
7.084718580903924
 20
8.620135138533182
 30
0.0
 41
0.4987500000000001
 42
0.4987500000000001
  0
CIRCLE
  5
22A
330
18
100
AcDbEntity
  8
DAMAN
100
AcDbCircle
 10
7.084718580903924
 20
8.620135138533182
 30
0.0
 40
0.249375
  0
CIRCLE
  5
22B
330
18
100
AcDbEntity
  8
DAMAN
100
AcDbCircle
 10
7.084718580903924
 20
8.620135138533182
 30
0.0
 40
0.2078125
  0
INSERT
  5
22C
330
18
100
AcDbEntity
  8
DAMAN
100
AcDbBlockReference
  2
100CROSS
 10
9.364718580903922
 20
8.620135138533182
 30
0.0
 41
0.4987500000000001
 42
0.4987500000000001
  0
CIRCLE
  5
22D
330
18
100
AcDbEntity
  8
DAMAN
100
AcDbCircle
 10
9.364718580903922
 20
8.620135138533182
 30
0.0
 40
0.249375
  0
CIRCLE
  5
22E
330
18
100
AcDbEntity
  8
DAMAN
100
AcDbCircle
 10
9.364718580903922
 20
8.620135138533182
 30
0.0
 40
0.2078125
  0
CIRCLE
  5
22F
330
18
100
AcDbEntity
  8
DAMAN
100
AcDbCircle
 10
8.224718580903935
 20
11.06013513853319
 30
0.0
 40
0.12
  0
CIRCLE
  5
230
330
18
100
AcDbEntity
  8
DAMAN
100
AcDbCircle
 10
6.924718580903935
 20
9.760135138533193
 30
0.0
 40
0.12
  0
CIRCLE
  5
231
330
18
100
AcDbEntity
  8
DAMAN
100
AcDbCircle
 10
8.224718580903932
 20
8.460135138533193
 30
0.0
 40
0.12
  0
CIRCLE
  5
232
330
18
100
AcDbEntity
  8
DAMAN
100
AcDbCircle
 10
9.524718580903932
 20
9.76013513853319
 30
0.0
 40
0.12
  0
CIRCLE
  5
233
330
18
100
AcDbEntity
  8
DAMAN
100
AcDbCircle
 10
7.594718580903933
 20
10.90013513853319
 30
0.0
 40
0.12
  0
INSERT
  5
234
330
18
100
AcDbEntity
  8
DAMAN
100
AcDbBlockReference
  2
100CROSS
 10
7.084718580903924
 20
10.90013513853318
 30
0.0
 41
0.4987500000000001
 42
0.4987500000000001
  0
INSERT
  5
235
330
18
100
AcDbEntity
  8
DAMAN
100
AcDbBlockReference
  2
100CROSS
 10
8.224718580903935
 20
11.06013513853319
 30
0.0
 41
0.31125
 42
0.31125
  0
INSERT
  5
236
330
18
100
AcDbEntity
  8
DAMAN
100
AcDbBlockReference
  2
100CROSS
 10
7.594718580903933
 20
10.90013513853319
 30
0.0
 41
0.31125
 42
0.31125
  0
INSERT
  5
237
330
18
100
AcDbEntity
  8
DAMAN
100
AcDbBlockReference
  2
100CROSS
 10
6.924718580903935
 20
9.760135138533193
 30
0.0
 41
0.31125
 42
0.31125
  0
INSERT
  5
238
330
18
100
AcDbEntity
  8
DAMAN
100
AcDbBlockReference
  2
100CROSS
 10
8.224718580903932
 20
8.460135138533193
 30
0.0
 41
0.31125
 42
0.31125
  0
INSERT
  5
239
330
18
100
AcDbEntity
  8
DAMAN
100
AcDbBlockReference
  2
100CROSS
 10
9.524718580903932
 20
9.76013513853319
 30
0.0
 41
0.31125
 42
0.31125
  0
INSERT
  5
23A
330
18
100
AcDbEntity
  8
DAMAN
100
AcDbBlockReference
  2
100CROSS
 10
8.224718580903934
 20
9.760135138533192
 30
0.0
 41
1.2510791015625
 42
1.2510791015625
  0
INSERT
  5
23B
330
18
100
AcDbEntity
  8
DAMAN
100
AcDbBlockReference
  2
100CROSS
 10
11.84666422293718
 20
11.26013513853322
 30
0.0
 41
0.3740625
 42
0.3740625
  0
CIRCLE
  5
23C
330
18
100
AcDbEntity
  8
DAMAN
100
AcDbCircle
 10
11.84666422293718
 20
11.26013513853322
 30
0.0
 40
0.155859375
  0
CIRCLE
  5
23D
330
18
100
AcDbEntity
  8
DAMAN
100
AcDbCircle
 10
11.84666422293718
 20
11.26013513853322
 30
0.0
 40
0.18703125
  0
INSERT
  5
23E
330
18
100
AcDbEntity
  8
DAMAN
100
AcDbBlockReference
  2
100CROSS
 10
11.83497476981218
 20
7.010135138533215
 30
0.0
 41
0.3740625
 42
0.3740625
  0
CIRCLE
  5
23F
330
18
100
AcDbEntity
  8
DAMAN
100
AcDbCircle
 10
11.83497476981218
 20
7.010135138533215
 30
0.0
 40
0.155859375
  0
CIRCLE
  5
240
330
18
100
AcDbEntity
  8
DAMAN
100
AcDbCircle
 10
11.83497476981218
 20
7.010135138533215
 30
0.0
 40
0.18703125
  0
INSERT
  5
241
330
18
100
AcDbEntity
  8
DAMAN
100
AcDbBlockReference
  2
100CROSS
 10
15.08497476981218
 20
7.510135138533215
 30
0.0
 41
0.3740625
 42
0.3740625
  0
CIRCLE
  5
242
330
18
100
AcDbEntity
  8
DAMAN
100
AcDbCircle
 10
15.08497476981218
 20
7.510135138533215
 30
0.0
 40
0.155859375
  0
CIRCLE
  5
243
330
18
100
AcDbEntity
  8
DAMAN
100
AcDbCircle
 10
15.08497476981218
 20
7.510135138533215
 30
0.0
 40
0.18703125
  0
INSERT
  5
244
330
18
100
AcDbEntity
  8
DAMAN
100
AcDbBlockReference
  2
100CROSS
 10
15.08497476981218
 20
10.76013513853321
 30
0.0
 41
0.3740625
 42
0.3740625
  0
CIRCLE
  5
245
330
18
100
AcDbEntity
  8
DAMAN
100
AcDbCircle
 10
15.08497476981218
 20
10.76013513853321
 30
0.0
 40
0.155859375
  0
CIRCLE
  5
246
330
18
100
AcDbEntity
  8
DAMAN
100
AcDbCircle
 10
15.08497476981218
 20
10.76013513853321
 30
0.0
 40
0.18703125
  0
INSERT
  5
247
330
18
100
AcDbEntity
  8
DAMAN
100
AcDbBlockReference
  2
100CROSS
 10
16.83497476981218
 20
11.26013513853321
 30
0.0
 41
0.3740625
 42
0.3740625
  0
CIRCLE
  5
248
330
18
100
AcDbEntity
  8
DAMAN
100
AcDbCircle
 10
16.83497476981218
 20
11.26013513853321
 30
0.0
 40
0.155859375
  0
CIRCLE
  5
249
330
18
100
AcDbEntity
  8
DAMAN
100
AcDbCircle
 10
16.83497476981218
 20
11.26013513853321
 30
0.0
 40
0.18703125
  0
INSERT
  5
24A
330
18
100
AcDbEntity
  8
DAMAN
100
AcDbBlockReference
  2
100CROSS
 10
16.83497476981218
 20
7.010135138533215
 30
0.0
 41
0.3740625
 42
0.3740625
  0
CIRCLE
  5
24B
330
18
100
AcDbEntity
  8
DAMAN
100
AcDbCircle
 10
16.83497476981218
 20
7.010135138533215
 30
0.0
 40
0.155859375
  0
CIRCLE
  5
24C
330
18
100
AcDbEntity
  8
DAMAN
100
AcDbCircle
 10
16.83497476981218
 20
7.010135138533215
 30
0.0
 40
0.18703125
  0
INSERT
  5
24D
330
18
100
AcDbEntity
  8
DAMAN
100
AcDbBlockReference
  2
100CROSS
 10
20.58497476981218
 20
7.010135138533215
 30
0.0
 41
0.3740625
 42
0.3740625
  0
CIRCLE
  5
24E
330
18
100
AcDbEntity
  8
DAMAN
100
AcDbCircle
 10
20.58497476981218
 20
7.010135138533215
 30
0.0
 40
0.155859375
  0
CIRCLE
  5
24F
330
18
100
AcDbEntity
  8
DAMAN
100
AcDbCircle
 10
20.58497476981218
 20
7.010135138533215
 30
0.0
 40
0.18703125
  0
INSERT
  5
250
330
18
100
AcDbEntity
  8
DAMAN
100
AcDbBlockReference
  2
100CROSS
 10
20.58497476981218
 20
11.26013513853321
 30
0.0
 41
0.3740625
 42
0.3740625
  0
CIRCLE
  5
251
330
18
100
AcDbEntity
  8
DAMAN
100
AcDbCircle
 10
20.58497476981218
 20
11.26013513853321
 30
0.0
 40
0.155859375
  0
CIRCLE
  5
252
330
18
100
AcDbEntity
  8
DAMAN
100
AcDbCircle
 10
20.58497476981218
 20
11.26013513853321
 30
0.0
 40
0.18703125
  0
INSERT
  5
253
330
18
100
AcDbEntity
  8
DAMAN
100
AcDbBlockReference
  2
20CD61
 10
20.58084564209262
 20
8.531239323178878
 30
0.0
 50
90.0
  0
INSERT
  5
254
330
18
100
AcDbEntity
  8
DAMAN
100
AcDbBlockReference
  2
06SAET
 10
13.20997476981218
 20
9.760135138533215
 30
0.0
  0
TEXT
  5
255
330
18
100
AcDbEntity
  8
DAMAN
100
AcDbText
 10
12.66896246768919
 20
10.25675676740404
 30
0.0
 40
0.2
  1
Y
 50
90.0
100
AcDbText
  0
TEXT
  5
256
330
18
100
AcDbEntity
  8
DAMAN
100
AcDbText
 10
9.478060543250599
 20
5.148648656577464
 30
0.0
 40
0.2
  1
B
100
AcDbText
  0
TEXT
  5
257
330
18
100
AcDbEntity
  8
DAMAN
100
AcDbText
 10
18.56401864940283
 20
7.310810831199219
 30
0.0
 40
0.2
  1
A
100
AcDbText
  0
TEXT
  5
258
330
18
100
AcDbEntity
  8
DAMAN
100
AcDbText
 10
7.125446351162288
 20
2.04054051222328
 30
0.0
 40
0.2
  1
DAMAN ****
100
AcDbText
  0
LINE
  5
259
330
18
100
AcDbEntity
  8
DAMAN
100
AcDbLine
 10
5.959974769812184
 20
12.63513513853321
 30
0.0
 11
5.959974769812184
 21
16.63513513853321
 31
0.0
  0
LINE
  5
25A
330
18
100
AcDbEntity
  8
DAMAN
100
AcDbLine
 10
5.959974769812184
 20
12.63513513853321
 30
0.0
 11
10.45997476981218
 21
12.63513513853321
 31
0.0
  0
LINE
  5
25B
330
18
100
AcDbEntity
  8
DAMAN
100
AcDbLine
 10
10.45997476981218
 20
16.63513513853321
 30
0.0
 11
10.45997476981218
 21
12.63513513853321
 31
0.0
  0
LINE
  5
25C
330
18
100
AcDbEntity
  8
DAMAN
100
AcDbLine
 10
5.959974769812184
 20
16.63513513853321
 30
0.0
 11
10.45997476981218
 21
16.63513513853321
 31
0.0
  0
ENDSEC
  0
SECTION
  2
OBJECTS
  0
DICTIONARY
  5
C
330
0
100
AcDbDictionary
  3
ACAD_GROUP
350
D
  3
ACAD_LAYOUT
350
265
  3
ACAD_MLINESTYLE
350
E
  3
ACAD_PLOTSETTINGS
350
266
  3
ACAD_PLOTSTYLENAME
350
263
  3
ACDBHEADERROUNDTRIPXREC
350
26C
  0
DICTIONARY
  5
28E
330
18
100
AcDbDictionary
280
     1
  3
ACAD_LAYOUTSELFREF
360
28F
  0
DICTIONARY
  5
28C
330
15
100
AcDbDictionary
280
     1
  3
ACAD_LAYOUTSELFREF
360
28D
  0
DICTIONARY
  5
D
102
{ACAD_REACTORS
330
C
102
}
330
C
100
AcDbDictionary
  0
DICTIONARY
  5
265
102
{ACAD_REACTORS
330
C
102
}
330
C
100
AcDbDictionary
  0
DICTIONARY
  5
E
102
{ACAD_REACTORS
330
C
102
}
330
C
100
AcDbDictionary
  3
STANDARD
350
1B
  0
DICTIONARY
  5
266
102
{ACAD_REACTORS
330
C
102
}
330
C
100
AcDbDictionary
  0
ACDBDICTIONARYWDFLT
  5
263
102
{ACAD_REACTORS
330
C
102
}
330
C
100
AcDbDictionary
281
     1
  3
Normal
350
264
100
AcDbDictionaryWithDefault
340
264
  0
DICTIONARY
  5
26C
102
{ACAD_REACTORS
330
C
102
}
330
C
100
AcDbDictionary
  3
CEPSNTYPE
350
276
  3
FINGERPRINTGUID
350
277
  3
HYPERLINKBASE
350
26F
  3
INSUNITS
350
275
  3
LAYOUTDICT
350
271
  3
LWETCUNION
350
274
  3
PLOTSETDICT
350
272
  3
PLOTSTYLNAMDICT
350
273
  3
PSVPSCALE
350
279
  3
PUCSBASE
350
27C
  3
PUCSORGBACK
350
282
  3
PUCSORGBOTTOM
350
27E
  3
PUCSORGFRONT
350
281
  3
PUCSORGLEFT
350
27F
  3
PUCSORGRIGHT
350
280
  3
PUCSORGTOP
350
27D
  3
PUCSORTHOREF
350
27A
  3
PUCSORTHOVIEW
350
27B
  3
STYLESHEET
350
270
  3
TSTACKALIGN
350
26D
  3
TSTACKSIZE
350
26E
  3
UCSBASE
350
285
  3
UCSORGBACK
350
28B
  3
UCSORGBOTTOM
350
287
  3
UCSORGFRONT
350
28A
  3
UCSORGLEFT
350
288
  3
UCSORGRIGHT
350
289
  3
UCSORGTOP
350
286
  3
UCSORTHOREF
350
283
  3
UCSORTHOVIEW
350
284
  3
VERSIONGUID
350
278
  0
XRECORD
  5
28F
102
{ACAD_REACTORS
330
28E
102
}
330
28E
100
AcDbXrecord
340
18
  0
XRECORD
  5
28D
102
{ACAD_REACTORS
330
28C
102
}
330
28C
100
AcDbXrecord
340
15
  0
MLINESTYLE
  5
1B
102
{ACAD_REACTORS
330
E
102
}
330
E
100
AcDbMlineStyle
  2
STANDARD
 70
     0
  3

 62
     0
 51
90.0
 52
90.0
 71
     2
 49
0.5
 62
   256
  6
BYLAYER
 49
-0.5
 62
   256
  6
BYLAYER
  0
ACDBPLACEHOLDER
  5
264
102
{ACAD_REACTORS
330
263
102
}
330
263
100
AcDbPlaceHolder
280
     0
  0
XRECORD
  5
276
102
{ACAD_REACTORS
330
26C
102
}
330
26C
100
AcDbXrecord
 90
        0
  0
XRECORD
  5
277
102
{ACAD_REACTORS
330
26C
102
}
330
26C
100
AcDbXrecord
  1
{F9EB15FF-BBD7-4D1C-BC3B-A00C28807C78}
  0
XRECORD
  5
26F
102
{ACAD_REACTORS
330
26C
102
}
330
26C
100
AcDbXrecord
  1

  0
XRECORD
  5
275
102
{ACAD_REACTORS
330
26C
102
}
330
26C
100
AcDbXrecord
 90
        0
  0
XRECORD
  5
271
102
{ACAD_REACTORS
330
26C
102
}
330
26C
100
AcDbXrecord
340
265
  0
XRECORD
  5
274
102
{ACAD_REACTORS
330
26C
102
}
330
26C
100
AcDbXrecord
 90
    14877
  0
XRECORD
  5
272
102
{ACAD_REACTORS
330
26C
102
}
330
26C
100
AcDbXrecord
340
266
  0
XRECORD
  5
273
102
{ACAD_REACTORS
330
26C
102
}
330
26C
100
AcDbXrecord
340
263
  0
XRECORD
  5
279
102
{ACAD_REACTORS
330
26C
102
}
330
26C
100
AcDbXrecord
 40
0.0
  0
XRECORD
  5
27C
102
{ACAD_REACTORS
330
26C
102
}
330
26C
100
AcDbXrecord
340
0
  0
XRECORD
  5
282
102
{ACAD_REACTORS
330
26C
102
}
330
26C
100
AcDbXrecord
 10
0.0
 20
0.0
 30
0.0
  0
XRECORD
  5
27E
102
{ACAD_REACTORS
330
26C
102
}
330
26C
100
AcDbXrecord
 10
0.0
 20
0.0
 30
0.0
  0
XRECORD
  5
281
102
{ACAD_REACTORS
330
26C
102
}
330
26C
100
AcDbXrecord
 10
0.0
 20
0.0
 30
0.0
  0
XRECORD
  5
27F
102
{ACAD_REACTORS
330
26C
102
}
330
26C
100
AcDbXrecord
 10
0.0
 20
0.0
 30
0.0
  0
XRECORD
  5
280
102
{ACAD_REACTORS
330
26C
102
}
330
26C
100
AcDbXrecord
 10
0.0
 20
0.0
 30
0.0
  0
XRECORD
  5
27D
102
{ACAD_REACTORS
330
26C
102
}
330
26C
100
AcDbXrecord
 10
0.0
 20
0.0
 30
0.0
  0
XRECORD
  5
27A
102
{ACAD_REACTORS
330
26C
102
}
330
26C
100
AcDbXrecord
340
0
  0
XRECORD
  5
27B
102
{ACAD_REACTORS
330
26C
102
}
330
26C
100
AcDbXrecord
 70
     0
  0
XRECORD
  5
270
102
{ACAD_REACTORS
330
26C
102
}
330
26C
100
AcDbXrecord
  1

  0
XRECORD
  5
26D
102
{ACAD_REACTORS
330
26C
102
}
330
26C
100
AcDbXrecord
 90
        1
  0
XRECORD
  5
26E
102
{ACAD_REACTORS
330
26C
102
}
330
26C
100
AcDbXrecord
 90
       70
  0
XRECORD
  5
285
102
{ACAD_REACTORS
330
26C
102
}
330
26C
100
AcDbXrecord
340
0
  0
XRECORD
  5
28B
102
{ACAD_REACTORS
330
26C
102
}
330
26C
100
AcDbXrecord
 10
0.0
 20
0.0
 30
0.0
  0
XRECORD
  5
287
102
{ACAD_REACTORS
330
26C
102
}
330
26C
100
AcDbXrecord
 10
0.0
 20
0.0
 30
0.0
  0
XRECORD
  5
28A
102
{ACAD_REACTORS
330
26C
102
}
330
26C
100
AcDbXrecord
 10
0.0
 20
0.0
 30
0.0
  0
XRECORD
  5
288
102
{ACAD_REACTORS
330
26C
102
}
330
26C
100
AcDbXrecord
 10
0.0
 20
0.0
 30
0.0
  0
XRECORD
  5
289
102
{ACAD_REACTORS
330
26C
102
}
330
26C
100
AcDbXrecord
 10
0.0
 20
0.0
 30
0.0
  0
XRECORD
  5
286
102
{ACAD_REACTORS
330
26C
102
}
330
26C
100
AcDbXrecord
 10
0.0
 20
0.0
 30
0.0
  0
XRECORD
  5
283
102
{ACAD_REACTORS
330
26C
102
}
330
26C
100
AcDbXrecord
340
0
  0
XRECORD
  5
284
102
{ACAD_REACTORS
330
26C
102
}
330
26C
100
AcDbXrecord
 70
     0
  0
XRECORD
  5
278
102
{ACAD_REACTORS
330
26C
102
}
330
26C
100
AcDbXrecord
  1
{384B75DB-F45B-4BEB-A520-673DD6CC57E6}
  0
ENDSEC
  0
EOF
