  0
SECTION
  2
HEADER
  9
$ACADVER
  1
AC1014
  9
$ACADMAINTVER
 70
     9
  9
$DWGCODEPAGE
  3
ANSI_1252
  9
$INSBASE
 10
0.0
 20
0.0
 30
0.0
  9
$EXTMIN
 10
0.8788501694895316
 20
1.135135130151304
 30
0.0
  9
$EXTMAX
 10
16.87885016948953
 20
9.635135130151304
 30
0.0
  9
$LIMMIN
 10
0.0
 20
0.0
  9
$LIMMAX
 10
15.0
 20
12.0
  9
$ORTHOMODE
 70
     0
  9
$REGENMODE
 70
     1
  9
$FILLMODE
 70
     1
  9
$QTEXTMODE
 70
     0
  9
$MIRRTEXT
 70
     1
  9
$DRAGMODE
 70
     2
  9
$LTSCALE
 40
1.0
  9
$OSMODE
 70
   548
  9
$ATTMODE
 70
     1
  9
$TEXTSIZE
 40
0.2
  9
$TRACEWID
 40
0.05
  9
$TEXTSTYLE
  7
STANDARD
  9
$CLAYER
  8
DAMAN
  9
$CELTYPE
  6
BYLAYER
  9
$CECOLOR
 62
   256
  9
$CELTSCALE
 40
1.0
  9
$DELOBJ
 70
     1
  9
$DISPSILH
 70
     0
  9
$DIMSCALE
 40
1.0
  9
$DIMASZ
 40
0.18
  9
$DIMEXO
 40
0.0625
  9
$DIMDLI
 40
0.38
  9
$DIMRND
 40
0.0
  9
$DIMDLE
 40
0.0
  9
$DIMEXE
 40
0.18
  9
$DIMTP
 40
0.0
  9
$DIMTM
 40
0.0
  9
$DIMTXT
 40
0.18
  9
$DIMCEN
 40
0.09
  9
$DIMTSZ
 40
0.0
  9
$DIMTOL
 70
     0
  9
$DIMLIM
 70
     0
  9
$DIMTIH
 70
     1
  9
$DIMTOH
 70
     1
  9
$DIMSE1
 70
     0
  9
$DIMSE2
 70
     0
  9
$DIMTAD
 70
     0
  9
$DIMZIN
 70
     0
  9
$DIMBLK
  1

  9
$DIMASO
 70
     1
  9
$DIMSHO
 70
     1
  9
$DIMPOST
  1

  9
$DIMAPOST
  1

  9
$DIMALT
 70
     0
  9
$DIMALTD
 70
     2
  9
$DIMALTF
 40
25.4
  9
$DIMLFAC
 40
1.0
  9
$DIMTOFL
 70
     0
  9
$DIMTVP
 40
0.0
  9
$DIMTIX
 70
     0
  9
$DIMSOXD
 70
     0
  9
$DIMSAH
 70
     0
  9
$DIMBLK1
  1

  9
$DIMBLK2
  1

  9
$DIMSTYLE
  2
STANDARD
  9
$DIMCLRD
 70
     0
  9
$DIMCLRE
 70
     0
  9
$DIMCLRT
 70
     0
  9
$DIMTFAC
 40
1.0
  9
$DIMGAP
 40
0.09
  9
$DIMJUST
 70
     0
  9
$DIMSD1
 70
     0
  9
$DIMSD2
 70
     0
  9
$DIMTOLJ
 70
     1
  9
$DIMTZIN
 70
     0
  9
$DIMALTZ
 70
     0
  9
$DIMALTTZ
 70
     0
  9
$DIMFIT
 70
     3
  9
$DIMUPT
 70
     0
  9
$DIMUNIT
 70
     2
  9
$DIMDEC
 70
     4
  9
$DIMTDEC
 70
     4
  9
$DIMALTU
 70
     2
  9
$DIMALTTD
 70
     2
  9
$DIMTXSTY
  7
STANDARD
  9
$DIMAUNIT
 70
     0
  9
$LUNITS
 70
     2
  9
$LUPREC
 70
     4
  9
$SKETCHINC
 40
0.1
  9
$FILLETRAD
 40
0.0
  9
$AUNITS
 70
     0
  9
$AUPREC
 70
     0
  9
$MENU
  1
tom
  9
$ELEVATION
 40
0.0
  9
$PELEVATION
 40
0.0
  9
$THICKNESS
 40
0.0
  9
$LIMCHECK
 70
     0
  9
$BLIPMODE
 70
     0
  9
$CHAMFERA
 40
0.0
  9
$CHAMFERB
 40
0.0
  9
$CHAMFERC
 40
0.0
  9
$CHAMFERD
 40
0.0
  9
$SKPOLY
 70
     0
  9
$TDCREATE
 40
2450452.377721099
  9
$TDUPDATE
 40
2453410.335375578
  9
$TDINDWG
 40
0.0011137847
  9
$TDUSRTIMER
 40
0.0011137847
  9
$USRTIMER
 70
     1
  9
$ANGBASE
 50
0.0
  9
$ANGDIR
 70
     0
  9
$PDMODE
 70
     0
  9
$PDSIZE
 40
0.0
  9
$PLINEWID
 40
0.0
  9
$COORDS
 70
     1
  9
$SPLFRAME
 70
     0
  9
$SPLINETYPE
 70
     6
  9
$SPLINESEGS
 70
     8
  9
$ATTDIA
 70
     0
  9
$ATTREQ
 70
     1
  9
$HANDLING
 70
-16383
  9
$HANDSEED
  5
28A
  9
$SURFTAB1
 70
     6
  9
$SURFTAB2
 70
     6
  9
$SURFTYPE
 70
     6
  9
$SURFU
 70
     6
  9
$SURFV
 70
     6
  9
$UCSNAME
  2

  9
$UCSORG
 10
0.0
 20
0.0
 30
0.0
  9
$UCSXDIR
 10
1.0
 20
0.0
 30
0.0
  9
$UCSYDIR
 10
0.0
 20
1.0
 30
0.0
  9
$PUCSNAME
  2

  9
$PUCSORG
 10
0.0
 20
0.0
 30
0.0
  9
$PUCSXDIR
 10
1.0
 20
0.0
 30
0.0
  9
$PUCSYDIR
 10
0.0
 20
1.0
 30
0.0
  9
$USERI1
 70
     0
  9
$USERI2
 70
     0
  9
$USERI3
 70
     0
  9
$USERI4
 70
     0
  9
$USERI5
 70
     0
  9
$USERR1
 40
0.0
  9
$USERR2
 40
0.0
  9
$USERR3
 40
0.0
  9
$USERR4
 40
0.0
  9
$USERR5
 40
0.0
  9
$WORLDVIEW
 70
     1
  9
$SHADEDGE
 70
     3
  9
$SHADEDIF
 70
    70
  9
$TILEMODE
 70
     1
  9
$MAXACTVP
 70
    16
  9
$PINSBASE
 10
0.0
 20
0.0
 30
0.0
  9
$PLIMCHECK
 70
     0
  9
$PEXTMIN
 10
1.000000000000000E+20
 20
1.000000000000000E+20
 30
1.000000000000000E+20
  9
$PEXTMAX
 10
-1.000000000000000E+20
 20
-1.000000000000000E+20
 30
-1.000000000000000E+20
  9
$PLIMMIN
 10
0.0
 20
0.0
  9
$PLIMMAX
 10
12.0
 20
9.0
  9
$UNITMODE
 70
     0
  9
$VISRETAIN
 70
     0
  9
$PLINEGEN
 70
     0
  9
$PSLTSCALE
 70
     1
  9
$TREEDEPTH
 70
  3020
  9
$PICKSTYLE
 70
     1
  9
$CMLSTYLE
  2
STANDARD
  9
$CMLJUST
 70
     0
  9
$CMLSCALE
 40
1.0
  9
$PROXYGRAPHICS
 70
     1
  9
$MEASUREMENT
 70
     0
  0
ENDSEC
  0
SECTION
  2
CLASSES
  0
CLASS
  1
ACDBDICTIONARYWDFLT
  2
AcDbDictionaryWithDefault
  3
AutoCAD 2000
 90
        0
280
     0
281
     0
  0
CLASS
  1
ACDBPLACEHOLDER
  2
AcDbPlaceHolder
  3
AutoCAD 2000
 90
        0
280
     0
281
     0
  0
CLASS
  1
LAYOUT
  2
AcDbLayout
  3
AutoCAD 2000
 90
        0
280
     0
281
     0
  0
CLASS
  1
LONG_TRANSACTION
  2
AcDbLongTransaction
  3
AutoCAD 2000
 90
        0
280
     0
281
     0
  0
CLASS
  1
LWPOLYLINE
  2
AcDbPolyline
  3
AutoCAD 2000
 90
        0
280
     0
281
     1
  0
CLASS
  1
HATCH
  2
AcDbHatch
  3
AutoCAD 2000
 90
        0
280
     0
281
     1
  0
CLASS
  1
XRECORD
  2
AcDbXrecord
  3
AutoCAD 2000
 90
        0
280
     0
281
     0
  0
ENDSEC
  0
SECTION
  2
TABLES
  0
TABLE
  2
VPORT
  5
8
330
0
100
AcDbSymbolTable
 70
     3
  0
VPORT
  5
265
330
8
100
AcDbSymbolTableRecord
100
AcDbViewportTableRecord
  2
*ACTIVE
 70
     0
 10
0.0
 20
0.0
 11
1.0
 21
1.0
 12
11.21241050119331
 22
6.474605853165373
 13
0.0
 23
0.0
 14
1.0
 24
1.0
 15
0.0
 25
0.0
 16
0.0
 26
0.0
 36
1.0
 17
0.0
 27
0.0
 37
0.0
 40
12.94921170633074
 41
1.731751824817518
 42
50.0
 43
0.0
 44
0.0
 50
0.0
 51
0.0
 71
     0
 72
   100
 73
     1
 74
     1
 75
     0
 76
     0
 77
     0
 78
     0
  0
ENDTAB
  0
TABLE
  2
LTYPE
  5
5
330
0
100
AcDbSymbolTable
 70
     2
  0
LTYPE
  5
12
330
5
100
AcDbSymbolTableRecord
100
AcDbLinetypeTableRecord
  2
BYBLOCK
 70
     0
  3

 72
    65
 73
     0
 40
0.0
  0
LTYPE
  5
13
330
5
100
AcDbSymbolTableRecord
100
AcDbLinetypeTableRecord
  2
BYLAYER
 70
     0
  3

 72
    65
 73
     0
 40
0.0
  0
LTYPE
  5
14
330
5
100
AcDbSymbolTableRecord
100
AcDbLinetypeTableRecord
  2
CONTINUOUS
 70
     0
  3
Solid line
 72
    65
 73
     0
 40
0.0
  0
LTYPE
  5
33
330
5
100
AcDbSymbolTableRecord
100
AcDbLinetypeTableRecord
  2
HIDDEN
 70
     0
  3
__ __ __ __ __ __ __ __ __ __ __ __ __ __ __ __
 72
    65
 73
     2
 40
0.375
 49
0.25
 74
     0
 49
-0.125
 74
     0
  0
ENDTAB
  0
TABLE
  2
LAYER
  5
2
330
0
100
AcDbSymbolTable
 70
     2
  0
LAYER
  5
F
330
2
100
AcDbSymbolTableRecord
100
AcDbLayerTableRecord
  2
0
 70
     0
 62
     7
  6
CONTINUOUS
  0
LAYER
  5
3A
330
2
100
AcDbSymbolTableRecord
100
AcDbLayerTableRecord
  2
DAMAN
 70
     0
 62
     5
  6
CONTINUOUS
  0
ENDTAB
  0
TABLE
  2
STYLE
  5
3
330
0
100
AcDbSymbolTable
 70
     1
  0
STYLE
  5
10
330
3
100
AcDbSymbolTableRecord
100
AcDbTextStyleTableRecord
  2
STANDARD
 70
     0
 40
0.0
 41
1.0
 50
0.0
 71
     0
 42
0.2
  3
txt
  4

  0
ENDTAB
  0
TABLE
  2
VIEW
  5
6
330
0
100
AcDbSymbolTable
 70
     0
  0
ENDTAB
  0
TABLE
  2
UCS
  5
7
330
0
100
AcDbSymbolTable
 70
     0
  0
ENDTAB
  0
TABLE
  2
APPID
  5
9
330
0
100
AcDbSymbolTable
 70
     1
  0
APPID
  5
11
330
9
100
AcDbSymbolTableRecord
100
AcDbRegAppTableRecord
  2
ACAD
 70
     0
  0
ENDTAB
  0
TABLE
  2
DIMSTYLE
  5
A
330
0
100
AcDbSymbolTable
 70
     1
  0
DIMSTYLE
105
20A
330
A
100
AcDbSymbolTableRecord
100
AcDbDimStyleTableRecord
  2
STANDARD
 70
     0
  3

  4

  5

  6

  7

 40
1.0
 41
0.18
 42
0.0625
 43
0.38
 44
0.18
 45
0.0
 46
0.0
 47
0.0
 48
0.0
140
0.18
141
0.09
142
0.0
143
25.4
144
1.0
145
0.0
146
1.0
147
0.09
 71
     0
 72
     0
 73
     1
 74
     1
 75
     0
 76
     0
 77
     0
 78
     0
170
     0
171
     2
172
     0
173
     0
174
     0
175
     0
176
     0
177
     0
178
     0
270
     2
271
     4
272
     4
273
     2
274
     2
340
10
275
     0
280
     0
281
     0
282
     0
283
     1
284
     0
285
     0
286
     0
287
     3
288
     0
  0
ENDTAB
  0
TABLE
  2
BLOCK_RECORD
  5
1
330
0
100
AcDbSymbolTable
 70
     4
  0
BLOCK_RECORD
  5
18
102
{ACAD_XDICTIONARY
360
288
102
}
330
1
100
AcDbSymbolTableRecord
100
AcDbBlockTableRecord
  2
*MODEL_SPACE
  0
BLOCK_RECORD
  5
15
102
{ACAD_XDICTIONARY
360
286
102
}
330
1
100
AcDbSymbolTableRecord
100
AcDbBlockTableRecord
  2
*PAPER_SPACE
  0
BLOCK_RECORD
  5
1C
330
1
100
AcDbSymbolTableRecord
100
AcDbBlockTableRecord
  2
04SAET
  0
BLOCK_RECORD
  5
1D
330
1
100
AcDbSymbolTableRecord
100
AcDbBlockTableRecord
  2
100CROSS
  0
BLOCK_RECORD
  5
1E
330
1
100
AcDbSymbolTableRecord
100
AcDbBlockTableRecord
  2
050CROSS
  0
BLOCK_RECORD
  5
32
330
1
100
AcDbSymbolTableRecord
100
AcDbBlockTableRecord
  2
16CD61
  0
ENDTAB
  0
ENDSEC
  0
SECTION
  2
BLOCKS
  0
BLOCK
  5
43
330
18
100
AcDbEntity
  8
0
100
AcDbBlockBegin
  2
*MODEL_SPACE
 70
     0
 10
0.0
 20
0.0
 30
0.0
  3
*MODEL_SPACE
  1

  0
ENDBLK
  5
44
330
18
100
AcDbEntity
  8
0
100
AcDbBlockEnd
  0
BLOCK
  5
41
330
15
100
AcDbEntity
 67
     1
  8
0
100
AcDbBlockBegin
  2
*PAPER_SPACE
 70
     0
 10
0.0
 20
0.0
 30
0.0
  3
*PAPER_SPACE
  1

  0
ENDBLK
  5
42
330
15
100
AcDbEntity
 67
     1
  8
0
100
AcDbBlockEnd
  0
BLOCK
  5
45
330
1C
100
AcDbEntity
  8
0
100
AcDbBlockBegin
  2
04SAET
 70
     0
 10
0.0
 20
0.0
 30
0.0
  3
04SAET
  1

  0
CIRCLE
  5
46
330
1C
100
AcDbEntity
  8
DAMAN
100
AcDbCircle
 10
0.0
 20
0.0
 30
0.0
 40
0.4375
  0
INSERT
  5
47
330
1C
100
AcDbEntity
  8
DAMAN
100
AcDbBlockReference
  2
100CROSS
 10
0.0
 20
0.0
 30
0.0
 41
0.8
 42
0.8
  0
CIRCLE
  5
48
330
1C
100
AcDbEntity
  8
DAMAN
  6
HIDDEN
100
AcDbCircle
 10
-0.0000000000003997
 20
-0.0000000000000409
 30
0.0
 40
0.21875
  0
CIRCLE
  5
49
330
1C
100
AcDbEntity
  8
DAMAN
100
AcDbCircle
 10
0.0
 20
0.0
 30
0.0
 40
0.1875
  0
CIRCLE
  5
4A
330
1C
100
AcDbEntity
  8
DAMAN
100
AcDbCircle
 10
0.0
 20
0.0
 30
0.0
 40
0.2435
  0
ENDBLK
  5
4B
330
1C
100
AcDbEntity
  8
0
100
AcDbBlockEnd
  0
BLOCK
  5
4C
330
1D
100
AcDbEntity
  8
0
100
AcDbBlockBegin
  2
100CROSS
 70
     0
 10
5.62500000000004
 20
4.593750000000039
 30
0.0
  3
100CROSS
  1

  0
INSERT
  5
4D
330
1D
100
AcDbEntity
  8
0
100
AcDbBlockReference
  2
050CROSS
 10
5.62500000000004
 20
4.593750000000039
 30
0.0
  0
ENDBLK
  5
4E
330
1D
100
AcDbEntity
  8
0
100
AcDbBlockEnd
  0
BLOCK
  5
4F
330
1E
100
AcDbEntity
  8
0
100
AcDbBlockBegin
  2
050CROSS
 70
     0
 10
5.000000000000039
 20
5.000000000000039
 30
0.0
  3
050CROSS
  1

  0
LINE
  5
50
330
1E
100
AcDbEntity
  8
0
100
AcDbLine
 10
5.000000000000039
 20
5.281250000000039
 30
0.0
 11
5.000000000000079
 21
5.78125000000004
 31
0.0
  0
LINE
  5
51
330
1E
100
AcDbEntity
  8
0
100
AcDbLine
 10
5.000000000000039
 20
4.875000000000039
 30
0.0
 11
5.000000000000079
 21
5.125000000000039
 31
0.0
  0
LINE
  5
52
330
1E
100
AcDbEntity
  8
0
100
AcDbLine
 10
5.000000000000039
 20
4.156250000000039
 30
0.0
 11
5.000000000000079
 21
4.718750000000039
 31
0.0
  0
LINE
  5
53
330
1E
100
AcDbEntity
  8
0
100
AcDbLine
 10
5.250000000000039
 20
5.000000000000039
 30
0.0
 11
5.81250000000004
 21
5.000000000000079
 31
0.0
  0
LINE
  5
54
330
1E
100
AcDbEntity
  8
0
100
AcDbLine
 10
4.906250000000039
 20
5.000000000000039
 30
0.0
 11
5.093750000000039
 21
5.000000000000079
 31
0.0
  0
LINE
  5
55
330
1E
100
AcDbEntity
  8
0
100
AcDbLine
 10
4.187500000000039
 20
5.000000000000039
 30
0.0
 11
4.750000000000039
 21
5.000000000000079
 31
0.0
  0
ENDBLK
  5
56
330
1E
100
AcDbEntity
  8
0
100
AcDbBlockEnd
  0
BLOCK
  5
1A7
330
32
100
AcDbEntity
  8
0
100
AcDbBlockBegin
  2
16CD61
 70
     0
 10
0.0
 20
0.0
 30
0.0
  3
16CD61
  1

  0
CIRCLE
  5
1A8
330
32
100
AcDbEntity
  8
DAMAN
100
AcDbCircle
 10
2.133291014746944
 20
2.40840841495283
 30
0.0
 40
0.5
  0
CIRCLE
  5
1A9
330
32
100
AcDbEntity
  8
DAMAN
100
AcDbCircle
 10
1.617791014746944
 20
3.43940841495283
 30
0.0
 40
0.1875
  0
CIRCLE
  5
1AA
330
32
100
AcDbEntity
  8
DAMAN
100
AcDbCircle
 10
1.617791014746944
 20
3.43940841495283
 30
0.0
 40
0.15625
  0
INSERT
  5
1AB
330
32
100
AcDbEntity
  8
DAMAN
100
AcDbBlockReference
  2
100CROSS
 10
1.617791014746944
 20
3.43940841495283
 30
0.0
 41
0.375
 42
0.375
  0
CIRCLE
  5
1AC
330
32
100
AcDbEntity
  8
DAMAN
100
AcDbCircle
 10
2.648791014746937
 20
3.43940841495283
 30
0.0
 40
0.1875
  0
CIRCLE
  5
1AD
330
32
100
AcDbEntity
  8
DAMAN
100
AcDbCircle
 10
2.648791014746937
 20
3.43940841495283
 30
0.0
 40
0.15625
  0
INSERT
  5
1AE
330
32
100
AcDbEntity
  8
DAMAN
100
AcDbBlockReference
  2
100CROSS
 10
2.648791014746937
 20
3.43940841495283
 30
0.0
 41
0.375
 42
0.375
  0
CIRCLE
  5
1AF
330
32
100
AcDbEntity
  8
DAMAN
100
AcDbCircle
 10
2.648791014746937
 20
1.377408414952831
 30
0.0
 40
0.1875
  0
CIRCLE
  5
1B0
330
32
100
AcDbEntity
  8
DAMAN
100
AcDbCircle
 10
2.648791014746937
 20
1.377408414952831
 30
0.0
 40
0.15625
  0
INSERT
  5
1B1
330
32
100
AcDbEntity
  8
DAMAN
100
AcDbBlockReference
  2
100CROSS
 10
2.648791014746937
 20
1.377408414952831
 30
0.0
 41
0.375
 42
0.375
  0
CIRCLE
  5
1B2
330
32
100
AcDbEntity
  8
DAMAN
100
AcDbCircle
 10
1.617791014746936
 20
1.377408414952823
 30
0.0
 40
0.1875
  0
CIRCLE
  5
1B3
330
32
100
AcDbEntity
  8
DAMAN
100
AcDbCircle
 10
1.617791014746936
 20
1.377408414952823
 30
0.0
 40
0.15625
  0
INSERT
  5
1B4
330
32
100
AcDbEntity
  8
DAMAN
100
AcDbBlockReference
  2
100CROSS
 10
1.617791014746936
 20
1.377408414952823
 30
0.0
 41
0.375
 42
0.375
  0
INSERT
  5
1B5
330
32
100
AcDbEntity
  8
DAMAN
100
AcDbBlockReference
  2
100CROSS
 10
2.133291014746944
 20
2.40840841495283
 30
0.0
 41
0.75
 42
0.75
  0
ENDBLK
  5
1B6
330
32
100
AcDbEntity
  8
0
100
AcDbBlockEnd
  0
ENDSEC
  0
SECTION
  2
ENTITIES
  0
LINE
  5
1B7
330
18
100
AcDbEntity
  8
DAMAN
100
AcDbLine
 10
0.8788501694895316
 20
5.635135130151304
 30
0.0
 11
0.8788501694895316
 21
9.635135130151304
 31
0.0
  0
LINE
  5
1B8
330
18
100
AcDbEntity
  8
DAMAN
100
AcDbLine
 10
0.8788501694895316
 20
9.635135130151304
 30
0.0
 11
4.378850169489531
 21
9.635135130151304
 31
0.0
  0
LINE
  5
1B9
330
18
100
AcDbEntity
  8
DAMAN
100
AcDbLine
 10
4.378850169489531
 20
5.635135130151304
 30
0.0
 11
4.378850169489531
 21
9.635135130151304
 31
0.0
  0
LINE
  5
1BA
330
18
100
AcDbEntity
  8
DAMAN
100
AcDbLine
 10
0.8788501694895316
 20
5.635135130151304
 30
0.0
 11
4.378850169489531
 21
5.635135130151304
 31
0.0
  0
LINE
  5
1BB
330
18
100
AcDbEntity
  8
DAMAN
100
AcDbLine
 10
5.378850169489531
 20
5.635135130151304
 30
0.0
 11
5.378850169489531
 21
9.635135130151304
 31
0.0
  0
LINE
  5
1BC
330
18
100
AcDbEntity
  8
DAMAN
100
AcDbLine
 10
8.378850169489531
 20
5.635135130151304
 30
0.0
 11
8.378850169489531
 21
9.635135130151304
 31
0.0
  0
LINE
  5
1BD
330
18
100
AcDbEntity
  8
DAMAN
100
AcDbLine
 10
9.378850169489531
 20
5.635135130151304
 30
0.0
 11
9.378850169489531
 21
9.635135130151304
 31
0.0
  0
LINE
  5
1BE
330
18
100
AcDbEntity
  8
DAMAN
100
AcDbLine
 10
12.87885016948953
 20
5.635135130151304
 30
0.0
 11
12.87885016948953
 21
9.635135130151304
 31
0.0
  0
LINE
  5
1BF
330
18
100
AcDbEntity
  8
DAMAN
100
AcDbLine
 10
13.87885016948953
 20
5.635135130151304
 30
0.0
 11
13.87885016948953
 21
9.635135130151304
 31
0.0
  0
LINE
  5
1C0
330
18
100
AcDbEntity
  8
DAMAN
100
AcDbLine
 10
16.87885016948953
 20
5.635135130151304
 30
0.0
 11
16.87885016948953
 21
9.635135130151304
 31
0.0
  0
LINE
  5
1C1
330
18
100
AcDbEntity
  8
DAMAN
100
AcDbLine
 10
5.378850169489531
 20
9.635135130151304
 30
0.0
 11
8.378850169489531
 21
9.635135130151304
 31
0.0
  0
LINE
  5
1C2
330
18
100
AcDbEntity
  8
DAMAN
100
AcDbLine
 10
9.378850169489531
 20
9.635135130151304
 30
0.0
 11
12.87885016948953
 21
9.635135130151304
 31
0.0
  0
LINE
  5
1C3
330
18
100
AcDbEntity
  8
DAMAN
100
AcDbLine
 10
13.87885016948953
 20
9.635135130151304
 30
0.0
 11
16.87885016948953
 21
9.635135130151304
 31
0.0
  0
LINE
  5
1C4
330
18
100
AcDbEntity
  8
DAMAN
100
AcDbLine
 10
16.87885016948953
 20
5.635135130151304
 30
0.0
 11
13.87885016948953
 21
5.635135130151304
 31
0.0
  0
LINE
  5
1C5
330
18
100
AcDbEntity
  8
DAMAN
100
AcDbLine
 10
12.87885016948953
 20
5.635135130151304
 30
0.0
 11
9.378850169489531
 21
5.635135130151304
 31
0.0
  0
LINE
  5
1C6
330
18
100
AcDbEntity
  8
DAMAN
100
AcDbLine
 10
8.378850169489531
 20
5.635135130151304
 30
0.0
 11
5.378850169489531
 21
5.635135130151304
 31
0.0
  0
LINE
  5
1C7
330
18
100
AcDbEntity
  8
DAMAN
100
AcDbLine
 10
8.378850169489531
 20
4.635135130151304
 30
0.0
 11
5.378850169489531
 21
4.635135130151304
 31
0.0
  0
LINE
  5
1C8
330
18
100
AcDbEntity
  8
DAMAN
100
AcDbLine
 10
8.378850169489531
 20
1.135135130151304
 30
0.0
 11
5.378850169489531
 21
1.135135130151304
 31
0.0
  0
LINE
  5
1C9
330
18
100
AcDbEntity
  8
DAMAN
100
AcDbLine
 10
8.378850169489531
 20
1.135135130151304
 30
0.0
 11
8.378850169489531
 21
4.635135130151304
 31
0.0
  0
LINE
  5
1CA
330
18
100
AcDbEntity
  8
DAMAN
100
AcDbLine
 10
5.378850169489531
 20
1.135135130151304
 30
0.0
 11
5.378850169489531
 21
4.635135130151304
 31
0.0
  0
INSERT
  5
1CB
330
18
100
AcDbEntity
  8
DAMAN
100
AcDbBlockReference
  2
04SAET
 10
2.438850169489531
 20
8.885135130151304
 30
0.0
  0
INSERT
  5
1CC
330
18
100
AcDbEntity
  8
DAMAN
100
AcDbBlockReference
  2
04SAET
 10
1.878850169489515
 20
8.010135130151272
 30
0.0
  0
INSERT
  5
1CD
330
18
100
AcDbEntity
  8
DAMAN
100
AcDbBlockReference
  2
04SAET
 10
2.878850169489515
 20
7.010135130151304
 30
0.0
  0
INSERT
  5
1CE
330
18
100
AcDbEntity
  8
DAMAN
100
AcDbBlockReference
  2
16CD61
 10
9.287258584442378
 20
1.141844115404344
 30
0.0
 50
90.0
  0
CIRCLE
  5
1CF
330
18
100
AcDbEntity
  8
DAMAN
100
AcDbCircle
 10
6.886601644435899
 20
8.000000011175856
 30
0.0
 40
0.625
  0
CIRCLE
  5
1D0
330
18
100
AcDbEntity
  8
DAMAN
100
AcDbCircle
 10
6.886601644435899
 20
8.000000011175856
 30
0.0
 40
0.4900000000000001
  0
CIRCLE
  5
1D1
330
18
100
AcDbEntity
  8
DAMAN
100
AcDbCircle
 10
6.886601644435899
 20
8.000000011175856
 30
0.0
 40
0.315
  0
CIRCLE
  5
1D2
330
18
100
AcDbEntity
  8
DAMAN
100
AcDbCircle
 10
5.981601644435898
 20
8.905000011175856
 30
0.0
 40
0.155625
  0
CIRCLE
  5
1D3
330
18
100
AcDbEntity
  8
DAMAN
100
AcDbCircle
 10
5.981601644435898
 20
8.905000011175856
 30
0.0
 40
0.1296875
  0
INSERT
  5
1D4
330
18
100
AcDbEntity
  8
DAMAN
100
AcDbBlockReference
  2
100CROSS
 10
5.981601644435898
 20
8.905000011175856
 30
0.0
 41
0.31125
 42
0.31125
  0
CIRCLE
  5
1D5
330
18
100
AcDbEntity
  8
DAMAN
100
AcDbCircle
 10
5.981601644435898
 20
7.095000011175851
 30
0.0
 40
0.1296875
  0
CIRCLE
  5
1D6
330
18
100
AcDbEntity
  8
DAMAN
100
AcDbCircle
 10
5.981601644435898
 20
7.095000011175851
 30
0.0
 40
0.155625
  0
INSERT
  5
1D7
330
18
100
AcDbEntity
  8
DAMAN
100
AcDbBlockReference
  2
100CROSS
 10
5.981601644435898
 20
7.095000011175851
 30
0.0
 41
0.31125
 42
0.31125
  0
CIRCLE
  5
1D8
330
18
100
AcDbEntity
  8
DAMAN
100
AcDbCircle
 10
7.791601644435899
 20
7.095000011175851
 30
0.0
 40
0.1296875
  0
CIRCLE
  5
1D9
330
18
100
AcDbEntity
  8
DAMAN
100
AcDbCircle
 10
7.791601644435899
 20
7.095000011175851
 30
0.0
 40
0.155625
  0
INSERT
  5
1DA
330
18
100
AcDbEntity
  8
DAMAN
100
AcDbBlockReference
  2
100CROSS
 10
7.791601644435899
 20
7.095000011175851
 30
0.0
 41
0.31125
 42
0.31125
  0
CIRCLE
  5
1DB
330
18
100
AcDbEntity
  8
DAMAN
100
AcDbCircle
 10
7.791601644435899
 20
8.90500001117585
 30
0.0
 40
0.1296875
  0
CIRCLE
  5
1DC
330
18
100
AcDbEntity
  8
DAMAN
100
AcDbCircle
 10
7.791601644435899
 20
8.90500001117585
 30
0.0
 40
0.155625
  0
INSERT
  5
1DD
330
18
100
AcDbEntity
  8
DAMAN
100
AcDbBlockReference
  2
100CROSS
 10
7.791601644435899
 20
8.90500001117585
 30
0.0
 41
0.31125
 42
0.31125
  0
CIRCLE
  5
1DE
330
18
100
AcDbEntity
  8
DAMAN
100
AcDbCircle
 10
6.886601644435899
 20
8.985000011175856
 30
0.0
 40
0.08
  0
CIRCLE
  5
1DF
330
18
100
AcDbEntity
  8
DAMAN
100
AcDbCircle
 10
5.901601644435898
 20
8.000000011175856
 30
0.0
 40
0.08
  0
CIRCLE
  5
1E0
330
18
100
AcDbEntity
  8
DAMAN
100
AcDbCircle
 10
6.886601644435899
 20
7.015000011175857
 30
0.0
 40
0.08
  0
CIRCLE
  5
1E1
330
18
100
AcDbEntity
  8
DAMAN
100
AcDbCircle
 10
7.871601644435899
 20
8.000000011175856
 30
0.0
 40
0.08
  0
INSERT
  5
1E2
330
18
100
AcDbEntity
  8
DAMAN
100
AcDbBlockReference
  2
100CROSS
 10
6.886601644435899
 20
7.015000011175857
 30
0.0
 41
0.2334375
 42
0.2334375
  0
INSERT
  5
1E3
330
18
100
AcDbEntity
  8
DAMAN
100
AcDbBlockReference
  2
100CROSS
 10
6.886601644435899
 20
8.000000011175856
 30
0.0
 41
0.8340527343749998
 42
0.8340527343749998
  0
INSERT
  5
1E4
330
18
100
AcDbEntity
  8
DAMAN
100
AcDbBlockReference
  2
100CROSS
 10
7.871601644435899
 20
8.000000011175856
 30
0.0
 41
0.2334375
 42
0.2334375
  0
INSERT
  5
1E5
330
18
100
AcDbEntity
  8
DAMAN
100
AcDbBlockReference
  2
100CROSS
 10
6.886601644435899
 20
8.985000011175856
 30
0.0
 41
0.2334375
 42
0.2334375
  0
INSERT
  5
1E6
330
18
100
AcDbEntity
  8
DAMAN
100
AcDbBlockReference
  2
100CROSS
 10
5.901601644435898
 20
8.000000011175856
 30
0.0
 41
0.2334375
 42
0.2334375
  0
INSERT
  5
1E7
330
18
100
AcDbEntity
  8
DAMAN
100
AcDbBlockReference
  2
100CROSS
 10
6.471601644435899
 20
8.905000011175854
 30
0.0
 41
0.2334375
 42
0.2334375
  0
CIRCLE
  5
1E8
330
18
100
AcDbEntity
  8
DAMAN
100
AcDbCircle
 10
6.471601644435899
 20
8.905000011175854
 30
0.0
 40
0.08
  0
CIRCLE
  5
1E9
330
18
100
AcDbEntity
  8
DAMAN
100
AcDbCircle
 10
9.691350169489531
 20
5.947635130151304
 30
0.0
 40
0.1296875
  0
CIRCLE
  5
1EA
330
18
100
AcDbEntity
  8
DAMAN
100
AcDbCircle
 10
9.691350169489531
 20
5.947635130151304
 30
0.0
 40
0.155625
  0
INSERT
  5
1EB
330
18
100
AcDbEntity
  8
DAMAN
100
AcDbBlockReference
  2
100CROSS
 10
9.691350169489531
 20
5.947635130151304
 30
0.0
 41
0.31125
 42
0.31125
  0
CIRCLE
  5
1EC
330
18
100
AcDbEntity
  8
DAMAN
100
AcDbCircle
 10
9.691350169489531
 20
9.322635130151304
 30
0.0
 40
0.1296875
  0
CIRCLE
  5
1ED
330
18
100
AcDbEntity
  8
DAMAN
100
AcDbCircle
 10
9.691350169489531
 20
9.322635130151304
 30
0.0
 40
0.155625
  0
INSERT
  5
1EE
330
18
100
AcDbEntity
  8
DAMAN
100
AcDbBlockReference
  2
100CROSS
 10
9.691350169489531
 20
9.322635130151304
 30
0.0
 41
0.31125
 42
0.31125
  0
CIRCLE
  5
1EF
330
18
100
AcDbEntity
  8
DAMAN
100
AcDbCircle
 10
12.56635016948953
 20
8.947635130151304
 30
0.0
 40
0.1296875
  0
CIRCLE
  5
1F0
330
18
100
AcDbEntity
  8
DAMAN
100
AcDbCircle
 10
12.56635016948953
 20
8.947635130151304
 30
0.0
 40
0.155625
  0
INSERT
  5
1F1
330
18
100
AcDbEntity
  8
DAMAN
100
AcDbBlockReference
  2
100CROSS
 10
12.56635016948953
 20
8.947635130151304
 30
0.0
 41
0.31125
 42
0.31125
  0
CIRCLE
  5
1F2
330
18
100
AcDbEntity
  8
DAMAN
100
AcDbCircle
 10
12.56635016948953
 20
6.322635130151304
 30
0.0
 40
0.1296875
  0
CIRCLE
  5
1F3
330
18
100
AcDbEntity
  8
DAMAN
100
AcDbCircle
 10
12.56635016948953
 20
6.322635130151304
 30
0.0
 40
0.155625
  0
INSERT
  5
1F4
330
18
100
AcDbEntity
  8
DAMAN
100
AcDbBlockReference
  2
100CROSS
 10
12.56635016948953
 20
6.322635130151304
 30
0.0
 41
0.31125
 42
0.31125
  0
INSERT
  5
1F5
330
18
100
AcDbEntity
  8
DAMAN
100
AcDbBlockReference
  2
04SAET
 10
10.73885016948951
 20
8.010135130151288
 30
0.0
  0
INSERT
  5
1F6
330
18
100
AcDbEntity
  8
DAMAN
100
AcDbBlockReference
  2
16CD61
 10
17.78725858444237
 20
5.876844115404344
 30
0.0
 50
90.0
  0
INSERT
  5
1F7
330
18
100
AcDbEntity
  8
DAMAN
100
AcDbBlockReference
  2
100CROSS
 10
14.19135016948952
 20
5.945135130151299
 30
0.0
 41
0.31125
 42
0.31125
  0
CIRCLE
  5
1F8
330
18
100
AcDbEntity
  8
DAMAN
100
AcDbCircle
 10
14.19135016948952
 20
5.945135130151299
 30
0.0
 40
0.155625
  0
CIRCLE
  5
1F9
330
18
100
AcDbEntity
  8
DAMAN
100
AcDbCircle
 10
14.19135016948952
 20
5.945135130151299
 30
0.0
 40
0.1296875
  0
CIRCLE
  5
1FA
330
18
100
AcDbEntity
  8
DAMAN
100
AcDbCircle
 10
16.56635016948953
 20
5.945135130151298
 30
0.0
 40
0.1296875
  0
CIRCLE
  5
1FB
330
18
100
AcDbEntity
  8
DAMAN
100
AcDbCircle
 10
16.56635016948953
 20
5.945135130151298
 30
0.0
 40
0.155625
  0
INSERT
  5
1FC
330
18
100
AcDbEntity
  8
DAMAN
100
AcDbBlockReference
  2
100CROSS
 10
16.56635016948953
 20
5.945135130151298
 30
0.0
 41
0.31125
 42
0.31125
  0
CIRCLE
  5
1FD
330
18
100
AcDbEntity
  8
DAMAN
100
AcDbCircle
 10
16.56635016948952
 20
9.322635130151297
 30
0.0
 40
0.1296875
  0
CIRCLE
  5
1FE
330
18
100
AcDbEntity
  8
DAMAN
100
AcDbCircle
 10
16.56635016948952
 20
9.322635130151297
 30
0.0
 40
0.155625
  0
INSERT
  5
1FF
330
18
100
AcDbEntity
  8
DAMAN
100
AcDbBlockReference
  2
100CROSS
 10
16.56635016948952
 20
9.322635130151297
 30
0.0
 41
0.31125
 42
0.31125
  0
CIRCLE
  5
200
330
18
100
AcDbEntity
  8
DAMAN
100
AcDbCircle
 10
14.19135016948952
 20
9.322635130151297
 30
0.0
 40
0.1296875
  0
CIRCLE
  5
201
330
18
100
AcDbEntity
  8
DAMAN
100
AcDbCircle
 10
14.19135016948952
 20
9.322635130151297
 30
0.0
 40
0.155625
  0
INSERT
  5
202
330
18
100
AcDbEntity
  8
DAMAN
100
AcDbBlockReference
  2
100CROSS
 10
14.19135016948952
 20
9.322635130151297
 30
0.0
 41
0.31125
 42
0.31125
  0
TEXT
  5
203
330
18
100
AcDbEntity
  8
DAMAN
100
AcDbText
 10
2.963154586697946
 20
9.411583038864442
 30
0.0
 40
0.2
  1
Z1
 50
270.0
100
AcDbText
  0
TEXT
  5
204
330
18
100
AcDbEntity
  8
DAMAN
100
AcDbText
 10
2.283471523557921
 20
7.655525374157548
 30
0.0
 40
0.2
  1
X
 50
270.0
100
AcDbText
  0
TEXT
  5
205
330
18
100
AcDbEntity
  8
DAMAN
100
AcDbText
 10
3.302278552990049
 20
7.632174688258903
 30
0.0
 40
0.2
  1
Z2
 50
270.0
100
AcDbText
  0
TEXT
  5
206
330
18
100
AcDbEntity
  8
DAMAN
100
AcDbText
 10
10.35688160560454
 20
8.44140270754098
 30
0.0
 40
0.2
  1
Y
 50
90.0
100
AcDbText
  0
TEXT
  5
207
330
18
100
AcDbEntity
  8
DAMAN
100
AcDbText
 10
7.652756403283063
 20
4.26126125944895
 30
0.0
 40
0.2
  1
B
100
AcDbText
  0
TEXT
  5
208
330
18
100
AcDbEntity
  8
DAMAN
100
AcDbText
 10
15.29649895773736
 20
6.279279272332118
 30
0.0
 40
0.2
  1
A
100
AcDbText
  0
TEXT
  5
209
330
18
100
AcDbEntity
  8
DAMAN
100
AcDbText
 10
6.120402363297102
 20
1.504504489250933
 30
0.0
 40
0.2
  1
DAMAN ****
100
AcDbText
  0
ENDSEC
  0
SECTION
  2
OBJECTS
  0
DICTIONARY
  5
C
330
0
100
AcDbDictionary
  3
ACAD_GROUP
350
D
  3
ACAD_LAYOUT
350
211
  3
ACAD_MLINESTYLE
350
E
  3
ACAD_PLOTSETTINGS
350
212
  3
ACAD_PLOTSTYLENAME
350
20F
  3
ACDBHEADERROUNDTRIPXREC
350
266
  0
DICTIONARY
  5
288
330
18
100
AcDbDictionary
280
     1
  3
ACAD_LAYOUTSELFREF
360
289
  0
DICTIONARY
  5
286
330
15
100
AcDbDictionary
280
     1
  3
ACAD_LAYOUTSELFREF
360
287
  0
DICTIONARY
  5
D
102
{ACAD_REACTORS
330
C
102
}
330
C
100
AcDbDictionary
  0
DICTIONARY
  5
211
102
{ACAD_REACTORS
330
C
102
}
330
C
100
AcDbDictionary
  0
DICTIONARY
  5
E
102
{ACAD_REACTORS
330
C
102
}
330
C
100
AcDbDictionary
  3
STANDARD
350
1B
  0
DICTIONARY
  5
212
102
{ACAD_REACTORS
330
C
102
}
330
C
100
AcDbDictionary
  0
ACDBDICTIONARYWDFLT
  5
20F
102
{ACAD_REACTORS
330
C
102
}
330
C
100
AcDbDictionary
281
     1
  3
Normal
350
210
100
AcDbDictionaryWithDefault
340
210
  0
DICTIONARY
  5
266
102
{ACAD_REACTORS
330
C
102
}
330
C
100
AcDbDictionary
  3
CEPSNTYPE
350
270
  3
FINGERPRINTGUID
350
271
  3
HYPERLINKBASE
350
269
  3
INSUNITS
350
26F
  3
LAYOUTDICT
350
26B
  3
LWETCUNION
350
26E
  3
PLOTSETDICT
350
26C
  3
PLOTSTYLNAMDICT
350
26D
  3
PSVPSCALE
350
273
  3
PUCSBASE
350
276
  3
PUCSORGBACK
350
27C
  3
PUCSORGBOTTOM
350
278
  3
PUCSORGFRONT
350
27B
  3
PUCSORGLEFT
350
279
  3
PUCSORGRIGHT
350
27A
  3
PUCSORGTOP
350
277
  3
PUCSORTHOREF
350
274
  3
PUCSORTHOVIEW
350
275
  3
STYLESHEET
350
26A
  3
TSTACKALIGN
350
267
  3
TSTACKSIZE
350
268
  3
UCSBASE
350
27F
  3
UCSORGBACK
350
285
  3
UCSORGBOTTOM
350
281
  3
UCSORGFRONT
350
284
  3
UCSORGLEFT
350
282
  3
UCSORGRIGHT
350
283
  3
UCSORGTOP
350
280
  3
UCSORTHOREF
350
27D
  3
UCSORTHOVIEW
350
27E
  3
VERSIONGUID
350
272
  0
XRECORD
  5
289
102
{ACAD_REACTORS
330
288
102
}
330
288
100
AcDbXrecord
340
18
  0
XRECORD
  5
287
102
{ACAD_REACTORS
330
286
102
}
330
286
100
AcDbXrecord
340
15
  0
MLINESTYLE
  5
1B
102
{ACAD_REACTORS
330
E
102
}
330
E
100
AcDbMlineStyle
  2
STANDARD
 70
     0
  3

 62
     0
 51
90.0
 52
90.0
 71
     2
 49
0.5
 62
   256
  6
BYLAYER
 49
-0.5
 62
   256
  6
BYLAYER
  0
ACDBPLACEHOLDER
  5
210
102
{ACAD_REACTORS
330
20F
102
}
330
20F
100
AcDbPlaceHolder
280
     0
  0
XRECORD
  5
270
102
{ACAD_REACTORS
330
266
102
}
330
266
100
AcDbXrecord
 90
        0
  0
XRECORD
  5
271
102
{ACAD_REACTORS
330
266
102
}
330
266
100
AcDbXrecord
  1
{CABED503-2899-451F-93AB-0807C5000748}
  0
XRECORD
  5
269
102
{ACAD_REACTORS
330
266
102
}
330
266
100
AcDbXrecord
  1

  0
XRECORD
  5
26F
102
{ACAD_REACTORS
330
266
102
}
330
266
100
AcDbXrecord
 90
        0
  0
XRECORD
  5
26B
102
{ACAD_REACTORS
330
266
102
}
330
266
100
AcDbXrecord
340
211
  0
XRECORD
  5
26E
102
{ACAD_REACTORS
330
266
102
}
330
266
100
AcDbXrecord
 90
    14877
  0
XRECORD
  5
26C
102
{ACAD_REACTORS
330
266
102
}
330
266
100
AcDbXrecord
340
212
  0
XRECORD
  5
26D
102
{ACAD_REACTORS
330
266
102
}
330
266
100
AcDbXrecord
340
20F
  0
XRECORD
  5
273
102
{ACAD_REACTORS
330
266
102
}
330
266
100
AcDbXrecord
 40
0.0
  0
XRECORD
  5
276
102
{ACAD_REACTORS
330
266
102
}
330
266
100
AcDbXrecord
340
0
  0
XRECORD
  5
27C
102
{ACAD_REACTORS
330
266
102
}
330
266
100
AcDbXrecord
 10
0.0
 20
0.0
 30
0.0
  0
XRECORD
  5
278
102
{ACAD_REACTORS
330
266
102
}
330
266
100
AcDbXrecord
 10
0.0
 20
0.0
 30
0.0
  0
XRECORD
  5
27B
102
{ACAD_REACTORS
330
266
102
}
330
266
100
AcDbXrecord
 10
0.0
 20
0.0
 30
0.0
  0
XRECORD
  5
279
102
{ACAD_REACTORS
330
266
102
}
330
266
100
AcDbXrecord
 10
0.0
 20
0.0
 30
0.0
  0
XRECORD
  5
27A
102
{ACAD_REACTORS
330
266
102
}
330
266
100
AcDbXrecord
 10
0.0
 20
0.0
 30
0.0
  0
XRECORD
  5
277
102
{ACAD_REACTORS
330
266
102
}
330
266
100
AcDbXrecord
 10
0.0
 20
0.0
 30
0.0
  0
XRECORD
  5
274
102
{ACAD_REACTORS
330
266
102
}
330
266
100
AcDbXrecord
340
0
  0
XRECORD
  5
275
102
{ACAD_REACTORS
330
266
102
}
330
266
100
AcDbXrecord
 70
     0
  0
XRECORD
  5
26A
102
{ACAD_REACTORS
330
266
102
}
330
266
100
AcDbXrecord
  1

  0
XRECORD
  5
267
102
{ACAD_REACTORS
330
266
102
}
330
266
100
AcDbXrecord
 90
        1
  0
XRECORD
  5
268
102
{ACAD_REACTORS
330
266
102
}
330
266
100
AcDbXrecord
 90
       70
  0
XRECORD
  5
27F
102
{ACAD_REACTORS
330
266
102
}
330
266
100
AcDbXrecord
340
0
  0
XRECORD
  5
285
102
{ACAD_REACTORS
330
266
102
}
330
266
100
AcDbXrecord
 10
0.0
 20
0.0
 30
0.0
  0
XRECORD
  5
281
102
{ACAD_REACTORS
330
266
102
}
330
266
100
AcDbXrecord
 10
0.0
 20
0.0
 30
0.0
  0
XRECORD
  5
284
102
{ACAD_REACTORS
330
266
102
}
330
266
100
AcDbXrecord
 10
0.0
 20
0.0
 30
0.0
  0
XRECORD
  5
282
102
{ACAD_REACTORS
330
266
102
}
330
266
100
AcDbXrecord
 10
0.0
 20
0.0
 30
0.0
  0
XRECORD
  5
283
102
{ACAD_REACTORS
330
266
102
}
330
266
100
AcDbXrecord
 10
0.0
 20
0.0
 30
0.0
  0
XRECORD
  5
280
102
{ACAD_REACTORS
330
266
102
}
330
266
100
AcDbXrecord
 10
0.0
 20
0.0
 30
0.0
  0
XRECORD
  5
27D
102
{ACAD_REACTORS
330
266
102
}
330
266
100
AcDbXrecord
340
0
  0
XRECORD
  5
27E
102
{ACAD_REACTORS
330
266
102
}
330
266
100
AcDbXrecord
 70
     0
  0
XRECORD
  5
272
102
{ACAD_REACTORS
330
266
102
}
330
266
100
AcDbXrecord
  1
{62C7821A-33D3-49A6-BAC9-C047CB3F059C}
  0
ENDSEC
  0
EOF
