ISO-10303-21;
HEADER;
/****************************************************************
 * Generated by software with PDElib inside                    *
 * PDElib Version v51a, created Wed 11/30/2011                  *
 * ITI Transcendata (http://www.transcendata.com/)              *
 ****************************************************************/
FILE_DESCRIPTION((''),'2;1');
FILE_NAME('C:\\Users\\jrf.DAMAN\\Desktop\\900 MTG BKT.stp','2016-12-08T09:47:48',('jrf'),(''),'Autodesk Inventor 2013','Autodesk Inventor 2013','');
FILE_SCHEMA(('AUTOMOTIVE_DESIGN { 1 0 10303 214 1 1 1 1 }'));
ENDSEC;
DATA;
#5=APPLICATION_CONTEXT('automotive design');
#6=APPLICATION_PROTOCOL_DEFINITION('International Standard','automotive_design',2001,#5);
#7=PRODUCT_CONTEXT('',#5,'mechanical');
#8=PRODUCT('Part2','Part2',$,(#7));
#9=PRODUCT_RELATED_PRODUCT_CATEGORY('part',$,(#8));
#10=PRODUCT_DEFINITION_FORMATION('',$,#8);
#11=PRODUCT_DEFINITION_CONTEXT('part definition',#5,'design');
#12=PRODUCT_DEFINITION('',$,#10,#11);
#18=(NAMED_UNIT(*)PLANE_ANGLE_UNIT()SI_UNIT($,.RADIAN.));
#19=DIMENSIONAL_EXPONENTS(0.0,0.0,0.0,0.0,0.0,0.0,0.0);
#20=PLANE_ANGLE_MEASURE_WITH_UNIT(PLANE_ANGLE_MEASURE(0.0174532925),#18);
#24=(CONVERSION_BASED_UNIT('DEGREE',#20)NAMED_UNIT(#19)PLANE_ANGLE_UNIT());
#28=(NAMED_UNIT(*)SI_UNIT($,.STERADIAN.)SOLID_ANGLE_UNIT());
#32=(LENGTH_UNIT()NAMED_UNIT(*)SI_UNIT(.CENTI.,.METRE.));
#33=DIMENSIONAL_EXPONENTS(1.0,0.0,0.0,0.0,0.0,0.0,0.0);
#34=LENGTH_MEASURE_WITH_UNIT(LENGTH_MEASURE(2.54),#32);
#38=(CONVERSION_BASED_UNIT('INCH',#34)LENGTH_UNIT()NAMED_UNIT(#33));
#40=UNCERTAINTY_MEASURE_WITH_UNIT(LENGTH_MEASURE(0.000393700787402),#38,'DISTANCE_ACCURACY_VALUE','');
#42=(GEOMETRIC_REPRESENTATION_CONTEXT(3)GLOBAL_UNCERTAINTY_ASSIGNED_CONTEXT((#40))GLOBAL_UNIT_ASSIGNED_CONTEXT((#24,#28,#38))REPRESENTATION_CONTEXT('None','None'));
#43=AXIS2_PLACEMENT_3D('',#44,#45,#46);
#44=CARTESIAN_POINT('',(0.0,0.0,0.0));
#45=DIRECTION('',(0.0,0.0,1.0));
#46=DIRECTION('',(1.0,0.0,0.0));
#47=SHAPE_REPRESENTATION('',(#43),#42);
#48=PRODUCT_DEFINITION_SHAPE('','',#12);
#49=SHAPE_DEFINITION_REPRESENTATION(#48,#47);
#55=(NAMED_UNIT(*)PLANE_ANGLE_UNIT()SI_UNIT($,.RADIAN.));
#56=DIMENSIONAL_EXPONENTS(0.0,0.0,0.0,0.0,0.0,0.0,0.0);
#57=PLANE_ANGLE_MEASURE_WITH_UNIT(PLANE_ANGLE_MEASURE(0.0174532925),#55);
#61=(CONVERSION_BASED_UNIT('DEGREE',#57)NAMED_UNIT(#56)PLANE_ANGLE_UNIT());
#65=(NAMED_UNIT(*)SI_UNIT($,.STERADIAN.)SOLID_ANGLE_UNIT());
#69=(LENGTH_UNIT()NAMED_UNIT(*)SI_UNIT(.MILLI.,.METRE.));
#71=UNCERTAINTY_MEASURE_WITH_UNIT(LENGTH_MEASURE(0.000001),#69,'DISTANCE_ACCURACY_VALUE','');
#73=(GEOMETRIC_REPRESENTATION_CONTEXT(3)GLOBAL_UNCERTAINTY_ASSIGNED_CONTEXT((#71))GLOBAL_UNIT_ASSIGNED_CONTEXT((#61,#65,#69))REPRESENTATION_CONTEXT('','3D'));
#74=CARTESIAN_POINT('',(-9.0,-0.329,-1.662622990794957));
#75=DIRECTION('',(-1.0,0.0,0.0));
#76=DIRECTION('',(0.0,0.0,1.0));
#77=AXIS2_PLACEMENT_3D('',#74,#75,#76);
#78=PLANE('',#77);
#79=CARTESIAN_POINT('',(-9.0,0.376,-1.286622990794957));
#80=VERTEX_POINT('',#79);
#81=CARTESIAN_POINT('',(-9.0,0.0,-1.662622990794957));
#82=VERTEX_POINT('',#81);
#83=CARTESIAN_POINT('',(-9.0,0.376,-1.662622990794957));
#84=DIRECTION('',(1.0,0.0,0.0));
#85=DIRECTION('',(0.0,-1.0,0.0));
#86=AXIS2_PLACEMENT_3D('',#83,#84,#85);
#87=CIRCLE('',#86,0.376);
#88=EDGE_CURVE('',#80,#82,#87,.T.);
#89=ORIENTED_EDGE('',*,*,#88,.F.);
#90=CARTESIAN_POINT('',(-9.0,0.376,-1.474622990794958));
#91=VERTEX_POINT('',#90);
#92=CARTESIAN_POINT('',(-9.0,0.376,-1.474622990794958));
#93=DIRECTION('',(0.0,0.0,1.0));
#94=VECTOR('',#93,0.188);
#95=LINE('',#92,#94);
#96=EDGE_CURVE('',#91,#80,#95,.T.);
#97=ORIENTED_EDGE('',*,*,#96,.F.);
#98=CARTESIAN_POINT('',(-9.0,0.188,-1.662622990794957));
#99=VERTEX_POINT('',#98);
#100=CARTESIAN_POINT('',(-9.0,0.376,-1.662622990794957));
#101=DIRECTION('',(-1.0,0.0,0.0));
#102=DIRECTION('',(0.0,-1.0,0.0));
#103=AXIS2_PLACEMENT_3D('',#100,#101,#102);
#104=CIRCLE('',#103,0.188);
#105=EDGE_CURVE('',#99,#91,#104,.T.);
#106=ORIENTED_EDGE('',*,*,#105,.F.);
#107=CARTESIAN_POINT('',(-9.0,0.0,-1.662622990794957));
#108=DIRECTION('',(0.0,1.0,0.0));
#109=VECTOR('',#108,0.188);
#110=LINE('',#107,#109);
#111=EDGE_CURVE('',#82,#99,#110,.T.);
#112=ORIENTED_EDGE('',*,*,#111,.F.);
#113=EDGE_LOOP('',(#89,#97,#106,#112));
#114=FACE_OUTER_BOUND('',#113,.T.);
#115=ADVANCED_FACE('',(#114),#78,.T.);
#116=CARTESIAN_POINT('',(0.0,0.376000000000001,-0.957622990794957));
#117=DIRECTION('',(1.0,0.0,0.0));
#118=DIRECTION('',(0.0,0.0,-1.0));
#119=AXIS2_PLACEMENT_3D('',#116,#117,#118);
#120=PLANE('',#119);
#121=CARTESIAN_POINT('',(0.0,0.0,-1.662622990794957));
#122=VERTEX_POINT('',#121);
#123=CARTESIAN_POINT('',(0.0,0.376,-1.286622990794957));
#124=VERTEX_POINT('',#123);
#125=CARTESIAN_POINT('',(0.0,0.376,-1.662622990794957));
#126=DIRECTION('',(-1.0,0.0,0.0));
#127=DIRECTION('',(0.0,-1.0,0.0));
#128=AXIS2_PLACEMENT_3D('',#125,#126,#127);
#129=CIRCLE('',#128,0.376);
#130=EDGE_CURVE('',#122,#124,#129,.T.);
#131=ORIENTED_EDGE('',*,*,#130,.F.);
#132=CARTESIAN_POINT('',(0.0,0.188,-1.662622990794957));
#133=VERTEX_POINT('',#132);
#134=CARTESIAN_POINT('',(0.0,0.188,-1.662622990794957));
#135=DIRECTION('',(0.0,-1.0,0.0));
#136=VECTOR('',#135,0.188);
#137=LINE('',#134,#136);
#138=EDGE_CURVE('',#133,#122,#137,.T.);
#139=ORIENTED_EDGE('',*,*,#138,.F.);
#140=CARTESIAN_POINT('',(0.0,0.376,-1.474622990794958));
#141=VERTEX_POINT('',#140);
#142=CARTESIAN_POINT('',(0.0,0.376,-1.662622990794957));
#143=DIRECTION('',(1.0,0.0,0.0));
#144=DIRECTION('',(0.0,-1.0,0.0));
#145=AXIS2_PLACEMENT_3D('',#142,#143,#144);
#146=CIRCLE('',#145,0.188);
#147=EDGE_CURVE('',#141,#133,#146,.T.);
#148=ORIENTED_EDGE('',*,*,#147,.F.);
#149=CARTESIAN_POINT('',(0.0,0.376,-1.286622990794957));
#150=DIRECTION('',(0.0,0.0,-1.0));
#151=VECTOR('',#150,0.188);
#152=LINE('',#149,#151);
#153=EDGE_CURVE('',#124,#141,#152,.T.);
#154=ORIENTED_EDGE('',*,*,#153,.F.);
#155=EDGE_LOOP('',(#131,#139,#148,#154));
#156=FACE_OUTER_BOUND('',#155,.T.);
#157=ADVANCED_FACE('',(#156),#120,.T.);
#158=CARTESIAN_POINT('',(-4.5,0.376,-1.662622990794957));
#159=DIRECTION('',(-1.0,0.0,0.0));
#160=DIRECTION('',(0.0,-1.0,0.0));
#161=AXIS2_PLACEMENT_3D('',#158,#159,#160);
#162=CYLINDRICAL_SURFACE('',#161,0.376);
#163=ORIENTED_EDGE('',*,*,#130,.T.);
#164=CARTESIAN_POINT('',(-9.0,0.376,-1.286622990794957));
#165=DIRECTION('',(1.0,0.0,0.0));
#166=VECTOR('',#165,9.0);
#167=LINE('',#164,#166);
#168=EDGE_CURVE('',#80,#124,#167,.T.);
#169=ORIENTED_EDGE('',*,*,#168,.F.);
#170=ORIENTED_EDGE('',*,*,#88,.T.);
#171=CARTESIAN_POINT('',(0.0,0.0,-1.662622990794957));
#172=DIRECTION('',(-1.0,0.0,0.0));
#173=VECTOR('',#172,9.0);
#174=LINE('',#171,#173);
#175=EDGE_CURVE('',#122,#82,#174,.T.);
#176=ORIENTED_EDGE('',*,*,#175,.F.);
#177=EDGE_LOOP('',(#163,#169,#170,#176));
#178=FACE_OUTER_BOUND('',#177,.T.);
#179=ADVANCED_FACE('',(#178),#162,.T.);
#180=CARTESIAN_POINT('',(-4.5,0.376,-1.662622990794957));
#181=DIRECTION('',(-1.0,0.0,0.0));
#182=DIRECTION('',(0.0,-1.0,0.0));
#183=AXIS2_PLACEMENT_3D('',#180,#181,#182);
#184=CYLINDRICAL_SURFACE('',#183,0.188);
#185=ORIENTED_EDGE('',*,*,#147,.T.);
#186=CARTESIAN_POINT('',(-9.0,0.188,-1.662622990794957));
#187=DIRECTION('',(1.0,0.0,0.0));
#188=VECTOR('',#187,9.0);
#189=LINE('',#186,#188);
#190=EDGE_CURVE('',#99,#133,#189,.T.);
#191=ORIENTED_EDGE('',*,*,#190,.F.);
#192=ORIENTED_EDGE('',*,*,#105,.T.);
#193=CARTESIAN_POINT('',(0.0,0.376,-1.474622990794958));
#194=DIRECTION('',(-1.0,0.0,0.0));
#195=VECTOR('',#194,9.0);
#196=LINE('',#193,#195);
#197=EDGE_CURVE('',#141,#91,#196,.T.);
#198=ORIENTED_EDGE('',*,*,#197,.F.);
#199=EDGE_LOOP('',(#185,#191,#192,#198));
#200=FACE_OUTER_BOUND('',#199,.T.);
#201=ADVANCED_FACE('',(#200),#184,.F.);
#202=CARTESIAN_POINT('',(0.0,0.0,0.0));
#203=DIRECTION('',(1.0,0.0,0.0));
#204=DIRECTION('',(0.0,0.0,-1.0));
#205=AXIS2_PLACEMENT_3D('',#202,#203,#204);
#206=PLANE('',#205);
#207=ORIENTED_EDGE('',*,*,#138,.T.);
#208=CARTESIAN_POINT('',(0.0,0.0,-2.9));
#209=VERTEX_POINT('',#208);
#210=CARTESIAN_POINT('',(0.0,0.0,-2.9));
#211=DIRECTION('',(0.0,0.0,1.0));
#212=VECTOR('',#211,1.237377009205043);
#213=LINE('',#210,#212);
#214=EDGE_CURVE('',#209,#122,#213,.T.);
#215=ORIENTED_EDGE('',*,*,#214,.F.);
#216=CARTESIAN_POINT('',(0.0,0.188,-2.9));
#217=VERTEX_POINT('',#216);
#218=CARTESIAN_POINT('',(0.0,0.0,-2.9));
#219=DIRECTION('',(0.0,1.0,0.0));
#220=VECTOR('',#219,0.188);
#221=LINE('',#218,#220);
#222=EDGE_CURVE('',#209,#217,#221,.T.);
#223=ORIENTED_EDGE('',*,*,#222,.T.);
#224=CARTESIAN_POINT('',(0.0,0.188,-1.662622990794957));
#225=DIRECTION('',(0.0,0.0,-1.0));
#226=VECTOR('',#225,1.237377009205043);
#227=LINE('',#224,#226);
#228=EDGE_CURVE('',#133,#217,#227,.T.);
#229=ORIENTED_EDGE('',*,*,#228,.F.);
#230=EDGE_LOOP('',(#207,#215,#223,#229));
#231=FACE_OUTER_BOUND('',#230,.T.);
#232=ADVANCED_FACE('',(#231),#206,.T.);
#233=CARTESIAN_POINT('',(-4.500000000000001,0.188,-1.45));
#234=DIRECTION('',(0.0,1.0,0.0));
#235=DIRECTION('',(0.0,0.0,1.0));
#236=AXIS2_PLACEMENT_3D('',#233,#234,#235);
#237=PLANE('',#236);
#238=ORIENTED_EDGE('',*,*,#190,.T.);
#239=ORIENTED_EDGE('',*,*,#228,.T.);
#240=CARTESIAN_POINT('',(-9.0,0.188,-2.9));
#241=VERTEX_POINT('',#240);
#242=CARTESIAN_POINT('',(0.0,0.188,-2.9));
#243=DIRECTION('',(-1.0,0.0,0.0));
#244=VECTOR('',#243,9.0);
#245=LINE('',#242,#244);
#246=EDGE_CURVE('',#217,#241,#245,.T.);
#247=ORIENTED_EDGE('',*,*,#246,.T.);
#248=CARTESIAN_POINT('',(-9.0,0.188,-2.9));
#249=DIRECTION('',(0.0,0.0,1.0));
#250=VECTOR('',#249,1.237377009205043);
#251=LINE('',#248,#250);
#252=EDGE_CURVE('',#241,#99,#251,.T.);
#253=ORIENTED_EDGE('',*,*,#252,.T.);
#254=EDGE_LOOP('',(#238,#239,#247,#253));
#255=FACE_OUTER_BOUND('',#254,.T.);
#256=CARTESIAN_POINT('',(-0.41,0.188,-2.338000000000001));
#257=VERTEX_POINT('',#256);
#258=CARTESIAN_POINT('',(-0.69,0.188,-2.338000000000001));
#259=DIRECTION('',(0.0,-1.0,0.0));
#260=DIRECTION('',(-1.0,0.0,0.0));
#261=AXIS2_PLACEMENT_3D('',#258,#259,#260);
#262=CIRCLE('',#261,0.28);
#263=EDGE_CURVE('',#257,#257,#262,.T.);
#264=ORIENTED_EDGE('',*,*,#263,.T.);
#265=EDGE_LOOP('',(#264));
#266=FACE_BOUND('',#265,.T.);
#267=CARTESIAN_POINT('',(-4.22,0.188,-2.338000000000001));
#268=VERTEX_POINT('',#267);
#269=CARTESIAN_POINT('',(-4.5,0.188,-2.338000000000001));
#270=DIRECTION('',(0.0,-1.0,0.0));
#271=DIRECTION('',(-1.0,0.0,0.0));
#272=AXIS2_PLACEMENT_3D('',#269,#270,#271);
#273=CIRCLE('',#272,0.28);
#274=EDGE_CURVE('',#268,#268,#273,.T.);
#275=ORIENTED_EDGE('',*,*,#274,.T.);
#276=EDGE_LOOP('',(#275));
#277=FACE_BOUND('',#276,.T.);
#278=CARTESIAN_POINT('',(-8.030000000000001,0.188,-2.338000000000001));
#279=VERTEX_POINT('',#278);
#280=CARTESIAN_POINT('',(-8.310000000000001,0.188,-2.338000000000001));
#281=DIRECTION('',(0.0,-1.0,0.0));
#282=DIRECTION('',(-1.0,0.0,0.0));
#283=AXIS2_PLACEMENT_3D('',#280,#281,#282);
#284=CIRCLE('',#283,0.28);
#285=EDGE_CURVE('',#279,#279,#284,.T.);
#286=ORIENTED_EDGE('',*,*,#285,.T.);
#287=EDGE_LOOP('',(#286));
#288=FACE_BOUND('',#287,.T.);
#289=ADVANCED_FACE('',(#255,#266,#277,#288),#237,.T.);
#290=CARTESIAN_POINT('',(-4.500000000000001,0.0,-1.45));
#291=DIRECTION('',(0.0,1.0,0.0));
#292=DIRECTION('',(0.0,0.0,1.0));
#293=AXIS2_PLACEMENT_3D('',#290,#291,#292);
#294=PLANE('',#293);
#295=ORIENTED_EDGE('',*,*,#175,.T.);
#296=CARTESIAN_POINT('',(-9.0,0.0,-2.9));
#297=VERTEX_POINT('',#296);
#298=CARTESIAN_POINT('',(-9.0,0.0,-1.662622990794957));
#299=DIRECTION('',(0.0,0.0,-1.0));
#300=VECTOR('',#299,1.237377009205043);
#301=LINE('',#298,#300);
#302=EDGE_CURVE('',#82,#297,#301,.T.);
#303=ORIENTED_EDGE('',*,*,#302,.T.);
#304=CARTESIAN_POINT('',(-9.0,0.0,-2.9));
#305=DIRECTION('',(1.0,0.0,0.0));
#306=VECTOR('',#305,9.0);
#307=LINE('',#304,#306);
#308=EDGE_CURVE('',#297,#209,#307,.T.);
#309=ORIENTED_EDGE('',*,*,#308,.T.);
#310=ORIENTED_EDGE('',*,*,#214,.T.);
#311=EDGE_LOOP('',(#295,#303,#309,#310));
#312=FACE_OUTER_BOUND('',#311,.T.);
#313=CARTESIAN_POINT('',(-0.41,0.0,-2.338000000000001));
#314=VERTEX_POINT('',#313);
#315=CARTESIAN_POINT('',(-0.69,0.0,-2.338000000000001));
#316=DIRECTION('',(0.0,1.0,0.0));
#317=DIRECTION('',(-1.0,0.0,0.0));
#318=AXIS2_PLACEMENT_3D('',#315,#316,#317);
#319=CIRCLE('',#318,0.28);
#320=EDGE_CURVE('',#314,#314,#319,.T.);
#321=ORIENTED_EDGE('',*,*,#320,.T.);
#322=EDGE_LOOP('',(#321));
#323=FACE_BOUND('',#322,.T.);
#324=CARTESIAN_POINT('',(-4.22,0.0,-2.338000000000001));
#325=VERTEX_POINT('',#324);
#326=CARTESIAN_POINT('',(-4.5,0.0,-2.338000000000001));
#327=DIRECTION('',(0.0,1.0,0.0));
#328=DIRECTION('',(-1.0,0.0,0.0));
#329=AXIS2_PLACEMENT_3D('',#326,#327,#328);
#330=CIRCLE('',#329,0.28);
#331=EDGE_CURVE('',#325,#325,#330,.T.);
#332=ORIENTED_EDGE('',*,*,#331,.T.);
#333=EDGE_LOOP('',(#332));
#334=FACE_BOUND('',#333,.T.);
#335=CARTESIAN_POINT('',(-8.030000000000001,0.0,-2.338000000000001));
#336=VERTEX_POINT('',#335);
#337=CARTESIAN_POINT('',(-8.310000000000001,0.0,-2.338000000000001));
#338=DIRECTION('',(0.0,1.0,0.0));
#339=DIRECTION('',(-1.0,0.0,0.0));
#340=AXIS2_PLACEMENT_3D('',#337,#338,#339);
#341=CIRCLE('',#340,0.28);
#342=EDGE_CURVE('',#336,#336,#341,.T.);
#343=ORIENTED_EDGE('',*,*,#342,.T.);
#344=EDGE_LOOP('',(#343));
#345=FACE_BOUND('',#344,.T.);
#346=ADVANCED_FACE('',(#312,#323,#334,#345),#294,.F.);
#347=CARTESIAN_POINT('',(-9.0,0.0,-2.9));
#348=DIRECTION('',(-1.0,0.0,0.0));
#349=DIRECTION('',(0.0,0.0,1.0));
#350=AXIS2_PLACEMENT_3D('',#347,#348,#349);
#351=PLANE('',#350);
#352=ORIENTED_EDGE('',*,*,#111,.T.);
#353=ORIENTED_EDGE('',*,*,#252,.F.);
#354=CARTESIAN_POINT('',(-9.0,0.0,-2.9));
#355=DIRECTION('',(0.0,1.0,0.0));
#356=VECTOR('',#355,0.188);
#357=LINE('',#354,#356);
#358=EDGE_CURVE('',#297,#241,#357,.T.);
#359=ORIENTED_EDGE('',*,*,#358,.F.);
#360=ORIENTED_EDGE('',*,*,#302,.F.);
#361=EDGE_LOOP('',(#352,#353,#359,#360));
#362=FACE_OUTER_BOUND('',#361,.T.);
#363=ADVANCED_FACE('',(#362),#351,.T.);
#364=CARTESIAN_POINT('',(-0.69,0.188,-2.338000000000001));
#365=DIRECTION('',(0.0,-1.0,0.0));
#366=DIRECTION('',(-1.0,0.0,0.0));
#367=AXIS2_PLACEMENT_3D('',#364,#365,#366);
#368=CYLINDRICAL_SURFACE('',#367,0.28);
#369=ORIENTED_EDGE('',*,*,#320,.F.);
#370=EDGE_LOOP('',(#369));
#371=FACE_OUTER_BOUND('',#370,.T.);
#372=ORIENTED_EDGE('',*,*,#263,.F.);
#373=EDGE_LOOP('',(#372));
#374=FACE_BOUND('',#373,.T.);
#375=ADVANCED_FACE('',(#371,#374),#368,.F.);
#376=CARTESIAN_POINT('',(-4.5,0.188,-2.338000000000001));
#377=DIRECTION('',(0.0,-1.0,0.0));
#378=DIRECTION('',(-1.0,0.0,0.0));
#379=AXIS2_PLACEMENT_3D('',#376,#377,#378);
#380=CYLINDRICAL_SURFACE('',#379,0.28);
#381=ORIENTED_EDGE('',*,*,#331,.F.);
#382=EDGE_LOOP('',(#381));
#383=FACE_OUTER_BOUND('',#382,.T.);
#384=ORIENTED_EDGE('',*,*,#274,.F.);
#385=EDGE_LOOP('',(#384));
#386=FACE_BOUND('',#385,.T.);
#387=ADVANCED_FACE('',(#383,#386),#380,.F.);
#388=CARTESIAN_POINT('',(-8.310000000000001,0.188,-2.338000000000001));
#389=DIRECTION('',(0.0,-1.0,0.0));
#390=DIRECTION('',(-1.0,0.0,0.0));
#391=AXIS2_PLACEMENT_3D('',#388,#389,#390);
#392=CYLINDRICAL_SURFACE('',#391,0.28);
#393=ORIENTED_EDGE('',*,*,#342,.F.);
#394=EDGE_LOOP('',(#393));
#395=FACE_OUTER_BOUND('',#394,.T.);
#396=ORIENTED_EDGE('',*,*,#285,.F.);
#397=EDGE_LOOP('',(#396));
#398=FACE_BOUND('',#397,.T.);
#399=ADVANCED_FACE('',(#395,#398),#392,.F.);
#400=CARTESIAN_POINT('',(0.0,0.0,-2.9));
#401=DIRECTION('',(0.0,0.0,-1.0));
#402=DIRECTION('',(-1.0,0.0,0.0));
#403=AXIS2_PLACEMENT_3D('',#400,#401,#402);
#404=PLANE('',#403);
#405=ORIENTED_EDGE('',*,*,#308,.F.);
#406=ORIENTED_EDGE('',*,*,#358,.T.);
#407=ORIENTED_EDGE('',*,*,#246,.F.);
#408=ORIENTED_EDGE('',*,*,#222,.F.);
#409=EDGE_LOOP('',(#405,#406,#407,#408));
#410=FACE_OUTER_BOUND('',#409,.T.);
#411=ADVANCED_FACE('',(#410),#404,.T.);
#412=CARTESIAN_POINT('',(-4.500000000000001,0.163377009205043,-1.286622990794958));
#413=DIRECTION('',(0.0,0.0,-1.0));
#414=DIRECTION('',(0.0,1.0,0.0));
#415=AXIS2_PLACEMENT_3D('',#412,#413,#414);
#416=PLANE('',#415);
#417=ORIENTED_EDGE('',*,*,#168,.T.);
#418=CARTESIAN_POINT('',(0.0,1.613377009205043,-1.286622990794957));
#419=VERTEX_POINT('',#418);
#420=CARTESIAN_POINT('',(0.0,0.376,-1.286622990794957));
#421=DIRECTION('',(0.0,1.0,0.0));
#422=VECTOR('',#421,1.237377009205043);
#423=LINE('',#420,#422);
#424=EDGE_CURVE('',#124,#419,#423,.T.);
#425=ORIENTED_EDGE('',*,*,#424,.T.);
#426=CARTESIAN_POINT('',(-9.0,1.613377009205043,-1.286622990794957));
#427=VERTEX_POINT('',#426);
#428=CARTESIAN_POINT('',(0.0,1.613377009205043,-1.286622990794957));
#429=DIRECTION('',(-1.0,0.0,0.0));
#430=VECTOR('',#429,9.0);
#431=LINE('',#428,#430);
#432=EDGE_CURVE('',#419,#427,#431,.T.);
#433=ORIENTED_EDGE('',*,*,#432,.T.);
#434=CARTESIAN_POINT('',(-9.0,1.613377009205043,-1.286622990794957));
#435=DIRECTION('',(0.0,-1.0,0.0));
#436=VECTOR('',#435,1.237377009205043);
#437=LINE('',#434,#436);
#438=EDGE_CURVE('',#427,#80,#437,.T.);
#439=ORIENTED_EDGE('',*,*,#438,.T.);
#440=EDGE_LOOP('',(#417,#425,#433,#439));
#441=FACE_OUTER_BOUND('',#440,.T.);
#442=CARTESIAN_POINT('',(-8.030000000000001,1.051377009205043,-1.286622990794957));
#443=VERTEX_POINT('',#442);
#444=CARTESIAN_POINT('',(-8.310000000000001,1.051377009205043,-1.286622990794957));
#445=DIRECTION('',(0.0,0.0,-1.0));
#446=DIRECTION('',(-1.0,0.0,0.0));
#447=AXIS2_PLACEMENT_3D('',#444,#445,#446);
#448=CIRCLE('',#447,0.28);
#449=EDGE_CURVE('',#443,#443,#448,.T.);
#450=ORIENTED_EDGE('',*,*,#449,.T.);
#451=EDGE_LOOP('',(#450));
#452=FACE_BOUND('',#451,.T.);
#453=CARTESIAN_POINT('',(-4.22,1.051377009205043,-1.286622990794957));
#454=VERTEX_POINT('',#453);
#455=CARTESIAN_POINT('',(-4.5,1.051377009205043,-1.286622990794957));
#456=DIRECTION('',(0.0,0.0,-1.0));
#457=DIRECTION('',(-1.0,0.0,0.0));
#458=AXIS2_PLACEMENT_3D('',#455,#456,#457);
#459=CIRCLE('',#458,0.28);
#460=EDGE_CURVE('',#454,#454,#459,.T.);
#461=ORIENTED_EDGE('',*,*,#460,.T.);
#462=EDGE_LOOP('',(#461));
#463=FACE_BOUND('',#462,.T.);
#464=CARTESIAN_POINT('',(-0.41,1.051377009205043,-1.286622990794957));
#465=VERTEX_POINT('',#464);
#466=CARTESIAN_POINT('',(-0.69,1.051377009205043,-1.286622990794957));
#467=DIRECTION('',(0.0,0.0,-1.0));
#468=DIRECTION('',(-1.0,0.0,0.0));
#469=AXIS2_PLACEMENT_3D('',#466,#467,#468);
#470=CIRCLE('',#469,0.28);
#471=EDGE_CURVE('',#465,#465,#470,.T.);
#472=ORIENTED_EDGE('',*,*,#471,.T.);
#473=EDGE_LOOP('',(#472));
#474=FACE_BOUND('',#473,.T.);
#475=ADVANCED_FACE('',(#441,#452,#463,#474),#416,.F.);
#476=CARTESIAN_POINT('',(-9.0,1.613377009205043,-1.286622990794957));
#477=DIRECTION('',(0.0,1.0,0.0));
#478=DIRECTION('',(1.0,0.0,0.0));
#479=AXIS2_PLACEMENT_3D('',#476,#477,#478);
#480=PLANE('',#479);
#481=ORIENTED_EDGE('',*,*,#432,.F.);
#482=CARTESIAN_POINT('',(0.0,1.613377009205043,-1.474622990794957));
#483=VERTEX_POINT('',#482);
#484=CARTESIAN_POINT('',(0.0,1.613377009205043,-1.286622990794957));
#485=DIRECTION('',(0.0,0.0,-1.0));
#486=VECTOR('',#485,0.188);
#487=LINE('',#484,#486);
#488=EDGE_CURVE('',#419,#483,#487,.T.);
#489=ORIENTED_EDGE('',*,*,#488,.T.);
#490=CARTESIAN_POINT('',(-9.0,1.613377009205043,-1.474622990794957));
#491=VERTEX_POINT('',#490);
#492=CARTESIAN_POINT('',(-9.0,1.613377009205043,-1.474622990794957));
#493=DIRECTION('',(1.0,0.0,0.0));
#494=VECTOR('',#493,9.0);
#495=LINE('',#492,#494);
#496=EDGE_CURVE('',#491,#483,#495,.T.);
#497=ORIENTED_EDGE('',*,*,#496,.F.);
#498=CARTESIAN_POINT('',(-9.0,1.613377009205043,-1.286622990794957));
#499=DIRECTION('',(0.0,0.0,-1.0));
#500=VECTOR('',#499,0.188);
#501=LINE('',#498,#500);
#502=EDGE_CURVE('',#427,#491,#501,.T.);
#503=ORIENTED_EDGE('',*,*,#502,.F.);
#504=EDGE_LOOP('',(#481,#489,#497,#503));
#505=FACE_OUTER_BOUND('',#504,.T.);
#506=ADVANCED_FACE('',(#505),#480,.T.);
#507=CARTESIAN_POINT('',(0.0,1.613377009205043,-1.286622990794957));
#508=DIRECTION('',(1.0,0.0,0.0));
#509=DIRECTION('',(0.0,-1.0,0.0));
#510=AXIS2_PLACEMENT_3D('',#507,#508,#509);
#511=PLANE('',#510);
#512=ORIENTED_EDGE('',*,*,#153,.T.);
#513=CARTESIAN_POINT('',(0.0,1.613377009205043,-1.474622990794957));
#514=DIRECTION('',(0.0,-1.0,0.0));
#515=VECTOR('',#514,1.237377009205043);
#516=LINE('',#513,#515);
#517=EDGE_CURVE('',#483,#141,#516,.T.);
#518=ORIENTED_EDGE('',*,*,#517,.F.);
#519=ORIENTED_EDGE('',*,*,#488,.F.);
#520=ORIENTED_EDGE('',*,*,#424,.F.);
#521=EDGE_LOOP('',(#512,#518,#519,#520));
#522=FACE_OUTER_BOUND('',#521,.T.);
#523=ADVANCED_FACE('',(#522),#511,.T.);
#524=CARTESIAN_POINT('',(-9.0,-1.286622990794957,-1.286622990794958));
#525=DIRECTION('',(-1.0,0.0,0.0));
#526=DIRECTION('',(0.0,1.0,0.0));
#527=AXIS2_PLACEMENT_3D('',#524,#525,#526);
#528=PLANE('',#527);
#529=ORIENTED_EDGE('',*,*,#96,.T.);
#530=ORIENTED_EDGE('',*,*,#438,.F.);
#531=ORIENTED_EDGE('',*,*,#502,.T.);
#532=CARTESIAN_POINT('',(-9.0,0.376,-1.474622990794957));
#533=DIRECTION('',(0.0,1.0,0.0));
#534=VECTOR('',#533,1.237377009205043);
#535=LINE('',#532,#534);
#536=EDGE_CURVE('',#91,#491,#535,.T.);
#537=ORIENTED_EDGE('',*,*,#536,.F.);
#538=EDGE_LOOP('',(#529,#530,#531,#537));
#539=FACE_OUTER_BOUND('',#538,.T.);
#540=ADVANCED_FACE('',(#539),#528,.T.);
#541=CARTESIAN_POINT('',(-0.69,1.051377009205043,-1.474622990794957));
#542=DIRECTION('',(0.0,-4.440892E-016,1.0));
#543=DIRECTION('',(-1.0,0.0,0.0));
#544=AXIS2_PLACEMENT_3D('',#541,#542,#543);
#545=CYLINDRICAL_SURFACE('',#544,0.28);
#546=ORIENTED_EDGE('',*,*,#471,.F.);
#547=EDGE_LOOP('',(#546));
#548=FACE_OUTER_BOUND('',#547,.T.);
#549=CARTESIAN_POINT('',(-0.41,1.051377009205043,-1.474622990794957));
#550=VERTEX_POINT('',#549);
#551=CARTESIAN_POINT('',(-0.69,1.051377009205043,-1.474622990794957));
#552=DIRECTION('',(0.0,0.0,1.0));
#553=DIRECTION('',(-1.0,0.0,0.0));
#554=AXIS2_PLACEMENT_3D('',#551,#552,#553);
#555=CIRCLE('',#554,0.28);
#556=EDGE_CURVE('',#550,#550,#555,.T.);
#557=ORIENTED_EDGE('',*,*,#556,.F.);
#558=EDGE_LOOP('',(#557));
#559=FACE_BOUND('',#558,.T.);
#560=ADVANCED_FACE('',(#548,#559),#545,.F.);
#561=CARTESIAN_POINT('',(-4.5,1.051377009205043,-1.474622990794957));
#562=DIRECTION('',(0.0,-4.440892E-016,1.0));
#563=DIRECTION('',(-1.0,0.0,0.0));
#564=AXIS2_PLACEMENT_3D('',#561,#562,#563);
#565=CYLINDRICAL_SURFACE('',#564,0.28);
#566=ORIENTED_EDGE('',*,*,#460,.F.);
#567=EDGE_LOOP('',(#566));
#568=FACE_OUTER_BOUND('',#567,.T.);
#569=CARTESIAN_POINT('',(-4.22,1.051377009205043,-1.474622990794957));
#570=VERTEX_POINT('',#569);
#571=CARTESIAN_POINT('',(-4.5,1.051377009205043,-1.474622990794957));
#572=DIRECTION('',(0.0,0.0,1.0));
#573=DIRECTION('',(-1.0,0.0,0.0));
#574=AXIS2_PLACEMENT_3D('',#571,#572,#573);
#575=CIRCLE('',#574,0.28);
#576=EDGE_CURVE('',#570,#570,#575,.T.);
#577=ORIENTED_EDGE('',*,*,#576,.F.);
#578=EDGE_LOOP('',(#577));
#579=FACE_BOUND('',#578,.T.);
#580=ADVANCED_FACE('',(#568,#579),#565,.F.);
#581=CARTESIAN_POINT('',(-8.310000000000001,1.051377009205043,-1.474622990794957));
#582=DIRECTION('',(0.0,-4.440892E-016,1.0));
#583=DIRECTION('',(-1.0,0.0,0.0));
#584=AXIS2_PLACEMENT_3D('',#581,#582,#583);
#585=CYLINDRICAL_SURFACE('',#584,0.28);
#586=ORIENTED_EDGE('',*,*,#449,.F.);
#587=EDGE_LOOP('',(#586));
#588=FACE_OUTER_BOUND('',#587,.T.);
#589=CARTESIAN_POINT('',(-8.030000000000001,1.051377009205043,-1.474622990794957));
#590=VERTEX_POINT('',#589);
#591=CARTESIAN_POINT('',(-8.310000000000001,1.051377009205043,-1.474622990794957));
#592=DIRECTION('',(0.0,0.0,1.0));
#593=DIRECTION('',(-1.0,0.0,0.0));
#594=AXIS2_PLACEMENT_3D('',#591,#592,#593);
#595=CIRCLE('',#594,0.28);
#596=EDGE_CURVE('',#590,#590,#595,.T.);
#597=ORIENTED_EDGE('',*,*,#596,.F.);
#598=EDGE_LOOP('',(#597));
#599=FACE_BOUND('',#598,.T.);
#600=ADVANCED_FACE('',(#588,#599),#585,.F.);
#601=CARTESIAN_POINT('',(-4.500000000000001,0.163377009205043,-1.474622990794958));
#602=DIRECTION('',(0.0,0.0,-1.0));
#603=DIRECTION('',(0.0,1.0,0.0));
#604=AXIS2_PLACEMENT_3D('',#601,#602,#603);
#605=PLANE('',#604);
#606=ORIENTED_EDGE('',*,*,#197,.T.);
#607=ORIENTED_EDGE('',*,*,#536,.T.);
#608=ORIENTED_EDGE('',*,*,#496,.T.);
#609=ORIENTED_EDGE('',*,*,#517,.T.);
#610=EDGE_LOOP('',(#606,#607,#608,#609));
#611=FACE_OUTER_BOUND('',#610,.T.);
#612=ORIENTED_EDGE('',*,*,#556,.T.);
#613=EDGE_LOOP('',(#612));
#614=FACE_BOUND('',#613,.T.);
#615=ORIENTED_EDGE('',*,*,#576,.T.);
#616=EDGE_LOOP('',(#615));
#617=FACE_BOUND('',#616,.T.);
#618=ORIENTED_EDGE('',*,*,#596,.T.);
#619=EDGE_LOOP('',(#618));
#620=FACE_BOUND('',#619,.T.);
#621=ADVANCED_FACE('',(#611,#614,#617,#620),#605,.T.);
#622=CLOSED_SHELL('',(#115,#157,#179,#201,#232,#289,#346,#363,#375,#387,#399,#411,#475,#506,#523,#540,#560,#580,#600,#621));
#623=MANIFOLD_SOLID_BREP('Solid1',#622);
#624=COLOUR_RGB('Default',0.75,0.75,0.75);
#625=FILL_AREA_STYLE_COLOUR('Default',#624);
#626=FILL_AREA_STYLE('Default',(#625));
#627=SURFACE_STYLE_FILL_AREA(#626);
#628=SURFACE_SIDE_STYLE('Default',(#627));
#629=SURFACE_STYLE_USAGE(.BOTH.,#628);
#630=PRESENTATION_STYLE_ASSIGNMENT((#629));
#631=STYLED_ITEM('',(#630),#623);
#632=MECHANICAL_DESIGN_GEOMETRIC_PRESENTATION_REPRESENTATION('',(#631),#42);
#633=ADVANCED_BREP_SHAPE_REPRESENTATION('ABSR',(#623),#42);
#634=SHAPE_REPRESENTATION_RELATIONSHIP('SRR','None',#633,#47);
ENDSEC;
END-ISO-10303-21;
