ISO-10303-21;
HEADER;
/****************************************************************
 * Generated by software with PDElib inside                    *
 * PDElib Version v51a, created Wed 11/30/2011                  *
 * ITI Transcendata (http://www.transcendata.com/)              *
 ****************************************************************/
FILE_DESCRIPTION((''),'2;1');
FILE_NAME('U:\\My Documents\\Approvals\\800_Bracket.stp','2016-04-12T10:26:48',('charlesb'),(''),'Autodesk Inventor 2013','Autodesk Inventor 2013','');
FILE_SCHEMA(('AUTOMOTIVE_DESIGN { 1 0 10303 214 1 1 1 1 }'));
ENDSEC;
DATA;
#5=APPLICATION_CONTEXT('automotive design');
#6=APPLICATION_PROTOCOL_DEFINITION('International Standard','automotive_design',2001,#5);
#7=PRODUCT_CONTEXT('',#5,'mechanical');
#8=PRODUCT('C:\\Program Files (x86)\\PARO\\Hydroman 2010\\Export\\800_Bracket','C:\\Program Files (x86)\\PARO\\Hydroman 2010\\Export\\800_Bracket',$,(#7));
#9=PRODUCT_RELATED_PRODUCT_CATEGORY('part',$,(#8));
#10=PRODUCT_DEFINITION_FORMATION('',$,#8);
#11=PRODUCT_DEFINITION_CONTEXT('part definition',#5,'design');
#12=PRODUCT_DEFINITION('',$,#10,#11);
#18=(NAMED_UNIT(*)PLANE_ANGLE_UNIT()SI_UNIT($,.RADIAN.));
#19=DIMENSIONAL_EXPONENTS(0.0,0.0,0.0,0.0,0.0,0.0,0.0);
#20=PLANE_ANGLE_MEASURE_WITH_UNIT(PLANE_ANGLE_MEASURE(0.0174532925),#18);
#24=(CONVERSION_BASED_UNIT('DEGREE',#20)NAMED_UNIT(#19)PLANE_ANGLE_UNIT());
#28=(NAMED_UNIT(*)SI_UNIT($,.STERADIAN.)SOLID_ANGLE_UNIT());
#32=(LENGTH_UNIT()NAMED_UNIT(*)SI_UNIT(.MILLI.,.METRE.));
#34=UNCERTAINTY_MEASURE_WITH_UNIT(LENGTH_MEASURE(0.01),#32,'DISTANCE_ACCURACY_VALUE','');
#36=(GEOMETRIC_REPRESENTATION_CONTEXT(3)GLOBAL_UNCERTAINTY_ASSIGNED_CONTEXT((#34))GLOBAL_UNIT_ASSIGNED_CONTEXT((#24,#28,#32))REPRESENTATION_CONTEXT('None','None'));
#37=AXIS2_PLACEMENT_3D('',#38,#39,#40);
#38=CARTESIAN_POINT('',(0.0,0.0,0.0));
#39=DIRECTION('',(0.0,0.0,1.0));
#40=DIRECTION('',(1.0,0.0,0.0));
#41=SHAPE_REPRESENTATION('',(#37),#36);
#42=PRODUCT_DEFINITION_SHAPE('','',#12);
#43=SHAPE_DEFINITION_REPRESENTATION(#42,#41);
#49=(NAMED_UNIT(*)PLANE_ANGLE_UNIT()SI_UNIT($,.RADIAN.));
#50=DIMENSIONAL_EXPONENTS(0.0,0.0,0.0,0.0,0.0,0.0,0.0);
#51=PLANE_ANGLE_MEASURE_WITH_UNIT(PLANE_ANGLE_MEASURE(0.0174532925),#49);
#55=(CONVERSION_BASED_UNIT('DEGREE',#51)NAMED_UNIT(#50)PLANE_ANGLE_UNIT());
#59=(NAMED_UNIT(*)SI_UNIT($,.STERADIAN.)SOLID_ANGLE_UNIT());
#63=(LENGTH_UNIT()NAMED_UNIT(*)SI_UNIT(.MILLI.,.METRE.));
#65=UNCERTAINTY_MEASURE_WITH_UNIT(LENGTH_MEASURE(0.000001),#63,'DISTANCE_ACCURACY_VALUE','');
#67=(GEOMETRIC_REPRESENTATION_CONTEXT(3)GLOBAL_UNCERTAINTY_ASSIGNED_CONTEXT((#65))GLOBAL_UNIT_ASSIGNED_CONTEXT((#55,#59,#63))REPRESENTATION_CONTEXT('','3D'));
#68=CARTESIAN_POINT('',(50.800000000000011,6.350000000000001,6.35));
#69=DIRECTION('',(1.0,0.0,0.0));
#70=DIRECTION('',(0.0,-0.707106781186548,-0.707106781186548));
#71=AXIS2_PLACEMENT_3D('',#68,#69,#70);
#72=CYLINDRICAL_SURFACE('',#71,6.35);
#73=CARTESIAN_POINT('',(203.19999999999999,6.350000000000001,0.0));
#74=VERTEX_POINT('',#73);
#75=CARTESIAN_POINT('',(203.19999999999999,0.0,6.35));
#76=VERTEX_POINT('',#75);
#77=CARTESIAN_POINT('',(203.19999999999999,6.350000000000001,6.35));
#78=DIRECTION('',(-1.0,0.0,0.0));
#79=DIRECTION('',(0.0,-0.707106781186548,-0.707106781186548));
#80=AXIS2_PLACEMENT_3D('',#77,#78,#79);
#81=CIRCLE('',#80,6.35);
#82=EDGE_CURVE('',#74,#76,#81,.T.);
#83=ORIENTED_EDGE('',*,*,#82,.T.);
#84=CARTESIAN_POINT('',(0.0,0.0,6.35));
#85=VERTEX_POINT('',#84);
#86=CARTESIAN_POINT('',(203.19999999999999,0.0,6.35));
#87=DIRECTION('',(-1.0,0.0,0.0));
#88=VECTOR('',#87,203.19999999999999);
#89=LINE('',#86,#88);
#90=EDGE_CURVE('',#76,#85,#89,.T.);
#91=ORIENTED_EDGE('',*,*,#90,.T.);
#92=CARTESIAN_POINT('',(0.0,6.350000000000002,0.0));
#93=VERTEX_POINT('',#92);
#94=CARTESIAN_POINT('',(0.0,6.350000000000001,6.35));
#95=DIRECTION('',(1.0,0.0,0.0));
#96=DIRECTION('',(0.0,-0.707106781186548,-0.707106781186548));
#97=AXIS2_PLACEMENT_3D('',#94,#95,#96);
#98=CIRCLE('',#97,6.35);
#99=EDGE_CURVE('',#85,#93,#98,.T.);
#100=ORIENTED_EDGE('',*,*,#99,.T.);
#101=CARTESIAN_POINT('',(0.0,6.350000000000001,0.0));
#102=DIRECTION('',(1.0,0.0,0.0));
#103=VECTOR('',#102,203.19999999999999);
#104=LINE('',#101,#103);
#105=EDGE_CURVE('',#93,#74,#104,.T.);
#106=ORIENTED_EDGE('',*,*,#105,.T.);
#107=EDGE_LOOP('',(#83,#91,#100,#106));
#108=FACE_OUTER_BOUND('',#107,.T.);
#109=ADVANCED_FACE('',(#108),#72,.T.);
#110=CARTESIAN_POINT('',(101.60000000000002,20.637500000000003,0.0));
#111=DIRECTION('',(0.0,0.0,1.0));
#112=DIRECTION('',(1.0,0.0,0.0));
#113=AXIS2_PLACEMENT_3D('',#110,#111,#112);
#114=PLANE('',#113);
#115=ORIENTED_EDGE('',*,*,#105,.F.);
#116=CARTESIAN_POINT('',(0.0,41.275000000000006,0.0));
#117=VERTEX_POINT('',#116);
#118=CARTESIAN_POINT('',(0.0,41.275000000000006,0.0));
#119=DIRECTION('',(0.0,-1.0,0.0));
#120=VECTOR('',#119,34.925000000000004);
#121=LINE('',#118,#120);
#122=EDGE_CURVE('',#117,#93,#121,.T.);
#123=ORIENTED_EDGE('',*,*,#122,.F.);
#124=CARTESIAN_POINT('',(203.19999999999999,41.275000000000006,0.0));
#125=VERTEX_POINT('',#124);
#126=CARTESIAN_POINT('',(203.19999999999999,41.275000000000006,0.0));
#127=DIRECTION('',(-1.0,0.0,0.0));
#128=VECTOR('',#127,203.19999999999999);
#129=LINE('',#126,#128);
#130=EDGE_CURVE('',#125,#117,#129,.T.);
#131=ORIENTED_EDGE('',*,*,#130,.F.);
#132=CARTESIAN_POINT('',(203.19999999999999,6.350000000000001,0.0));
#133=DIRECTION('',(0.0,1.0,0.0));
#134=VECTOR('',#133,34.925000000000004);
#135=LINE('',#132,#134);
#136=EDGE_CURVE('',#74,#125,#135,.T.);
#137=ORIENTED_EDGE('',*,*,#136,.F.);
#138=EDGE_LOOP('',(#115,#123,#131,#137));
#139=FACE_OUTER_BOUND('',#138,.T.);
#140=CARTESIAN_POINT('',(37.312600000000003,27.000200000000003,0.0));
#141=VERTEX_POINT('',#140);
#142=CARTESIAN_POINT('',(30.175200000000004,27.000200000000003,0.0));
#143=DIRECTION('',(0.0,0.0,1.0));
#144=DIRECTION('',(1.0,0.0,0.0));
#145=AXIS2_PLACEMENT_3D('',#142,#143,#144);
#146=CIRCLE('',#145,7.1374);
#147=EDGE_CURVE('',#141,#141,#146,.T.);
#148=ORIENTED_EDGE('',*,*,#147,.T.);
#149=EDGE_LOOP('',(#148));
#150=FACE_BOUND('',#149,.T.);
#151=CARTESIAN_POINT('',(180.16220000000001,27.000200000000003,0.0));
#152=VERTEX_POINT('',#151);
#153=CARTESIAN_POINT('',(173.0248,27.000200000000003,0.0));
#154=DIRECTION('',(0.0,0.0,1.0));
#155=DIRECTION('',(1.0,0.0,0.0));
#156=AXIS2_PLACEMENT_3D('',#153,#154,#155);
#157=CIRCLE('',#156,7.137400000000014);
#158=EDGE_CURVE('',#152,#152,#157,.T.);
#159=ORIENTED_EDGE('',*,*,#158,.T.);
#160=EDGE_LOOP('',(#159));
#161=FACE_BOUND('',#160,.T.);
#162=ADVANCED_FACE('',(#139,#150,#161),#114,.F.);
#163=CARTESIAN_POINT('',(0.0,41.275000000000006,0.0));
#164=DIRECTION('',(-1.0,0.0,0.0));
#165=DIRECTION('',(0.0,-1.0,0.0));
#166=AXIS2_PLACEMENT_3D('',#163,#164,#165);
#167=PLANE('',#166);
#168=ORIENTED_EDGE('',*,*,#99,.F.);
#169=CARTESIAN_POINT('',(0.0,0.0,41.275000000000006));
#170=VERTEX_POINT('',#169);
#171=CARTESIAN_POINT('',(0.0,0.0,6.35));
#172=DIRECTION('',(0.0,0.0,1.0));
#173=VECTOR('',#172,34.925000000000004);
#174=LINE('',#171,#173);
#175=EDGE_CURVE('',#85,#170,#174,.T.);
#176=ORIENTED_EDGE('',*,*,#175,.T.);
#177=CARTESIAN_POINT('',(0.0,4.775200000000002,41.275000000000006));
#178=VERTEX_POINT('',#177);
#179=CARTESIAN_POINT('',(0.0,4.775200000000005,41.275000000000006));
#180=DIRECTION('',(0.0,-1.0,0.0));
#181=VECTOR('',#180,4.775200000000005);
#182=LINE('',#179,#181);
#183=EDGE_CURVE('',#178,#170,#182,.T.);
#184=ORIENTED_EDGE('',*,*,#183,.F.);
#185=CARTESIAN_POINT('',(0.0,4.775200000000002,11.1252));
#186=VERTEX_POINT('',#185);
#187=CARTESIAN_POINT('',(0.0,4.775200000000002,41.274999999999999));
#188=DIRECTION('',(0.0,0.0,-1.0));
#189=VECTOR('',#188,30.149799999999999);
#190=LINE('',#187,#189);
#191=EDGE_CURVE('',#178,#186,#190,.T.);
#192=ORIENTED_EDGE('',*,*,#191,.T.);
#193=CARTESIAN_POINT('',(0.0,11.1252,4.7752));
#194=VERTEX_POINT('',#193);
#195=CARTESIAN_POINT('',(0.0,11.1252,11.1252));
#196=DIRECTION('',(-1.0,0.0,0.0));
#197=DIRECTION('',(0.0,-0.707106781186548,-0.707106781186548));
#198=AXIS2_PLACEMENT_3D('',#195,#196,#197);
#199=CIRCLE('',#198,6.35);
#200=EDGE_CURVE('',#194,#186,#199,.T.);
#201=ORIENTED_EDGE('',*,*,#200,.F.);
#202=CARTESIAN_POINT('',(0.0,41.275000000000006,4.775200000000002));
#203=VERTEX_POINT('',#202);
#204=CARTESIAN_POINT('',(0.0,11.1252,4.7752));
#205=DIRECTION('',(0.0,1.0,0.0));
#206=VECTOR('',#205,30.149800000000006);
#207=LINE('',#204,#206);
#208=EDGE_CURVE('',#194,#203,#207,.T.);
#209=ORIENTED_EDGE('',*,*,#208,.T.);
#210=CARTESIAN_POINT('',(0.0,41.275000000000006,0.0));
#211=DIRECTION('',(0.0,0.0,1.0));
#212=VECTOR('',#211,4.775200000000002);
#213=LINE('',#210,#212);
#214=EDGE_CURVE('',#117,#203,#213,.T.);
#215=ORIENTED_EDGE('',*,*,#214,.F.);
#216=ORIENTED_EDGE('',*,*,#122,.T.);
#217=EDGE_LOOP('',(#168,#176,#184,#192,#201,#209,#215,#216));
#218=FACE_OUTER_BOUND('',#217,.T.);
#219=ADVANCED_FACE('',(#218),#167,.T.);
#220=CARTESIAN_POINT('',(203.19999999999999,11.1252,11.1252));
#221=DIRECTION('',(-1.0,0.0,0.0));
#222=DIRECTION('',(0.0,-0.707106781186548,-0.707106781186548));
#223=AXIS2_PLACEMENT_3D('',#220,#221,#222);
#224=CYLINDRICAL_SURFACE('',#223,6.35);
#225=CARTESIAN_POINT('',(203.19999999999999,4.7752,11.1252));
#226=VERTEX_POINT('',#225);
#227=CARTESIAN_POINT('',(203.19999999999999,11.1252,4.7752));
#228=VERTEX_POINT('',#227);
#229=CARTESIAN_POINT('',(203.19999999999999,11.1252,11.1252));
#230=DIRECTION('',(1.0,0.0,0.0));
#231=DIRECTION('',(0.0,-0.707106781186548,-0.707106781186548));
#232=AXIS2_PLACEMENT_3D('',#229,#230,#231);
#233=CIRCLE('',#232,6.35);
#234=EDGE_CURVE('',#226,#228,#233,.T.);
#235=ORIENTED_EDGE('',*,*,#234,.T.);
#236=CARTESIAN_POINT('',(203.19999999999999,11.1252,4.7752));
#237=DIRECTION('',(-1.0,0.0,0.0));
#238=VECTOR('',#237,203.19999999999999);
#239=LINE('',#236,#238);
#240=EDGE_CURVE('',#228,#194,#239,.T.);
#241=ORIENTED_EDGE('',*,*,#240,.T.);
#242=ORIENTED_EDGE('',*,*,#200,.T.);
#243=CARTESIAN_POINT('',(0.0,4.7752,11.1252));
#244=DIRECTION('',(1.0,0.0,0.0));
#245=VECTOR('',#244,203.19999999999999);
#246=LINE('',#243,#245);
#247=EDGE_CURVE('',#186,#226,#246,.T.);
#248=ORIENTED_EDGE('',*,*,#247,.T.);
#249=EDGE_LOOP('',(#235,#241,#242,#248));
#250=FACE_OUTER_BOUND('',#249,.T.);
#251=ADVANCED_FACE('',(#250),#224,.F.);
#252=CARTESIAN_POINT('',(203.19999999999999,41.275000000000006,4.7752));
#253=DIRECTION('',(0.0,0.0,-1.0));
#254=DIRECTION('',(0.0,-1.0,0.0));
#255=AXIS2_PLACEMENT_3D('',#252,#253,#254);
#256=PLANE('',#255);
#257=ORIENTED_EDGE('',*,*,#240,.F.);
#258=CARTESIAN_POINT('',(203.19999999999999,41.275000000000006,4.7752));
#259=VERTEX_POINT('',#258);
#260=CARTESIAN_POINT('',(203.19999999999999,41.275000000000006,4.7752));
#261=DIRECTION('',(0.0,-1.0,0.0));
#262=VECTOR('',#261,30.149800000000006);
#263=LINE('',#260,#262);
#264=EDGE_CURVE('',#259,#228,#263,.T.);
#265=ORIENTED_EDGE('',*,*,#264,.F.);
#266=CARTESIAN_POINT('',(0.0,41.275000000000006,4.7752));
#267=DIRECTION('',(1.0,0.0,0.0));
#268=VECTOR('',#267,203.19999999999999);
#269=LINE('',#266,#268);
#270=EDGE_CURVE('',#203,#259,#269,.T.);
#271=ORIENTED_EDGE('',*,*,#270,.F.);
#272=ORIENTED_EDGE('',*,*,#208,.F.);
#273=EDGE_LOOP('',(#257,#265,#271,#272));
#274=FACE_OUTER_BOUND('',#273,.T.);
#275=CARTESIAN_POINT('',(37.312600000000003,27.000200000000003,4.7752));
#276=VERTEX_POINT('',#275);
#277=CARTESIAN_POINT('',(30.175200000000004,27.000200000000003,4.7752));
#278=DIRECTION('',(0.0,0.0,-1.0));
#279=DIRECTION('',(1.0,0.0,0.0));
#280=AXIS2_PLACEMENT_3D('',#277,#278,#279);
#281=CIRCLE('',#280,7.1374);
#282=EDGE_CURVE('',#276,#276,#281,.T.);
#283=ORIENTED_EDGE('',*,*,#282,.T.);
#284=EDGE_LOOP('',(#283));
#285=FACE_BOUND('',#284,.T.);
#286=CARTESIAN_POINT('',(180.16220000000001,27.000200000000003,4.7752));
#287=VERTEX_POINT('',#286);
#288=CARTESIAN_POINT('',(173.0248,27.000200000000003,4.7752));
#289=DIRECTION('',(0.0,0.0,-1.0));
#290=DIRECTION('',(1.0,0.0,0.0));
#291=AXIS2_PLACEMENT_3D('',#288,#289,#290);
#292=CIRCLE('',#291,7.137400000000014);
#293=EDGE_CURVE('',#287,#287,#292,.T.);
#294=ORIENTED_EDGE('',*,*,#293,.T.);
#295=EDGE_LOOP('',(#294));
#296=FACE_BOUND('',#295,.T.);
#297=ADVANCED_FACE('',(#274,#285,#296),#256,.F.);
#298=CARTESIAN_POINT('',(203.19999999999999,4.7752,4.775200000000002));
#299=DIRECTION('',(0.0,-1.0,0.0));
#300=DIRECTION('',(0.0,0.0,1.0));
#301=AXIS2_PLACEMENT_3D('',#298,#299,#300);
#302=PLANE('',#301);
#303=ORIENTED_EDGE('',*,*,#247,.F.);
#304=ORIENTED_EDGE('',*,*,#191,.F.);
#305=CARTESIAN_POINT('',(203.19999999999999,4.7752,41.275000000000006));
#306=VERTEX_POINT('',#305);
#307=CARTESIAN_POINT('',(203.20000000000002,4.775200000000001,41.275000000000006));
#308=DIRECTION('',(-1.0,0.0,0.0));
#309=VECTOR('',#308,203.20000000000002);
#310=LINE('',#307,#309);
#311=EDGE_CURVE('',#306,#178,#310,.T.);
#312=ORIENTED_EDGE('',*,*,#311,.F.);
#313=CARTESIAN_POINT('',(203.19999999999999,4.7752,11.1252));
#314=DIRECTION('',(0.0,0.0,1.0));
#315=VECTOR('',#314,30.149799999999999);
#316=LINE('',#313,#315);
#317=EDGE_CURVE('',#226,#306,#316,.T.);
#318=ORIENTED_EDGE('',*,*,#317,.F.);
#319=EDGE_LOOP('',(#303,#304,#312,#318));
#320=FACE_OUTER_BOUND('',#319,.T.);
#321=CARTESIAN_POINT('',(180.16220000000001,4.7752,27.000200000000003));
#322=VERTEX_POINT('',#321);
#323=CARTESIAN_POINT('',(173.0248,4.7752,27.000200000000003));
#324=DIRECTION('',(0.0,-1.0,0.0));
#325=DIRECTION('',(1.0,0.0,0.0));
#326=AXIS2_PLACEMENT_3D('',#323,#324,#325);
#327=CIRCLE('',#326,7.137400000000014);
#328=EDGE_CURVE('',#322,#322,#327,.T.);
#329=ORIENTED_EDGE('',*,*,#328,.T.);
#330=EDGE_LOOP('',(#329));
#331=FACE_BOUND('',#330,.T.);
#332=CARTESIAN_POINT('',(37.312600000000003,4.7752,27.000200000000003));
#333=VERTEX_POINT('',#332);
#334=CARTESIAN_POINT('',(30.175200000000004,4.7752,27.000200000000003));
#335=DIRECTION('',(0.0,-1.0,0.0));
#336=DIRECTION('',(1.0,0.0,0.0));
#337=AXIS2_PLACEMENT_3D('',#334,#335,#336);
#338=CIRCLE('',#337,7.1374);
#339=EDGE_CURVE('',#333,#333,#338,.T.);
#340=ORIENTED_EDGE('',*,*,#339,.T.);
#341=EDGE_LOOP('',(#340));
#342=FACE_BOUND('',#341,.T.);
#343=ADVANCED_FACE('',(#320,#331,#342),#302,.F.);
#344=CARTESIAN_POINT('',(203.19999999999999,41.275000000000006,0.0));
#345=DIRECTION('',(0.0,1.0,0.0));
#346=DIRECTION('',(-1.0,0.0,0.0));
#347=AXIS2_PLACEMENT_3D('',#344,#345,#346);
#348=PLANE('',#347);
#349=ORIENTED_EDGE('',*,*,#270,.T.);
#350=CARTESIAN_POINT('',(203.19999999999999,41.275000000000006,0.0));
#351=DIRECTION('',(0.0,0.0,1.0));
#352=VECTOR('',#351,4.7752);
#353=LINE('',#350,#352);
#354=EDGE_CURVE('',#125,#259,#353,.T.);
#355=ORIENTED_EDGE('',*,*,#354,.F.);
#356=ORIENTED_EDGE('',*,*,#130,.T.);
#357=ORIENTED_EDGE('',*,*,#214,.T.);
#358=EDGE_LOOP('',(#349,#355,#356,#357));
#359=FACE_OUTER_BOUND('',#358,.T.);
#360=ADVANCED_FACE('',(#359),#348,.T.);
#361=CARTESIAN_POINT('',(203.19999999999999,0.0,0.0));
#362=DIRECTION('',(1.0,0.0,0.0));
#363=DIRECTION('',(0.0,1.0,0.0));
#364=AXIS2_PLACEMENT_3D('',#361,#362,#363);
#365=PLANE('',#364);
#366=ORIENTED_EDGE('',*,*,#82,.F.);
#367=ORIENTED_EDGE('',*,*,#136,.T.);
#368=ORIENTED_EDGE('',*,*,#354,.T.);
#369=ORIENTED_EDGE('',*,*,#264,.T.);
#370=ORIENTED_EDGE('',*,*,#234,.F.);
#371=ORIENTED_EDGE('',*,*,#317,.T.);
#372=CARTESIAN_POINT('',(203.19999999999999,0.0,41.275000000000006));
#373=VERTEX_POINT('',#372);
#374=CARTESIAN_POINT('',(203.19999999999999,0.0,41.275000000000006));
#375=DIRECTION('',(0.0,1.0,0.0));
#376=VECTOR('',#375,4.7752);
#377=LINE('',#374,#376);
#378=EDGE_CURVE('',#373,#306,#377,.T.);
#379=ORIENTED_EDGE('',*,*,#378,.F.);
#380=CARTESIAN_POINT('',(203.19999999999999,0.0,6.35));
#381=DIRECTION('',(0.0,0.0,1.0));
#382=VECTOR('',#381,34.925000000000004);
#383=LINE('',#380,#382);
#384=EDGE_CURVE('',#76,#373,#383,.T.);
#385=ORIENTED_EDGE('',*,*,#384,.F.);
#386=EDGE_LOOP('',(#366,#367,#368,#369,#370,#371,#379,#385));
#387=FACE_OUTER_BOUND('',#386,.T.);
#388=ADVANCED_FACE('',(#387),#365,.T.);
#389=CARTESIAN_POINT('',(173.0248,2.3876,27.000200000000003));
#390=DIRECTION('',(0.0,-1.0,0.0));
#391=DIRECTION('',(1.0,0.0,0.0));
#392=AXIS2_PLACEMENT_3D('',#389,#390,#391);
#393=CYLINDRICAL_SURFACE('',#392,7.137400000000014);
#394=CARTESIAN_POINT('',(180.16220000000001,0.0,27.000200000000003));
#395=VERTEX_POINT('',#394);
#396=CARTESIAN_POINT('',(173.0248,0.0,27.000200000000003));
#397=DIRECTION('',(0.0,1.0,0.0));
#398=DIRECTION('',(1.0,0.0,0.0));
#399=AXIS2_PLACEMENT_3D('',#396,#397,#398);
#400=CIRCLE('',#399,7.137400000000014);
#401=EDGE_CURVE('',#395,#395,#400,.T.);
#402=ORIENTED_EDGE('',*,*,#401,.F.);
#403=EDGE_LOOP('',(#402));
#404=FACE_OUTER_BOUND('',#403,.T.);
#405=ORIENTED_EDGE('',*,*,#328,.F.);
#406=EDGE_LOOP('',(#405));
#407=FACE_BOUND('',#406,.T.);
#408=ADVANCED_FACE('',(#404,#407),#393,.F.);
#409=CARTESIAN_POINT('',(30.175200000000004,2.3876,27.000200000000003));
#410=DIRECTION('',(0.0,-1.0,0.0));
#411=DIRECTION('',(1.0,0.0,0.0));
#412=AXIS2_PLACEMENT_3D('',#409,#410,#411);
#413=CYLINDRICAL_SURFACE('',#412,7.1374);
#414=CARTESIAN_POINT('',(37.312600000000003,0.0,27.000200000000003));
#415=VERTEX_POINT('',#414);
#416=CARTESIAN_POINT('',(30.175200000000004,0.0,27.000200000000003));
#417=DIRECTION('',(0.0,1.0,0.0));
#418=DIRECTION('',(1.0,0.0,0.0));
#419=AXIS2_PLACEMENT_3D('',#416,#417,#418);
#420=CIRCLE('',#419,7.1374);
#421=EDGE_CURVE('',#415,#415,#420,.T.);
#422=ORIENTED_EDGE('',*,*,#421,.F.);
#423=EDGE_LOOP('',(#422));
#424=FACE_OUTER_BOUND('',#423,.T.);
#425=ORIENTED_EDGE('',*,*,#339,.F.);
#426=EDGE_LOOP('',(#425));
#427=FACE_BOUND('',#426,.T.);
#428=ADVANCED_FACE('',(#424,#427),#413,.F.);
#429=CARTESIAN_POINT('',(173.0248,27.000200000000003,2.3876));
#430=DIRECTION('',(0.0,0.0,-1.0));
#431=DIRECTION('',(1.0,0.0,0.0));
#432=AXIS2_PLACEMENT_3D('',#429,#430,#431);
#433=CYLINDRICAL_SURFACE('',#432,7.137400000000014);
#434=ORIENTED_EDGE('',*,*,#158,.F.);
#435=EDGE_LOOP('',(#434));
#436=FACE_OUTER_BOUND('',#435,.T.);
#437=ORIENTED_EDGE('',*,*,#293,.F.);
#438=EDGE_LOOP('',(#437));
#439=FACE_BOUND('',#438,.T.);
#440=ADVANCED_FACE('',(#436,#439),#433,.F.);
#441=CARTESIAN_POINT('',(30.175200000000004,27.000200000000003,2.3876));
#442=DIRECTION('',(0.0,0.0,-1.0));
#443=DIRECTION('',(1.0,0.0,0.0));
#444=AXIS2_PLACEMENT_3D('',#441,#442,#443);
#445=CYLINDRICAL_SURFACE('',#444,7.1374);
#446=ORIENTED_EDGE('',*,*,#147,.F.);
#447=EDGE_LOOP('',(#446));
#448=FACE_OUTER_BOUND('',#447,.T.);
#449=ORIENTED_EDGE('',*,*,#282,.F.);
#450=EDGE_LOOP('',(#449));
#451=FACE_BOUND('',#450,.T.);
#452=ADVANCED_FACE('',(#448,#451),#445,.F.);
#453=CARTESIAN_POINT('',(0.0,0.0,0.0));
#454=DIRECTION('',(0.0,-1.0,0.0));
#455=DIRECTION('',(1.0,0.0,0.0));
#456=AXIS2_PLACEMENT_3D('',#453,#454,#455);
#457=PLANE('',#456);
#458=ORIENTED_EDGE('',*,*,#90,.F.);
#459=ORIENTED_EDGE('',*,*,#384,.T.);
#460=CARTESIAN_POINT('',(0.0,0.0,41.275000000000006));
#461=DIRECTION('',(1.0,0.0,0.0));
#462=VECTOR('',#461,203.19999999999999);
#463=LINE('',#460,#462);
#464=EDGE_CURVE('',#170,#373,#463,.T.);
#465=ORIENTED_EDGE('',*,*,#464,.F.);
#466=ORIENTED_EDGE('',*,*,#175,.F.);
#467=EDGE_LOOP('',(#458,#459,#465,#466));
#468=FACE_OUTER_BOUND('',#467,.T.);
#469=ORIENTED_EDGE('',*,*,#401,.T.);
#470=EDGE_LOOP('',(#469));
#471=FACE_BOUND('',#470,.T.);
#472=ORIENTED_EDGE('',*,*,#421,.T.);
#473=EDGE_LOOP('',(#472));
#474=FACE_BOUND('',#473,.T.);
#475=ADVANCED_FACE('',(#468,#471,#474),#457,.T.);
#476=CARTESIAN_POINT('',(101.60000000000002,20.637500000000003,41.275000000000006));
#477=DIRECTION('',(0.0,0.0,1.0));
#478=DIRECTION('',(1.0,0.0,0.0));
#479=AXIS2_PLACEMENT_3D('',#476,#477,#478);
#480=PLANE('',#479);
#481=ORIENTED_EDGE('',*,*,#311,.T.);
#482=ORIENTED_EDGE('',*,*,#183,.T.);
#483=ORIENTED_EDGE('',*,*,#464,.T.);
#484=ORIENTED_EDGE('',*,*,#378,.T.);
#485=EDGE_LOOP('',(#481,#482,#483,#484));
#486=FACE_OUTER_BOUND('',#485,.T.);
#487=ADVANCED_FACE('',(#486),#480,.T.);
#488=CLOSED_SHELL('',(#109,#162,#219,#251,#297,#343,#360,#388,#408,#428,#440,#452,#475,#487));
#489=MANIFOLD_SOLID_BREP('Solid1',#488);
#490=COLOUR_RGB('Default',0.75,0.75,0.75);
#491=FILL_AREA_STYLE_COLOUR('Default',#490);
#492=FILL_AREA_STYLE('Default',(#491));
#493=SURFACE_STYLE_FILL_AREA(#492);
#494=SURFACE_SIDE_STYLE('Default',(#493));
#495=SURFACE_STYLE_USAGE(.BOTH.,#494);
#496=PRESENTATION_STYLE_ASSIGNMENT((#495));
#497=STYLED_ITEM('',(#496),#489);
#498=MECHANICAL_DESIGN_GEOMETRIC_PRESENTATION_REPRESENTATION('',(#497),#36);
#499=ADVANCED_BREP_SHAPE_REPRESENTATION('ABSR',(#489),#36);
#500=SHAPE_REPRESENTATION_RELATIONSHIP('SRR','None',#499,#41);
ENDSEC;
END-ISO-10303-21;
