ISO-10303-21;
HEADER;
/* Generated by software containing ST-Developer
 * from STEP Tools, Inc. (www.steptools.com) 
 */

FILE_DESCRIPTION(
/* description */ (''),
/* implementation_level */ '2;1');

FILE_NAME(
/* name */ 'C:\\Users\\trevorh\\Desktop\\185-500MKS\\500_Bracket.stp',
/* time_stamp */ '2020-06-25T11:40:23-04:00',
/* author */ ('trevorh'),
/* organization */ (''),
/* preprocessor_version */ 'ST-DEVELOPER v17',
/* originating_system */ 'Autodesk Inventor 2019',
/* authorisation */ '');

FILE_SCHEMA (('AUTOMOTIVE_DESIGN { 1 0 10303 214 3 1 1 }'));
ENDSEC;

DATA;
#10=MECHANICAL_DESIGN_GEOMETRIC_PRESENTATION_REPRESENTATION('',(#13),#541);
#11=SHAPE_REPRESENTATION_RELATIONSHIP('SRR','None',#551,#12);
#12=ADVANCED_BREP_SHAPE_REPRESENTATION('',(#14),#540);
#13=STYLED_ITEM('',(#560),#14);
#14=MANIFOLD_SOLID_BREP('Solid2',#315);
#15=FACE_BOUND('',#63,.T.);
#16=FACE_BOUND('',#64,.T.);
#17=FACE_BOUND('',#66,.T.);
#18=FACE_BOUND('',#67,.T.);
#19=FACE_BOUND('',#71,.T.);
#20=FACE_BOUND('',#72,.T.);
#21=FACE_BOUND('',#77,.T.);
#22=FACE_BOUND('',#78,.T.);
#23=PLANE('',#347);
#24=PLANE('',#350);
#25=PLANE('',#355);
#26=PLANE('',#356);
#27=PLANE('',#357);
#28=PLANE('',#358);
#29=PLANE('',#359);
#30=PLANE('',#360);
#31=PLANE('',#361);
#32=PLANE('',#362);
#33=PLANE('',#363);
#34=PLANE('',#364);
#35=FACE_OUTER_BOUND('',#53,.T.);
#36=FACE_OUTER_BOUND('',#54,.T.);
#37=FACE_OUTER_BOUND('',#55,.T.);
#38=FACE_OUTER_BOUND('',#56,.T.);
#39=FACE_OUTER_BOUND('',#57,.T.);
#40=FACE_OUTER_BOUND('',#58,.T.);
#41=FACE_OUTER_BOUND('',#59,.T.);
#42=FACE_OUTER_BOUND('',#60,.T.);
#43=FACE_OUTER_BOUND('',#61,.T.);
#44=FACE_OUTER_BOUND('',#62,.T.);
#45=FACE_OUTER_BOUND('',#65,.T.);
#46=FACE_OUTER_BOUND('',#68,.T.);
#47=FACE_OUTER_BOUND('',#69,.T.);
#48=FACE_OUTER_BOUND('',#70,.T.);
#49=FACE_OUTER_BOUND('',#73,.T.);
#50=FACE_OUTER_BOUND('',#74,.T.);
#51=FACE_OUTER_BOUND('',#75,.T.);
#52=FACE_OUTER_BOUND('',#76,.T.);
#53=EDGE_LOOP('',(#211,#212,#213,#214));
#54=EDGE_LOOP('',(#215,#216,#217,#218));
#55=EDGE_LOOP('',(#219,#220,#221,#222));
#56=EDGE_LOOP('',(#223,#224,#225,#226));
#57=EDGE_LOOP('',(#227,#228,#229,#230));
#58=EDGE_LOOP('',(#231,#232,#233,#234));
#59=EDGE_LOOP('',(#235,#236,#237,#238));
#60=EDGE_LOOP('',(#239,#240,#241,#242));
#61=EDGE_LOOP('',(#243,#244,#245,#246));
#62=EDGE_LOOP('',(#247,#248,#249,#250));
#63=EDGE_LOOP('',(#251));
#64=EDGE_LOOP('',(#252));
#65=EDGE_LOOP('',(#253,#254,#255,#256));
#66=EDGE_LOOP('',(#257));
#67=EDGE_LOOP('',(#258));
#68=EDGE_LOOP('',(#259,#260,#261,#262));
#69=EDGE_LOOP('',(#263,#264,#265,#266));
#70=EDGE_LOOP('',(#267,#268,#269,#270));
#71=EDGE_LOOP('',(#271));
#72=EDGE_LOOP('',(#272));
#73=EDGE_LOOP('',(#273,#274,#275,#276));
#74=EDGE_LOOP('',(#277,#278,#279,#280));
#75=EDGE_LOOP('',(#281,#282,#283,#284));
#76=EDGE_LOOP('',(#285,#286,#287,#288));
#77=EDGE_LOOP('',(#289));
#78=EDGE_LOOP('',(#290));
#79=LINE('',#460,#107);
#80=LINE('',#466,#108);
#81=LINE('',#472,#109);
#82=LINE('',#478,#110);
#83=LINE('',#485,#111);
#84=LINE('',#488,#112);
#85=LINE('',#494,#113);
#86=LINE('',#497,#114);
#87=LINE('',#499,#115);
#88=LINE('',#500,#116);
#89=LINE('',#502,#117);
#90=LINE('',#503,#118);
#91=LINE('',#506,#119);
#92=LINE('',#508,#120);
#93=LINE('',#509,#121);
#94=LINE('',#512,#122);
#95=LINE('',#513,#123);
#96=LINE('',#516,#124);
#97=LINE('',#517,#125);
#98=LINE('',#519,#126);
#99=LINE('',#523,#127);
#100=LINE('',#525,#128);
#101=LINE('',#526,#129);
#102=LINE('',#529,#130);
#103=LINE('',#530,#131);
#104=LINE('',#533,#132);
#105=LINE('',#534,#133);
#106=LINE('',#536,#134);
#107=VECTOR('',#371,0.203);
#108=VECTOR('',#378,0.203);
#109=VECTOR('',#385,0.203);
#110=VECTOR('',#392,0.203);
#111=VECTOR('',#399,0.187);
#112=VECTOR('',#402,0.187);
#113=VECTOR('',#407,0.187);
#114=VECTOR('',#410,0.187);
#115=VECTOR('',#413,5.);
#116=VECTOR('',#414,5.);
#117=VECTOR('',#417,5.);
#118=VECTOR('',#418,5.);
#119=VECTOR('',#421,0.926527898266296);
#120=VECTOR('',#422,0.187);
#121=VECTOR('',#423,0.926527898266296);
#122=VECTOR('',#426,5.);
#123=VECTOR('',#427,0.926527898266296);
#124=VECTOR('',#430,0.926527898266296);
#125=VECTOR('',#431,5.);
#126=VECTOR('',#434,0.187);
#127=VECTOR('',#439,0.926527898266296);
#128=VECTOR('',#440,5.);
#129=VECTOR('',#441,0.926527898266296);
#130=VECTOR('',#444,0.187);
#131=VECTOR('',#445,0.926527898266296);
#132=VECTOR('',#448,5.);
#133=VECTOR('',#449,0.187);
#134=VECTOR('',#452,0.926527898266296);
#135=CIRCLE('',#336,0.203);
#136=CIRCLE('',#337,0.203);
#137=CIRCLE('',#339,0.203);
#138=CIRCLE('',#340,0.203);
#139=CIRCLE('',#342,0.203);
#140=CIRCLE('',#343,0.203);
#141=CIRCLE('',#345,0.203);
#142=CIRCLE('',#346,0.203);
#143=CIRCLE('',#348,0.437);
#144=CIRCLE('',#349,0.25);
#145=CIRCLE('',#351,0.437);
#146=CIRCLE('',#352,0.25);
#147=VERTEX_POINT('',#457);
#148=VERTEX_POINT('',#459);
#149=VERTEX_POINT('',#463);
#150=VERTEX_POINT('',#465);
#151=VERTEX_POINT('',#469);
#152=VERTEX_POINT('',#471);
#153=VERTEX_POINT('',#475);
#154=VERTEX_POINT('',#477);
#155=VERTEX_POINT('',#481);
#156=VERTEX_POINT('',#482);
#157=VERTEX_POINT('',#484);
#158=VERTEX_POINT('',#486);
#159=VERTEX_POINT('',#490);
#160=VERTEX_POINT('',#491);
#161=VERTEX_POINT('',#493);
#162=VERTEX_POINT('',#495);
#163=VERTEX_POINT('',#505);
#164=VERTEX_POINT('',#507);
#165=VERTEX_POINT('',#511);
#166=VERTEX_POINT('',#515);
#167=VERTEX_POINT('',#522);
#168=VERTEX_POINT('',#524);
#169=VERTEX_POINT('',#528);
#170=VERTEX_POINT('',#532);
#171=EDGE_CURVE('',#147,#147,#135,.T.);
#172=EDGE_CURVE('',#147,#148,#79,.T.);
#173=EDGE_CURVE('',#148,#148,#136,.T.);
#174=EDGE_CURVE('',#149,#149,#137,.T.);
#175=EDGE_CURVE('',#149,#150,#80,.T.);
#176=EDGE_CURVE('',#150,#150,#138,.T.);
#177=EDGE_CURVE('',#151,#151,#139,.T.);
#178=EDGE_CURVE('',#151,#152,#81,.T.);
#179=EDGE_CURVE('',#152,#152,#140,.T.);
#180=EDGE_CURVE('',#153,#153,#141,.T.);
#181=EDGE_CURVE('',#153,#154,#82,.T.);
#182=EDGE_CURVE('',#154,#154,#142,.T.);
#183=EDGE_CURVE('',#155,#156,#143,.T.);
#184=EDGE_CURVE('',#157,#155,#83,.T.);
#185=EDGE_CURVE('',#158,#157,#144,.T.);
#186=EDGE_CURVE('',#156,#158,#84,.T.);
#187=EDGE_CURVE('',#159,#160,#145,.T.);
#188=EDGE_CURVE('',#161,#159,#85,.T.);
#189=EDGE_CURVE('',#162,#161,#146,.T.);
#190=EDGE_CURVE('',#160,#162,#86,.T.);
#191=EDGE_CURVE('',#155,#160,#87,.T.);
#192=EDGE_CURVE('',#159,#156,#88,.T.);
#193=EDGE_CURVE('',#158,#161,#89,.T.);
#194=EDGE_CURVE('',#162,#157,#90,.T.);
#195=EDGE_CURVE('',#159,#163,#91,.T.);
#196=EDGE_CURVE('',#163,#164,#92,.T.);
#197=EDGE_CURVE('',#164,#161,#93,.T.);
#198=EDGE_CURVE('',#165,#164,#94,.T.);
#199=EDGE_CURVE('',#158,#165,#95,.T.);
#200=EDGE_CURVE('',#166,#156,#96,.T.);
#201=EDGE_CURVE('',#163,#166,#97,.T.);
#202=EDGE_CURVE('',#166,#165,#98,.T.);
#203=EDGE_CURVE('',#167,#160,#99,.T.);
#204=EDGE_CURVE('',#168,#167,#100,.T.);
#205=EDGE_CURVE('',#155,#168,#101,.T.);
#206=EDGE_CURVE('',#168,#169,#102,.T.);
#207=EDGE_CURVE('',#169,#157,#103,.T.);
#208=EDGE_CURVE('',#170,#169,#104,.T.);
#209=EDGE_CURVE('',#167,#170,#105,.T.);
#210=EDGE_CURVE('',#162,#170,#106,.T.);
#211=ORIENTED_EDGE('',*,*,#171,.F.);
#212=ORIENTED_EDGE('',*,*,#172,.T.);
#213=ORIENTED_EDGE('',*,*,#173,.F.);
#214=ORIENTED_EDGE('',*,*,#172,.F.);
#215=ORIENTED_EDGE('',*,*,#174,.F.);
#216=ORIENTED_EDGE('',*,*,#175,.T.);
#217=ORIENTED_EDGE('',*,*,#176,.F.);
#218=ORIENTED_EDGE('',*,*,#175,.F.);
#219=ORIENTED_EDGE('',*,*,#177,.F.);
#220=ORIENTED_EDGE('',*,*,#178,.T.);
#221=ORIENTED_EDGE('',*,*,#179,.F.);
#222=ORIENTED_EDGE('',*,*,#178,.F.);
#223=ORIENTED_EDGE('',*,*,#180,.F.);
#224=ORIENTED_EDGE('',*,*,#181,.T.);
#225=ORIENTED_EDGE('',*,*,#182,.F.);
#226=ORIENTED_EDGE('',*,*,#181,.F.);
#227=ORIENTED_EDGE('',*,*,#183,.F.);
#228=ORIENTED_EDGE('',*,*,#184,.F.);
#229=ORIENTED_EDGE('',*,*,#185,.F.);
#230=ORIENTED_EDGE('',*,*,#186,.F.);
#231=ORIENTED_EDGE('',*,*,#187,.F.);
#232=ORIENTED_EDGE('',*,*,#188,.F.);
#233=ORIENTED_EDGE('',*,*,#189,.F.);
#234=ORIENTED_EDGE('',*,*,#190,.F.);
#235=ORIENTED_EDGE('',*,*,#187,.T.);
#236=ORIENTED_EDGE('',*,*,#191,.F.);
#237=ORIENTED_EDGE('',*,*,#183,.T.);
#238=ORIENTED_EDGE('',*,*,#192,.F.);
#239=ORIENTED_EDGE('',*,*,#189,.T.);
#240=ORIENTED_EDGE('',*,*,#193,.F.);
#241=ORIENTED_EDGE('',*,*,#185,.T.);
#242=ORIENTED_EDGE('',*,*,#194,.F.);
#243=ORIENTED_EDGE('',*,*,#188,.T.);
#244=ORIENTED_EDGE('',*,*,#195,.T.);
#245=ORIENTED_EDGE('',*,*,#196,.T.);
#246=ORIENTED_EDGE('',*,*,#197,.T.);
#247=ORIENTED_EDGE('',*,*,#193,.T.);
#248=ORIENTED_EDGE('',*,*,#197,.F.);
#249=ORIENTED_EDGE('',*,*,#198,.F.);
#250=ORIENTED_EDGE('',*,*,#199,.F.);
#251=ORIENTED_EDGE('',*,*,#171,.T.);
#252=ORIENTED_EDGE('',*,*,#174,.T.);
#253=ORIENTED_EDGE('',*,*,#192,.T.);
#254=ORIENTED_EDGE('',*,*,#200,.F.);
#255=ORIENTED_EDGE('',*,*,#201,.F.);
#256=ORIENTED_EDGE('',*,*,#195,.F.);
#257=ORIENTED_EDGE('',*,*,#173,.T.);
#258=ORIENTED_EDGE('',*,*,#176,.T.);
#259=ORIENTED_EDGE('',*,*,#186,.T.);
#260=ORIENTED_EDGE('',*,*,#199,.T.);
#261=ORIENTED_EDGE('',*,*,#202,.F.);
#262=ORIENTED_EDGE('',*,*,#200,.T.);
#263=ORIENTED_EDGE('',*,*,#198,.T.);
#264=ORIENTED_EDGE('',*,*,#196,.F.);
#265=ORIENTED_EDGE('',*,*,#201,.T.);
#266=ORIENTED_EDGE('',*,*,#202,.T.);
#267=ORIENTED_EDGE('',*,*,#191,.T.);
#268=ORIENTED_EDGE('',*,*,#203,.F.);
#269=ORIENTED_EDGE('',*,*,#204,.F.);
#270=ORIENTED_EDGE('',*,*,#205,.F.);
#271=ORIENTED_EDGE('',*,*,#179,.T.);
#272=ORIENTED_EDGE('',*,*,#182,.T.);
#273=ORIENTED_EDGE('',*,*,#184,.T.);
#274=ORIENTED_EDGE('',*,*,#205,.T.);
#275=ORIENTED_EDGE('',*,*,#206,.T.);
#276=ORIENTED_EDGE('',*,*,#207,.T.);
#277=ORIENTED_EDGE('',*,*,#208,.T.);
#278=ORIENTED_EDGE('',*,*,#206,.F.);
#279=ORIENTED_EDGE('',*,*,#204,.T.);
#280=ORIENTED_EDGE('',*,*,#209,.T.);
#281=ORIENTED_EDGE('',*,*,#190,.T.);
#282=ORIENTED_EDGE('',*,*,#210,.T.);
#283=ORIENTED_EDGE('',*,*,#209,.F.);
#284=ORIENTED_EDGE('',*,*,#203,.T.);
#285=ORIENTED_EDGE('',*,*,#194,.T.);
#286=ORIENTED_EDGE('',*,*,#207,.F.);
#287=ORIENTED_EDGE('',*,*,#208,.F.);
#288=ORIENTED_EDGE('',*,*,#210,.F.);
#289=ORIENTED_EDGE('',*,*,#177,.T.);
#290=ORIENTED_EDGE('',*,*,#180,.T.);
#291=CYLINDRICAL_SURFACE('',#335,0.203);
#292=CYLINDRICAL_SURFACE('',#338,0.203);
#293=CYLINDRICAL_SURFACE('',#341,0.203);
#294=CYLINDRICAL_SURFACE('',#344,0.203);
#295=CYLINDRICAL_SURFACE('',#353,0.437);
#296=CYLINDRICAL_SURFACE('',#354,0.25);
#297=ADVANCED_FACE('',(#35),#291,.F.);
#298=ADVANCED_FACE('',(#36),#292,.F.);
#299=ADVANCED_FACE('',(#37),#293,.F.);
#300=ADVANCED_FACE('',(#38),#294,.F.);
#301=ADVANCED_FACE('',(#39),#23,.F.);
#302=ADVANCED_FACE('',(#40),#24,.F.);
#303=ADVANCED_FACE('',(#41),#295,.T.);
#304=ADVANCED_FACE('',(#42),#296,.F.);
#305=ADVANCED_FACE('',(#43),#25,.T.);
#306=ADVANCED_FACE('',(#44,#15,#16),#26,.T.);
#307=ADVANCED_FACE('',(#45,#17,#18),#27,.F.);
#308=ADVANCED_FACE('',(#46),#28,.T.);
#309=ADVANCED_FACE('',(#47),#29,.T.);
#310=ADVANCED_FACE('',(#48,#19,#20),#30,.F.);
#311=ADVANCED_FACE('',(#49),#31,.T.);
#312=ADVANCED_FACE('',(#50),#32,.T.);
#313=ADVANCED_FACE('',(#51),#33,.T.);
#314=ADVANCED_FACE('',(#52,#21,#22),#34,.T.);
#315=CLOSED_SHELL('',(#297,#298,#299,#300,#301,#302,#303,#304,#305,#306,
#307,#308,#309,#310,#311,#312,#313,#314));
#316=DERIVED_UNIT_ELEMENT(#318,1.);
#317=DERIVED_UNIT_ELEMENT(#545,3.);
#318=(
MASS_UNIT()
NAMED_UNIT(*)
SI_UNIT($,.GRAM.)
);
#319=DERIVED_UNIT((#316,#317));
#320=MEASURE_REPRESENTATION_ITEM('density measure',
POSITIVE_RATIO_MEASURE(1.),#319);
#321=PROPERTY_DEFINITION_REPRESENTATION(#326,#323);
#322=PROPERTY_DEFINITION_REPRESENTATION(#327,#324);
#323=REPRESENTATION('material name',(#325),#540);
#324=REPRESENTATION('density',(#320),#540);
#325=DESCRIPTIVE_REPRESENTATION_ITEM('Generic','Generic');
#326=PROPERTY_DEFINITION('material property','material name',#553);
#327=PROPERTY_DEFINITION('material property','density of part',#553);
#328=DATE_TIME_ROLE('creation_date');
#329=APPLIED_DATE_AND_TIME_ASSIGNMENT(#330,#328,(#553));
#330=DATE_AND_TIME(#331,#332);
#331=CALENDAR_DATE(2014,13,2);
#332=LOCAL_TIME(8,36,50.,#333);
#333=COORDINATED_UNIVERSAL_TIME_OFFSET(0,0,.BEHIND.);
#334=AXIS2_PLACEMENT_3D('placement',#455,#365,#366);
#335=AXIS2_PLACEMENT_3D('',#456,#367,#368);
#336=AXIS2_PLACEMENT_3D('',#458,#369,#370);
#337=AXIS2_PLACEMENT_3D('',#461,#372,#373);
#338=AXIS2_PLACEMENT_3D('',#462,#374,#375);
#339=AXIS2_PLACEMENT_3D('',#464,#376,#377);
#340=AXIS2_PLACEMENT_3D('',#467,#379,#380);
#341=AXIS2_PLACEMENT_3D('',#468,#381,#382);
#342=AXIS2_PLACEMENT_3D('',#470,#383,#384);
#343=AXIS2_PLACEMENT_3D('',#473,#386,#387);
#344=AXIS2_PLACEMENT_3D('',#474,#388,#389);
#345=AXIS2_PLACEMENT_3D('',#476,#390,#391);
#346=AXIS2_PLACEMENT_3D('',#479,#393,#394);
#347=AXIS2_PLACEMENT_3D('',#480,#395,#396);
#348=AXIS2_PLACEMENT_3D('',#483,#397,#398);
#349=AXIS2_PLACEMENT_3D('',#487,#400,#401);
#350=AXIS2_PLACEMENT_3D('',#489,#403,#404);
#351=AXIS2_PLACEMENT_3D('',#492,#405,#406);
#352=AXIS2_PLACEMENT_3D('',#496,#408,#409);
#353=AXIS2_PLACEMENT_3D('',#498,#411,#412);
#354=AXIS2_PLACEMENT_3D('',#501,#415,#416);
#355=AXIS2_PLACEMENT_3D('',#504,#419,#420);
#356=AXIS2_PLACEMENT_3D('',#510,#424,#425);
#357=AXIS2_PLACEMENT_3D('',#514,#428,#429);
#358=AXIS2_PLACEMENT_3D('',#518,#432,#433);
#359=AXIS2_PLACEMENT_3D('',#520,#435,#436);
#360=AXIS2_PLACEMENT_3D('',#521,#437,#438);
#361=AXIS2_PLACEMENT_3D('',#527,#442,#443);
#362=AXIS2_PLACEMENT_3D('',#531,#446,#447);
#363=AXIS2_PLACEMENT_3D('',#535,#450,#451);
#364=AXIS2_PLACEMENT_3D('',#537,#453,#454);
#365=DIRECTION('axis',(0.,0.,1.));
#366=DIRECTION('refdir',(1.,0.,0.));
#367=DIRECTION('center_axis',(0.,0.,-1.));
#368=DIRECTION('ref_axis',(-1.,0.,0.));
#369=DIRECTION('center_axis',(0.,0.,-1.));
#370=DIRECTION('ref_axis',(-1.,0.,0.));
#371=DIRECTION('',(0.,0.,-1.));
#372=DIRECTION('center_axis',(0.,0.,1.));
#373=DIRECTION('ref_axis',(-1.,0.,0.));
#374=DIRECTION('center_axis',(0.,0.,-1.));
#375=DIRECTION('ref_axis',(-1.,0.,0.));
#376=DIRECTION('center_axis',(0.,0.,-1.));
#377=DIRECTION('ref_axis',(-1.,0.,0.));
#378=DIRECTION('',(0.,0.,-1.));
#379=DIRECTION('center_axis',(0.,0.,1.));
#380=DIRECTION('ref_axis',(-1.,0.,0.));
#381=DIRECTION('center_axis',(0.,1.,0.));
#382=DIRECTION('ref_axis',(-1.,0.,0.));
#383=DIRECTION('center_axis',(0.,1.,0.));
#384=DIRECTION('ref_axis',(-1.,0.,0.));
#385=DIRECTION('',(0.,1.,0.));
#386=DIRECTION('center_axis',(0.,-1.,0.));
#387=DIRECTION('ref_axis',(-1.,0.,0.));
#388=DIRECTION('center_axis',(0.,1.,0.));
#389=DIRECTION('ref_axis',(-1.,0.,0.));
#390=DIRECTION('center_axis',(0.,1.,0.));
#391=DIRECTION('ref_axis',(-1.,0.,0.));
#392=DIRECTION('',(0.,1.,0.));
#393=DIRECTION('center_axis',(0.,-1.,0.));
#394=DIRECTION('ref_axis',(-1.,0.,0.));
#395=DIRECTION('center_axis',(-1.,0.,0.));
#396=DIRECTION('ref_axis',(0.,0.,1.));
#397=DIRECTION('center_axis',(-1.,0.,0.));
#398=DIRECTION('ref_axis',(0.,0.,-1.));
#399=DIRECTION('',(0.,1.,0.));
#400=DIRECTION('center_axis',(1.,0.,0.));
#401=DIRECTION('ref_axis',(0.,0.,-1.));
#402=DIRECTION('',(0.,0.,1.));
#403=DIRECTION('center_axis',(1.,0.,0.));
#404=DIRECTION('ref_axis',(0.,0.,-1.));
#405=DIRECTION('center_axis',(1.,0.,0.));
#406=DIRECTION('ref_axis',(0.,0.,-1.));
#407=DIRECTION('',(0.,0.,-1.));
#408=DIRECTION('center_axis',(-1.,0.,0.));
#409=DIRECTION('ref_axis',(0.,0.,-1.));
#410=DIRECTION('',(0.,-1.,0.));
#411=DIRECTION('center_axis',(1.,0.,0.));
#412=DIRECTION('ref_axis',(0.,0.,-1.));
#413=DIRECTION('',(-1.,0.,0.));
#414=DIRECTION('',(1.,0.,0.));
#415=DIRECTION('center_axis',(1.,0.,0.));
#416=DIRECTION('ref_axis',(0.,0.,-1.));
#417=DIRECTION('',(-1.,0.,0.));
#418=DIRECTION('',(1.,0.,0.));
#419=DIRECTION('center_axis',(-1.,0.,0.));
#420=DIRECTION('ref_axis',(0.,0.,1.));
#421=DIRECTION('',(0.,-1.,0.));
#422=DIRECTION('',(0.,0.,1.));
#423=DIRECTION('',(0.,1.,0.));
#424=DIRECTION('center_axis',(0.,0.,1.));
#425=DIRECTION('ref_axis',(1.,0.,0.));
#426=DIRECTION('',(-1.,0.,0.));
#427=DIRECTION('',(0.,-1.,0.));
#428=DIRECTION('center_axis',(0.,0.,1.));
#429=DIRECTION('ref_axis',(1.,0.,0.));
#430=DIRECTION('',(0.,1.,0.));
#431=DIRECTION('',(1.,0.,0.));
#432=DIRECTION('center_axis',(1.,0.,0.));
#433=DIRECTION('ref_axis',(0.,0.,-1.));
#434=DIRECTION('',(0.,0.,1.));
#435=DIRECTION('center_axis',(0.,-1.,0.));
#436=DIRECTION('ref_axis',(0.,0.,-1.));
#437=DIRECTION('center_axis',(0.,-1.,0.));
#438=DIRECTION('ref_axis',(1.,0.,0.));
#439=DIRECTION('',(0.,0.,-1.));
#440=DIRECTION('',(-1.,0.,0.));
#441=DIRECTION('',(0.,0.,1.));
#442=DIRECTION('center_axis',(1.,0.,0.));
#443=DIRECTION('ref_axis',(0.,1.,0.));
#444=DIRECTION('',(0.,-1.,0.));
#445=DIRECTION('',(0.,0.,-1.));
#446=DIRECTION('center_axis',(0.,0.,1.));
#447=DIRECTION('ref_axis',(0.,-1.,0.));
#448=DIRECTION('',(1.,0.,0.));
#449=DIRECTION('',(0.,-1.,0.));
#450=DIRECTION('center_axis',(-1.,0.,0.));
#451=DIRECTION('ref_axis',(0.,-1.,0.));
#452=DIRECTION('',(0.,0.,1.));
#453=DIRECTION('center_axis',(0.,-1.,0.));
#454=DIRECTION('ref_axis',(1.,0.,0.));
#455=CARTESIAN_POINT('',(0.,0.,0.));
#456=CARTESIAN_POINT('Origin',(0.44,0.44,0.187));
#457=CARTESIAN_POINT('',(0.643,0.44,0.187));
#458=CARTESIAN_POINT('Origin',(0.44,0.44,0.187));
#459=CARTESIAN_POINT('',(0.643,0.44,0.));
#460=CARTESIAN_POINT('',(0.643,0.44,0.187));
#461=CARTESIAN_POINT('Origin',(0.44,0.44,0.));
#462=CARTESIAN_POINT('Origin',(4.56,0.44,0.187));
#463=CARTESIAN_POINT('',(4.763,0.44,0.187));
#464=CARTESIAN_POINT('Origin',(4.56,0.44,0.187));
#465=CARTESIAN_POINT('',(4.763,0.44,0.));
#466=CARTESIAN_POINT('',(4.763,0.44,0.187));
#467=CARTESIAN_POINT('Origin',(4.56,0.44,0.));
#468=CARTESIAN_POINT('Origin',(0.44,1.1765278982663,0.923527898266296));
#469=CARTESIAN_POINT('',(0.643,1.1765278982663,0.923527898266296));
#470=CARTESIAN_POINT('Origin',(0.44,1.1765278982663,0.923527898266296));
#471=CARTESIAN_POINT('',(0.643,1.3635278982663,0.923527898266296));
#472=CARTESIAN_POINT('',(0.643,1.1765278982663,0.923527898266296));
#473=CARTESIAN_POINT('Origin',(0.44,1.3635278982663,0.923527898266296));
#474=CARTESIAN_POINT('Origin',(4.56,1.1765278982663,0.923527898266296));
#475=CARTESIAN_POINT('',(4.763,1.1765278982663,0.923527898266296));
#476=CARTESIAN_POINT('Origin',(4.56,1.1765278982663,0.923527898266296));
#477=CARTESIAN_POINT('',(4.763,1.3635278982663,0.923527898266296));
#478=CARTESIAN_POINT('',(4.763,1.1765278982663,0.923527898266296));
#479=CARTESIAN_POINT('Origin',(4.56,1.3635278982663,0.923527898266296));
#480=CARTESIAN_POINT('Origin',(5.,1.7065278982663,0.437));
#481=CARTESIAN_POINT('',(5.,1.3635278982663,0.437));
#482=CARTESIAN_POINT('',(5.,0.926527898266296,0.));
#483=CARTESIAN_POINT('Origin',(5.,0.926527898266296,0.437));
#484=CARTESIAN_POINT('',(5.,1.1765278982663,0.437));
#485=CARTESIAN_POINT('',(5.,1.1765278982663,0.437));
#486=CARTESIAN_POINT('',(5.,0.926527898266296,0.187));
#487=CARTESIAN_POINT('Origin',(5.,0.926527898266296,0.437));
#488=CARTESIAN_POINT('',(5.,0.926527898266296,0.));
#489=CARTESIAN_POINT('Origin',(0.,0.926527898266296,-0.343));
#490=CARTESIAN_POINT('',(0.,0.926527898266296,0.));
#491=CARTESIAN_POINT('',(0.,1.3635278982663,0.437));
#492=CARTESIAN_POINT('Origin',(0.,0.926527898266296,0.437));
#493=CARTESIAN_POINT('',(0.,0.926527898266296,0.187));
#494=CARTESIAN_POINT('',(0.,0.926527898266296,0.187));
#495=CARTESIAN_POINT('',(0.,1.1765278982663,0.437));
#496=CARTESIAN_POINT('Origin',(0.,0.926527898266296,0.437));
#497=CARTESIAN_POINT('',(0.,1.3635278982663,0.437));
#498=CARTESIAN_POINT('Origin',(2.5,0.926527898266296,0.437));
#499=CARTESIAN_POINT('',(5.,1.3635278982663,0.437));
#500=CARTESIAN_POINT('',(0.,0.926527898266296,0.));
#501=CARTESIAN_POINT('Origin',(2.5,0.926527898266296,0.437));
#502=CARTESIAN_POINT('',(5.,0.926527898266296,0.187));
#503=CARTESIAN_POINT('',(0.,1.1765278982663,0.437));
#504=CARTESIAN_POINT('Origin',(0.,0.,0.));
#505=CARTESIAN_POINT('',(0.,0.,0.));
#506=CARTESIAN_POINT('',(0.,0.926527898266296,0.));
#507=CARTESIAN_POINT('',(0.,0.,0.187));
#508=CARTESIAN_POINT('',(0.,0.,0.));
#509=CARTESIAN_POINT('',(0.,0.,0.187));
#510=CARTESIAN_POINT('Origin',(2.5,1.1875,0.187));
#511=CARTESIAN_POINT('',(5.,0.,0.187));
#512=CARTESIAN_POINT('',(5.,0.,0.187));
#513=CARTESIAN_POINT('',(5.,0.926527898266296,0.187));
#514=CARTESIAN_POINT('Origin',(2.5,1.1875,0.));
#515=CARTESIAN_POINT('',(5.,0.,0.));
#516=CARTESIAN_POINT('',(5.,0.,0.));
#517=CARTESIAN_POINT('',(0.,0.,0.));
#518=CARTESIAN_POINT('Origin',(5.,2.375,0.));
#519=CARTESIAN_POINT('',(5.,0.,0.));
#520=CARTESIAN_POINT('Origin',(5.,0.,0.));
#521=CARTESIAN_POINT('Origin',(2.5,1.3635278982663,0.176027898266296));
#522=CARTESIAN_POINT('',(0.,1.3635278982663,1.3635278982663));
#523=CARTESIAN_POINT('',(0.,1.3635278982663,1.3635278982663));
#524=CARTESIAN_POINT('',(5.,1.3635278982663,1.3635278982663));
#525=CARTESIAN_POINT('',(5.,1.3635278982663,1.3635278982663));
#526=CARTESIAN_POINT('',(5.,1.3635278982663,0.437));
#527=CARTESIAN_POINT('Origin',(5.,1.3635278982663,1.3635278982663));
#528=CARTESIAN_POINT('',(5.,1.1765278982663,1.3635278982663));
#529=CARTESIAN_POINT('',(5.,1.3635278982663,1.3635278982663));
#530=CARTESIAN_POINT('',(5.,1.1765278982663,1.3635278982663));
#531=CARTESIAN_POINT('Origin',(0.,1.3635278982663,1.3635278982663));
#532=CARTESIAN_POINT('',(0.,1.1765278982663,1.3635278982663));
#533=CARTESIAN_POINT('',(0.,1.1765278982663,1.3635278982663));
#534=CARTESIAN_POINT('',(0.,1.3635278982663,1.3635278982663));
#535=CARTESIAN_POINT('Origin',(0.,1.3635278982663,-1.0114721017337));
#536=CARTESIAN_POINT('',(0.,1.1765278982663,0.437));
#537=CARTESIAN_POINT('Origin',(2.5,1.1765278982663,0.176027898266296));
#538=UNCERTAINTY_MEASURE_WITH_UNIT(LENGTH_MEASURE(0.000393700787401575),
#543,'DISTANCE_ACCURACY_VALUE',
'Maximum model space distance between geometric entities at asserted c
onnectivities');
#539=UNCERTAINTY_MEASURE_WITH_UNIT(LENGTH_MEASURE(0.000393700787401575),
#543,'DISTANCE_ACCURACY_VALUE',
'Maximum model space distance between geometric entities at asserted c
onnectivities');
#540=(
GEOMETRIC_REPRESENTATION_CONTEXT(3)
GLOBAL_UNCERTAINTY_ASSIGNED_CONTEXT((#538))
GLOBAL_UNIT_ASSIGNED_CONTEXT((#543,#548,#547))
REPRESENTATION_CONTEXT('','3D')
);
#541=(
GEOMETRIC_REPRESENTATION_CONTEXT(3)
GLOBAL_UNCERTAINTY_ASSIGNED_CONTEXT((#539))
GLOBAL_UNIT_ASSIGNED_CONTEXT((#543,#548,#547))
REPRESENTATION_CONTEXT('','3D')
);
#542=DIMENSIONAL_EXPONENTS(1.,0.,0.,0.,0.,0.,0.);
#543=(
CONVERSION_BASED_UNIT('inch',#546)
LENGTH_UNIT()
NAMED_UNIT(#542)
);
#544=(
LENGTH_UNIT()
NAMED_UNIT(*)
SI_UNIT(.MILLI.,.METRE.)
);
#545=(
LENGTH_UNIT()
NAMED_UNIT(*)
SI_UNIT(.CENTI.,.METRE.)
);
#546=LENGTH_MEASURE_WITH_UNIT(LENGTH_MEASURE(25.4),#544);
#547=(
NAMED_UNIT(*)
SI_UNIT($,.STERADIAN.)
SOLID_ANGLE_UNIT()
);
#548=(
NAMED_UNIT(*)
PLANE_ANGLE_UNIT()
SI_UNIT($,.RADIAN.)
);
#549=SHAPE_DEFINITION_REPRESENTATION(#550,#551);
#550=PRODUCT_DEFINITION_SHAPE('',$,#553);
#551=SHAPE_REPRESENTATION('',(#334),#540);
#552=PRODUCT_DEFINITION_CONTEXT('part definition',#557,'design');
#553=PRODUCT_DEFINITION('500_Bracket','500_Bracket',#554,#552);
#554=PRODUCT_DEFINITION_FORMATION('',$,#559);
#555=PRODUCT_RELATED_PRODUCT_CATEGORY('500_Bracket','500_Bracket',(#559));
#556=APPLICATION_PROTOCOL_DEFINITION('international standard',
'automotive_design',2009,#557);
#557=APPLICATION_CONTEXT(
'Core Data for Automotive Mechanical Design Process');
#558=PRODUCT_CONTEXT('part definition',#557,'mechanical');
#559=PRODUCT('500_Bracket','500_Bracket',$,(#558));
#560=PRESENTATION_STYLE_ASSIGNMENT((#561));
#561=SURFACE_STYLE_USAGE(.BOTH.,#562);
#562=SURFACE_SIDE_STYLE('',(#563));
#563=SURFACE_STYLE_FILL_AREA(#564);
#564=FILL_AREA_STYLE('',(#565));
#565=FILL_AREA_STYLE_COLOUR('',#566);
#566=COLOUR_RGB('',0.749019607843137,0.749019607843137,0.749019607843137);
ENDSEC;
END-ISO-10303-21;
