ISO-10303-21;
HEADER;
/****************************************************************
 * Generated by software with PDElib inside                    *
 * PDElib Version v51a, created Tue 11/30/2010                  *
 * ITI Transcendata (http://www.transcendata.com/)              *
 ****************************************************************/
FILE_DESCRIPTION((''),'2;1');
FILE_NAME('C:\\Documents and Settings\\jrf\\Desktop\\350 Bracket.stp','2014-02-13T08:36:27',('jrf'),(''),'Autodesk Inventor 2012','Autodesk Inventor 2012','');
FILE_SCHEMA(('AUTOMOTIVE_DESIGN { 1 0 10303 214 1 1 1 1 }'));
ENDSEC;
DATA;
#5=APPLICATION_CONTEXT('automotive design');
#6=APPLICATION_PROTOCOL_DEFINITION('International Standard','automotive_design',2001,#5);
#7=PRODUCT_CONTEXT('',#5,'mechanical');
#8=PRODUCT('350 Bracket','350 Bracket',$,(#7));
#9=PRODUCT_RELATED_PRODUCT_CATEGORY('part',$,(#8));
#10=PRODUCT_DEFINITION_FORMATION('',$,#8);
#11=PRODUCT_DEFINITION_CONTEXT('part definition',#5,'design');
#12=PRODUCT_DEFINITION('',$,#10,#11);
#18=(NAMED_UNIT(*)PLANE_ANGLE_UNIT()SI_UNIT($,.RADIAN.));
#19=DIMENSIONAL_EXPONENTS(0.0,0.0,0.0,0.0,0.0,0.0,0.0);
#20=PLANE_ANGLE_MEASURE_WITH_UNIT(PLANE_ANGLE_MEASURE(0.0174532925),#18);
#24=(CONVERSION_BASED_UNIT('DEGREE',#20)NAMED_UNIT(#19)PLANE_ANGLE_UNIT());
#28=(NAMED_UNIT(*)SI_UNIT($,.STERADIAN.)SOLID_ANGLE_UNIT());
#32=(LENGTH_UNIT()NAMED_UNIT(*)SI_UNIT(.CENTI.,.METRE.));
#33=DIMENSIONAL_EXPONENTS(1.0,0.0,0.0,0.0,0.0,0.0,0.0);
#34=LENGTH_MEASURE_WITH_UNIT(LENGTH_MEASURE(2.54),#32);
#38=(CONVERSION_BASED_UNIT('INCH',#34)LENGTH_UNIT()NAMED_UNIT(#33));
#40=UNCERTAINTY_MEASURE_WITH_UNIT(LENGTH_MEASURE(0.000393700787402),#38,'DISTANCE_ACCURACY_VALUE','');
#42=(GEOMETRIC_REPRESENTATION_CONTEXT(3)GLOBAL_UNCERTAINTY_ASSIGNED_CONTEXT((#40))GLOBAL_UNIT_ASSIGNED_CONTEXT((#24,#28,#38))REPRESENTATION_CONTEXT('None','None'));
#43=AXIS2_PLACEMENT_3D('',#44,#45,#46);
#44=CARTESIAN_POINT('',(0.0,0.0,0.0));
#45=DIRECTION('',(0.0,0.0,1.0));
#46=DIRECTION('',(1.0,0.0,0.0));
#47=SHAPE_REPRESENTATION('',(#43),#42);
#48=PRODUCT_DEFINITION_SHAPE('','',#12);
#49=SHAPE_DEFINITION_REPRESENTATION(#48,#47);
#55=(NAMED_UNIT(*)PLANE_ANGLE_UNIT()SI_UNIT($,.RADIAN.));
#56=DIMENSIONAL_EXPONENTS(0.0,0.0,0.0,0.0,0.0,0.0,0.0);
#57=PLANE_ANGLE_MEASURE_WITH_UNIT(PLANE_ANGLE_MEASURE(0.0174532925),#55);
#61=(CONVERSION_BASED_UNIT('DEGREE',#57)NAMED_UNIT(#56)PLANE_ANGLE_UNIT());
#65=(NAMED_UNIT(*)SI_UNIT($,.STERADIAN.)SOLID_ANGLE_UNIT());
#69=(LENGTH_UNIT()NAMED_UNIT(*)SI_UNIT(.MILLI.,.METRE.));
#71=UNCERTAINTY_MEASURE_WITH_UNIT(LENGTH_MEASURE(0.000001),#69,'DISTANCE_ACCURACY_VALUE','');
#73=(GEOMETRIC_REPRESENTATION_CONTEXT(3)GLOBAL_UNCERTAINTY_ASSIGNED_CONTEXT((#71))GLOBAL_UNIT_ASSIGNED_CONTEXT((#61,#65,#69))REPRESENTATION_CONTEXT('','3D'));
#74=CARTESIAN_POINT('',(0.34,2.94,0.125));
#75=DIRECTION('',(0.0,0.0,-1.0));
#76=DIRECTION('',(-1.0,0.0,0.0));
#77=AXIS2_PLACEMENT_3D('',#74,#75,#76);
#78=CYLINDRICAL_SURFACE('',#77,0.17);
#79=CARTESIAN_POINT('',(0.51,2.94,0.0));
#80=VERTEX_POINT('',#79);
#81=CARTESIAN_POINT('',(0.34,2.94,0.0));
#82=DIRECTION('',(0.0,0.0,1.0));
#83=DIRECTION('',(-1.0,0.0,0.0));
#84=AXIS2_PLACEMENT_3D('',#81,#82,#83);
#85=CIRCLE('',#84,0.17);
#86=EDGE_CURVE('',#80,#80,#85,.T.);
#87=ORIENTED_EDGE('',*,*,#86,.F.);
#88=EDGE_LOOP('',(#87));
#89=FACE_OUTER_BOUND('',#88,.T.);
#90=CARTESIAN_POINT('',(0.51,2.94,0.125));
#91=VERTEX_POINT('',#90);
#92=CARTESIAN_POINT('',(0.34,2.94,0.125));
#93=DIRECTION('',(0.0,0.0,-1.0));
#94=DIRECTION('',(-1.0,0.0,0.0));
#95=AXIS2_PLACEMENT_3D('',#92,#93,#94);
#96=CIRCLE('',#95,0.17);
#97=EDGE_CURVE('',#91,#91,#96,.T.);
#98=ORIENTED_EDGE('',*,*,#97,.F.);
#99=EDGE_LOOP('',(#98));
#100=FACE_BOUND('',#99,.T.);
#101=ADVANCED_FACE('',(#89,#100),#78,.F.);
#102=CARTESIAN_POINT('',(0.34,0.56,0.125));
#103=DIRECTION('',(0.0,0.0,-1.0));
#104=DIRECTION('',(-1.0,0.0,0.0));
#105=AXIS2_PLACEMENT_3D('',#102,#103,#104);
#106=CYLINDRICAL_SURFACE('',#105,0.17);
#107=CARTESIAN_POINT('',(0.51,0.56,0.0));
#108=VERTEX_POINT('',#107);
#109=CARTESIAN_POINT('',(0.34,0.56,0.0));
#110=DIRECTION('',(0.0,0.0,1.0));
#111=DIRECTION('',(-1.0,0.0,0.0));
#112=AXIS2_PLACEMENT_3D('',#109,#110,#111);
#113=CIRCLE('',#112,0.17);
#114=EDGE_CURVE('',#108,#108,#113,.T.);
#115=ORIENTED_EDGE('',*,*,#114,.F.);
#116=EDGE_LOOP('',(#115));
#117=FACE_OUTER_BOUND('',#116,.T.);
#118=CARTESIAN_POINT('',(0.51,0.56,0.125));
#119=VERTEX_POINT('',#118);
#120=CARTESIAN_POINT('',(0.34,0.56,0.125));
#121=DIRECTION('',(0.0,0.0,-1.0));
#122=DIRECTION('',(-1.0,0.0,0.0));
#123=AXIS2_PLACEMENT_3D('',#120,#121,#122);
#124=CIRCLE('',#123,0.17);
#125=EDGE_CURVE('',#119,#119,#124,.T.);
#126=ORIENTED_EDGE('',*,*,#125,.F.);
#127=EDGE_LOOP('',(#126));
#128=FACE_BOUND('',#127,.T.);
#129=ADVANCED_FACE('',(#117,#128),#106,.F.);
#130=CARTESIAN_POINT('',(0.872593133788882,0.56,0.657593133788882));
#131=DIRECTION('',(1.0,0.0,0.0));
#132=DIRECTION('',(0.0,0.0,-1.0));
#133=AXIS2_PLACEMENT_3D('',#130,#131,#132);
#134=CYLINDRICAL_SURFACE('',#133,0.17);
#135=CARTESIAN_POINT('',(0.997593133788882,0.56,0.827593133788882));
#136=VERTEX_POINT('',#135);
#137=CARTESIAN_POINT('',(0.997593133788882,0.56,0.657593133788882));
#138=DIRECTION('',(-1.0,0.0,0.0));
#139=DIRECTION('',(0.0,0.0,-1.0));
#140=AXIS2_PLACEMENT_3D('',#137,#138,#139);
#141=CIRCLE('',#140,0.17);
#142=EDGE_CURVE('',#136,#136,#141,.T.);
#143=ORIENTED_EDGE('',*,*,#142,.F.);
#144=EDGE_LOOP('',(#143));
#145=FACE_OUTER_BOUND('',#144,.T.);
#146=CARTESIAN_POINT('',(0.872593133788882,0.56,0.827593133788882));
#147=VERTEX_POINT('',#146);
#148=CARTESIAN_POINT('',(0.872593133788882,0.56,0.657593133788882));
#149=DIRECTION('',(1.0,0.0,0.0));
#150=DIRECTION('',(0.0,0.0,-1.0));
#151=AXIS2_PLACEMENT_3D('',#148,#149,#150);
#152=CIRCLE('',#151,0.17);
#153=EDGE_CURVE('',#147,#147,#152,.T.);
#154=ORIENTED_EDGE('',*,*,#153,.F.);
#155=EDGE_LOOP('',(#154));
#156=FACE_BOUND('',#155,.T.);
#157=ADVANCED_FACE('',(#145,#156),#134,.F.);
#158=CARTESIAN_POINT('',(0.872593133788882,2.94,0.657593133788882));
#159=DIRECTION('',(1.0,0.0,0.0));
#160=DIRECTION('',(0.0,0.0,-1.0));
#161=AXIS2_PLACEMENT_3D('',#158,#159,#160);
#162=CYLINDRICAL_SURFACE('',#161,0.17);
#163=CARTESIAN_POINT('',(0.997593133788882,2.94,0.827593133788882));
#164=VERTEX_POINT('',#163);
#165=CARTESIAN_POINT('',(0.997593133788882,2.94,0.657593133788882));
#166=DIRECTION('',(-1.0,0.0,0.0));
#167=DIRECTION('',(0.0,0.0,-1.0));
#168=AXIS2_PLACEMENT_3D('',#165,#166,#167);
#169=CIRCLE('',#168,0.17);
#170=EDGE_CURVE('',#164,#164,#169,.T.);
#171=ORIENTED_EDGE('',*,*,#170,.F.);
#172=EDGE_LOOP('',(#171));
#173=FACE_OUTER_BOUND('',#172,.T.);
#174=CARTESIAN_POINT('',(0.872593133788882,2.94,0.827593133788882));
#175=VERTEX_POINT('',#174);
#176=CARTESIAN_POINT('',(0.872593133788882,2.94,0.657593133788882));
#177=DIRECTION('',(1.0,0.0,0.0));
#178=DIRECTION('',(0.0,0.0,-1.0));
#179=AXIS2_PLACEMENT_3D('',#176,#177,#178);
#180=CIRCLE('',#179,0.17);
#181=EDGE_CURVE('',#175,#175,#180,.T.);
#182=ORIENTED_EDGE('',*,*,#181,.F.);
#183=EDGE_LOOP('',(#182));
#184=FACE_BOUND('',#183,.T.);
#185=ADVANCED_FACE('',(#173,#184),#162,.F.);
#186=CARTESIAN_POINT('',(1.232593133788882,0.0,0.315));
#187=DIRECTION('',(0.0,1.0,0.0));
#188=DIRECTION('',(0.0,0.0,1.0));
#189=AXIS2_PLACEMENT_3D('',#186,#187,#188);
#190=PLANE('',#189);
#191=CARTESIAN_POINT('',(0.997593133788882,0.0,0.315));
#192=VERTEX_POINT('',#191);
#193=CARTESIAN_POINT('',(0.682593133788882,0.0,0.0));
#194=VERTEX_POINT('',#193);
#195=CARTESIAN_POINT('',(0.682593133788882,0.0,0.315));
#196=DIRECTION('',(0.0,1.0,0.0));
#197=DIRECTION('',(0.0,0.0,-1.0));
#198=AXIS2_PLACEMENT_3D('',#195,#196,#197);
#199=CIRCLE('',#198,0.315);
#200=EDGE_CURVE('',#192,#194,#199,.T.);
#201=ORIENTED_EDGE('',*,*,#200,.F.);
#202=CARTESIAN_POINT('',(0.872593133788882,0.0,0.315));
#203=VERTEX_POINT('',#202);
#204=CARTESIAN_POINT('',(0.872593133788882,0.0,0.315));
#205=DIRECTION('',(1.0,0.0,0.0));
#206=VECTOR('',#205,0.125);
#207=LINE('',#204,#206);
#208=EDGE_CURVE('',#203,#192,#207,.T.);
#209=ORIENTED_EDGE('',*,*,#208,.F.);
#210=CARTESIAN_POINT('',(0.682593133788882,0.0,0.125));
#211=VERTEX_POINT('',#210);
#212=CARTESIAN_POINT('',(0.682593133788882,0.0,0.315));
#213=DIRECTION('',(0.0,-1.0,0.0));
#214=DIRECTION('',(0.0,0.0,-1.0));
#215=AXIS2_PLACEMENT_3D('',#212,#213,#214);
#216=CIRCLE('',#215,0.19);
#217=EDGE_CURVE('',#211,#203,#216,.T.);
#218=ORIENTED_EDGE('',*,*,#217,.F.);
#219=CARTESIAN_POINT('',(0.682593133788882,0.0,0.0));
#220=DIRECTION('',(0.0,0.0,1.0));
#221=VECTOR('',#220,0.125);
#222=LINE('',#219,#221);
#223=EDGE_CURVE('',#194,#211,#222,.T.);
#224=ORIENTED_EDGE('',*,*,#223,.F.);
#225=EDGE_LOOP('',(#201,#209,#218,#224));
#226=FACE_OUTER_BOUND('',#225,.T.);
#227=ADVANCED_FACE('',(#226),#190,.F.);
#228=CARTESIAN_POINT('',(0.682593133788882,3.500485520400274,-0.235));
#229=DIRECTION('',(0.0,-1.0,0.0));
#230=DIRECTION('',(0.0,0.0,-1.0));
#231=AXIS2_PLACEMENT_3D('',#228,#229,#230);
#232=PLANE('',#231);
#233=CARTESIAN_POINT('',(0.682593133788882,3.500485520400273,0.0));
#234=VERTEX_POINT('',#233);
#235=CARTESIAN_POINT('',(0.997593133788882,3.500485520400273,0.315));
#236=VERTEX_POINT('',#235);
#237=CARTESIAN_POINT('',(0.682593133788882,3.500485520400274,0.315));
#238=DIRECTION('',(0.0,-1.0,0.0));
#239=DIRECTION('',(0.0,0.0,-1.0));
#240=AXIS2_PLACEMENT_3D('',#237,#238,#239);
#241=CIRCLE('',#240,0.315);
#242=EDGE_CURVE('',#234,#236,#241,.T.);
#243=ORIENTED_EDGE('',*,*,#242,.F.);
#244=CARTESIAN_POINT('',(0.682593133788882,3.500485520400273,0.125));
#245=VERTEX_POINT('',#244);
#246=CARTESIAN_POINT('',(0.682593133788882,3.500485520400273,0.125));
#247=DIRECTION('',(0.0,0.0,-1.0));
#248=VECTOR('',#247,0.125);
#249=LINE('',#246,#248);
#250=EDGE_CURVE('',#245,#234,#249,.T.);
#251=ORIENTED_EDGE('',*,*,#250,.F.);
#252=CARTESIAN_POINT('',(0.872593133788882,3.500485520400273,0.315));
#253=VERTEX_POINT('',#252);
#254=CARTESIAN_POINT('',(0.682593133788882,3.500485520400274,0.315));
#255=DIRECTION('',(0.0,1.0,0.0));
#256=DIRECTION('',(0.0,0.0,-1.0));
#257=AXIS2_PLACEMENT_3D('',#254,#255,#256);
#258=CIRCLE('',#257,0.19);
#259=EDGE_CURVE('',#253,#245,#258,.T.);
#260=ORIENTED_EDGE('',*,*,#259,.F.);
#261=CARTESIAN_POINT('',(0.997593133788882,3.500485520400273,0.315));
#262=DIRECTION('',(-1.0,0.0,0.0));
#263=VECTOR('',#262,0.125);
#264=LINE('',#261,#263);
#265=EDGE_CURVE('',#236,#253,#264,.T.);
#266=ORIENTED_EDGE('',*,*,#265,.F.);
#267=EDGE_LOOP('',(#243,#251,#260,#266));
#268=FACE_OUTER_BOUND('',#267,.T.);
#269=ADVANCED_FACE('',(#268),#232,.F.);
#270=CARTESIAN_POINT('',(0.682593133788882,1.750242760200136,0.315));
#271=DIRECTION('',(0.0,-1.0,0.0));
#272=DIRECTION('',(0.0,0.0,-1.0));
#273=AXIS2_PLACEMENT_3D('',#270,#271,#272);
#274=CYLINDRICAL_SURFACE('',#273,0.315);
#275=ORIENTED_EDGE('',*,*,#242,.T.);
#276=CARTESIAN_POINT('',(0.997593133788882,0.0,0.315));
#277=DIRECTION('',(0.0,1.0,0.0));
#278=VECTOR('',#277,3.500485520400273);
#279=LINE('',#276,#278);
#280=EDGE_CURVE('',#192,#236,#279,.T.);
#281=ORIENTED_EDGE('',*,*,#280,.F.);
#282=ORIENTED_EDGE('',*,*,#200,.T.);
#283=CARTESIAN_POINT('',(0.682593133788882,3.500485520400273,0.0));
#284=DIRECTION('',(0.0,-1.0,0.0));
#285=VECTOR('',#284,3.500485520400273);
#286=LINE('',#283,#285);
#287=EDGE_CURVE('',#234,#194,#286,.T.);
#288=ORIENTED_EDGE('',*,*,#287,.F.);
#289=EDGE_LOOP('',(#275,#281,#282,#288));
#290=FACE_OUTER_BOUND('',#289,.T.);
#291=ADVANCED_FACE('',(#290),#274,.T.);
#292=CARTESIAN_POINT('',(0.682593133788882,1.750242760200136,0.315));
#293=DIRECTION('',(0.0,-1.0,0.0));
#294=DIRECTION('',(0.0,0.0,-1.0));
#295=AXIS2_PLACEMENT_3D('',#292,#293,#294);
#296=CYLINDRICAL_SURFACE('',#295,0.19);
#297=ORIENTED_EDGE('',*,*,#259,.T.);
#298=CARTESIAN_POINT('',(0.682593133788882,0.0,0.125));
#299=DIRECTION('',(0.0,1.0,0.0));
#300=VECTOR('',#299,3.500485520400273);
#301=LINE('',#298,#300);
#302=EDGE_CURVE('',#211,#245,#301,.T.);
#303=ORIENTED_EDGE('',*,*,#302,.F.);
#304=ORIENTED_EDGE('',*,*,#217,.T.);
#305=CARTESIAN_POINT('',(0.872593133788882,3.500485520400273,0.315));
#306=DIRECTION('',(0.0,-1.0,0.0));
#307=VECTOR('',#306,3.500485520400273);
#308=LINE('',#305,#307);
#309=EDGE_CURVE('',#253,#203,#308,.T.);
#310=ORIENTED_EDGE('',*,*,#309,.F.);
#311=EDGE_LOOP('',(#297,#303,#304,#310));
#312=FACE_OUTER_BOUND('',#311,.T.);
#313=ADVANCED_FACE('',(#312),#296,.F.);
#314=CARTESIAN_POINT('',(0.0,3.500485520400273,0.0));
#315=DIRECTION('',(0.0,1.0,0.0));
#316=DIRECTION('',(0.0,0.0,1.0));
#317=AXIS2_PLACEMENT_3D('',#314,#315,#316);
#318=PLANE('',#317);
#319=ORIENTED_EDGE('',*,*,#250,.T.);
#320=CARTESIAN_POINT('',(0.0,3.500485520400273,0.0));
#321=VERTEX_POINT('',#320);
#322=CARTESIAN_POINT('',(0.682593133788882,3.500485520400273,0.0));
#323=DIRECTION('',(-1.0,0.0,0.0));
#324=VECTOR('',#323,0.682593133788882);
#325=LINE('',#322,#324);
#326=EDGE_CURVE('',#234,#321,#325,.T.);
#327=ORIENTED_EDGE('',*,*,#326,.T.);
#328=CARTESIAN_POINT('',(0.0,3.500485520400273,0.125));
#329=VERTEX_POINT('',#328);
#330=CARTESIAN_POINT('',(0.0,3.500485520400273,0.0));
#331=DIRECTION('',(0.0,0.0,1.0));
#332=VECTOR('',#331,0.125);
#333=LINE('',#330,#332);
#334=EDGE_CURVE('',#321,#329,#333,.T.);
#335=ORIENTED_EDGE('',*,*,#334,.T.);
#336=CARTESIAN_POINT('',(0.0,3.500485520400273,0.125));
#337=DIRECTION('',(1.0,0.0,0.0));
#338=VECTOR('',#337,0.682593133788882);
#339=LINE('',#336,#338);
#340=EDGE_CURVE('',#329,#245,#339,.T.);
#341=ORIENTED_EDGE('',*,*,#340,.T.);
#342=EDGE_LOOP('',(#319,#327,#335,#341));
#343=FACE_OUTER_BOUND('',#342,.T.);
#344=ADVANCED_FACE('',(#343),#318,.T.);
#345=CARTESIAN_POINT('',(0.875015683821257,1.750242760200137,0.125));
#346=DIRECTION('',(0.0,0.0,1.0));
#347=DIRECTION('',(1.0,0.0,0.0));
#348=AXIS2_PLACEMENT_3D('',#345,#346,#347);
#349=PLANE('',#348);
#350=ORIENTED_EDGE('',*,*,#302,.T.);
#351=ORIENTED_EDGE('',*,*,#340,.F.);
#352=CARTESIAN_POINT('',(0.0,0.0,0.125));
#353=VERTEX_POINT('',#352);
#354=CARTESIAN_POINT('',(0.0,0.0,0.125));
#355=DIRECTION('',(0.0,1.0,0.0));
#356=VECTOR('',#355,3.500485520400273);
#357=LINE('',#354,#356);
#358=EDGE_CURVE('',#353,#329,#357,.T.);
#359=ORIENTED_EDGE('',*,*,#358,.F.);
#360=CARTESIAN_POINT('',(0.682593133788882,0.0,0.125));
#361=DIRECTION('',(-1.0,0.0,0.0));
#362=VECTOR('',#361,0.682593133788882);
#363=LINE('',#360,#362);
#364=EDGE_CURVE('',#211,#353,#363,.T.);
#365=ORIENTED_EDGE('',*,*,#364,.F.);
#366=EDGE_LOOP('',(#350,#351,#359,#365));
#367=FACE_OUTER_BOUND('',#366,.T.);
#368=ORIENTED_EDGE('',*,*,#97,.T.);
#369=EDGE_LOOP('',(#368));
#370=FACE_BOUND('',#369,.T.);
#371=ORIENTED_EDGE('',*,*,#125,.T.);
#372=EDGE_LOOP('',(#371));
#373=FACE_BOUND('',#372,.T.);
#374=ADVANCED_FACE('',(#367,#370,#373),#349,.T.);
#375=CARTESIAN_POINT('',(0.875015683821257,1.750242760200137,0.0));
#376=DIRECTION('',(0.0,0.0,1.0));
#377=DIRECTION('',(1.0,0.0,0.0));
#378=AXIS2_PLACEMENT_3D('',#375,#376,#377);
#379=PLANE('',#378);
#380=ORIENTED_EDGE('',*,*,#287,.T.);
#381=CARTESIAN_POINT('',(0.0,0.0,0.0));
#382=VERTEX_POINT('',#381);
#383=CARTESIAN_POINT('',(0.0,0.0,0.0));
#384=DIRECTION('',(1.0,0.0,0.0));
#385=VECTOR('',#384,0.682593133788882);
#386=LINE('',#383,#385);
#387=EDGE_CURVE('',#382,#194,#386,.T.);
#388=ORIENTED_EDGE('',*,*,#387,.F.);
#389=CARTESIAN_POINT('',(0.0,3.500485520400273,0.0));
#390=DIRECTION('',(0.0,-1.0,0.0));
#391=VECTOR('',#390,3.500485520400273);
#392=LINE('',#389,#391);
#393=EDGE_CURVE('',#321,#382,#392,.T.);
#394=ORIENTED_EDGE('',*,*,#393,.F.);
#395=ORIENTED_EDGE('',*,*,#326,.F.);
#396=EDGE_LOOP('',(#380,#388,#394,#395));
#397=FACE_OUTER_BOUND('',#396,.T.);
#398=ORIENTED_EDGE('',*,*,#86,.T.);
#399=EDGE_LOOP('',(#398));
#400=FACE_BOUND('',#399,.T.);
#401=ORIENTED_EDGE('',*,*,#114,.T.);
#402=EDGE_LOOP('',(#401));
#403=FACE_BOUND('',#402,.T.);
#404=ADVANCED_FACE('',(#397,#400,#403),#379,.F.);
#405=CARTESIAN_POINT('',(1.750031367642513,0.0,0.0));
#406=DIRECTION('',(0.0,-1.0,0.0));
#407=DIRECTION('',(0.0,0.0,-1.0));
#408=AXIS2_PLACEMENT_3D('',#405,#406,#407);
#409=PLANE('',#408);
#410=ORIENTED_EDGE('',*,*,#223,.T.);
#411=ORIENTED_EDGE('',*,*,#364,.T.);
#412=CARTESIAN_POINT('',(0.0,0.0,0.0));
#413=DIRECTION('',(0.0,0.0,1.0));
#414=VECTOR('',#413,0.125);
#415=LINE('',#412,#414);
#416=EDGE_CURVE('',#382,#353,#415,.T.);
#417=ORIENTED_EDGE('',*,*,#416,.F.);
#418=ORIENTED_EDGE('',*,*,#387,.T.);
#419=EDGE_LOOP('',(#410,#411,#417,#418));
#420=FACE_OUTER_BOUND('',#419,.T.);
#421=ADVANCED_FACE('',(#420),#409,.T.);
#422=CARTESIAN_POINT('',(0.0,0.0,0.0));
#423=DIRECTION('',(-1.0,0.0,0.0));
#424=DIRECTION('',(0.0,0.0,1.0));
#425=AXIS2_PLACEMENT_3D('',#422,#423,#424);
#426=PLANE('',#425);
#427=ORIENTED_EDGE('',*,*,#358,.T.);
#428=ORIENTED_EDGE('',*,*,#334,.F.);
#429=ORIENTED_EDGE('',*,*,#393,.T.);
#430=ORIENTED_EDGE('',*,*,#416,.T.);
#431=EDGE_LOOP('',(#427,#428,#429,#430));
#432=FACE_OUTER_BOUND('',#431,.T.);
#433=ADVANCED_FACE('',(#432),#426,.T.);
#434=CARTESIAN_POINT('',(0.997593133788882,1.750242760200137,0.122577449967625));
#435=DIRECTION('',(-1.0,0.0,0.0));
#436=DIRECTION('',(0.0,0.0,1.0));
#437=AXIS2_PLACEMENT_3D('',#434,#435,#436);
#438=PLANE('',#437);
#439=ORIENTED_EDGE('',*,*,#280,.T.);
#440=CARTESIAN_POINT('',(0.997593133788882,3.500485520400273,0.997593133788882));
#441=VERTEX_POINT('',#440);
#442=CARTESIAN_POINT('',(0.997593133788882,3.500485520400273,0.997593133788882));
#443=DIRECTION('',(0.0,0.0,-1.0));
#444=VECTOR('',#443,0.682593133788882);
#445=LINE('',#442,#444);
#446=EDGE_CURVE('',#441,#236,#445,.T.);
#447=ORIENTED_EDGE('',*,*,#446,.F.);
#448=CARTESIAN_POINT('',(0.997593133788882,0.0,0.997593133788882));
#449=VERTEX_POINT('',#448);
#450=CARTESIAN_POINT('',(0.997593133788882,0.0,0.997593133788882));
#451=DIRECTION('',(0.0,1.0,0.0));
#452=VECTOR('',#451,3.500485520400273);
#453=LINE('',#450,#452);
#454=EDGE_CURVE('',#449,#441,#453,.T.);
#455=ORIENTED_EDGE('',*,*,#454,.F.);
#456=CARTESIAN_POINT('',(0.997593133788882,0.0,0.315));
#457=DIRECTION('',(0.0,0.0,1.0));
#458=VECTOR('',#457,0.682593133788882);
#459=LINE('',#456,#458);
#460=EDGE_CURVE('',#192,#449,#459,.T.);
#461=ORIENTED_EDGE('',*,*,#460,.F.);
#462=EDGE_LOOP('',(#439,#447,#455,#461));
#463=FACE_OUTER_BOUND('',#462,.T.);
#464=ORIENTED_EDGE('',*,*,#142,.T.);
#465=EDGE_LOOP('',(#464));
#466=FACE_BOUND('',#465,.T.);
#467=ORIENTED_EDGE('',*,*,#170,.T.);
#468=EDGE_LOOP('',(#467));
#469=FACE_BOUND('',#468,.T.);
#470=ADVANCED_FACE('',(#463,#466,#469),#438,.F.);
#471=CARTESIAN_POINT('',(0.997593133788882,0.0,0.997593133788882));
#472=DIRECTION('',(0.0,-1.0,0.0));
#473=DIRECTION('',(1.0,0.0,0.0));
#474=AXIS2_PLACEMENT_3D('',#471,#472,#473);
#475=PLANE('',#474);
#476=ORIENTED_EDGE('',*,*,#208,.T.);
#477=ORIENTED_EDGE('',*,*,#460,.T.);
#478=CARTESIAN_POINT('',(0.872593133788882,0.0,0.997593133788882));
#479=VERTEX_POINT('',#478);
#480=CARTESIAN_POINT('',(0.997593133788882,0.0,0.997593133788882));
#481=DIRECTION('',(-1.0,0.0,0.0));
#482=VECTOR('',#481,0.125);
#483=LINE('',#480,#482);
#484=EDGE_CURVE('',#449,#479,#483,.T.);
#485=ORIENTED_EDGE('',*,*,#484,.T.);
#486=CARTESIAN_POINT('',(0.872593133788882,0.0,0.997593133788882));
#487=DIRECTION('',(0.0,0.0,-1.0));
#488=VECTOR('',#487,0.682593133788882);
#489=LINE('',#486,#488);
#490=EDGE_CURVE('',#479,#203,#489,.T.);
#491=ORIENTED_EDGE('',*,*,#490,.T.);
#492=EDGE_LOOP('',(#476,#477,#485,#491));
#493=FACE_OUTER_BOUND('',#492,.T.);
#494=ADVANCED_FACE('',(#493),#475,.T.);
#495=CARTESIAN_POINT('',(0.997593133788882,3.500485520400273,0.997593133788882));
#496=DIRECTION('',(0.0,0.0,1.0));
#497=DIRECTION('',(1.0,0.0,0.0));
#498=AXIS2_PLACEMENT_3D('',#495,#496,#497);
#499=PLANE('',#498);
#500=CARTESIAN_POINT('',(0.872593133788882,3.500485520400273,0.997593133788882));
#501=VERTEX_POINT('',#500);
#502=CARTESIAN_POINT('',(0.872593133788882,3.500485520400273,0.997593133788882));
#503=DIRECTION('',(0.0,-1.0,0.0));
#504=VECTOR('',#503,3.500485520400273);
#505=LINE('',#502,#504);
#506=EDGE_CURVE('',#501,#479,#505,.T.);
#507=ORIENTED_EDGE('',*,*,#506,.T.);
#508=ORIENTED_EDGE('',*,*,#484,.F.);
#509=ORIENTED_EDGE('',*,*,#454,.T.);
#510=CARTESIAN_POINT('',(0.997593133788882,3.500485520400273,0.997593133788882));
#511=DIRECTION('',(-1.0,0.0,0.0));
#512=VECTOR('',#511,0.125);
#513=LINE('',#510,#512);
#514=EDGE_CURVE('',#441,#501,#513,.T.);
#515=ORIENTED_EDGE('',*,*,#514,.T.);
#516=EDGE_LOOP('',(#507,#508,#509,#515));
#517=FACE_OUTER_BOUND('',#516,.T.);
#518=ADVANCED_FACE('',(#517),#499,.T.);
#519=CARTESIAN_POINT('',(0.997593133788882,3.500485520400273,-0.752438233853632));
#520=DIRECTION('',(0.0,1.0,0.0));
#521=DIRECTION('',(-1.0,0.0,0.0));
#522=AXIS2_PLACEMENT_3D('',#519,#520,#521);
#523=PLANE('',#522);
#524=ORIENTED_EDGE('',*,*,#265,.T.);
#525=CARTESIAN_POINT('',(0.872593133788882,3.500485520400273,0.315));
#526=DIRECTION('',(0.0,0.0,1.0));
#527=VECTOR('',#526,0.682593133788882);
#528=LINE('',#525,#527);
#529=EDGE_CURVE('',#253,#501,#528,.T.);
#530=ORIENTED_EDGE('',*,*,#529,.T.);
#531=ORIENTED_EDGE('',*,*,#514,.F.);
#532=ORIENTED_EDGE('',*,*,#446,.T.);
#533=EDGE_LOOP('',(#524,#530,#531,#532));
#534=FACE_OUTER_BOUND('',#533,.T.);
#535=ADVANCED_FACE('',(#534),#523,.T.);
#536=CARTESIAN_POINT('',(0.872593133788882,1.750242760200137,0.122577449967625));
#537=DIRECTION('',(-1.0,0.0,0.0));
#538=DIRECTION('',(0.0,0.0,1.0));
#539=AXIS2_PLACEMENT_3D('',#536,#537,#538);
#540=PLANE('',#539);
#541=ORIENTED_EDGE('',*,*,#309,.T.);
#542=ORIENTED_EDGE('',*,*,#490,.F.);
#543=ORIENTED_EDGE('',*,*,#506,.F.);
#544=ORIENTED_EDGE('',*,*,#529,.F.);
#545=EDGE_LOOP('',(#541,#542,#543,#544));
#546=FACE_OUTER_BOUND('',#545,.T.);
#547=ORIENTED_EDGE('',*,*,#153,.T.);
#548=EDGE_LOOP('',(#547));
#549=FACE_BOUND('',#548,.T.);
#550=ORIENTED_EDGE('',*,*,#181,.T.);
#551=EDGE_LOOP('',(#550));
#552=FACE_BOUND('',#551,.T.);
#553=ADVANCED_FACE('',(#546,#549,#552),#540,.T.);
#554=CLOSED_SHELL('',(#101,#129,#157,#185,#227,#269,#291,#313,#344,#374,#404,#421,#433,#470,#494,#518,#535,#553));
#555=MANIFOLD_SOLID_BREP('Solid1',#554);
#556=COLOUR_RGB('Metal-Steel',0.639216005802155,0.639216005802155,0.686275005340576);
#557=FILL_AREA_STYLE_COLOUR('Metal-Steel',#556);
#558=FILL_AREA_STYLE('Metal-Steel',(#557));
#559=SURFACE_STYLE_FILL_AREA(#558);
#560=SURFACE_SIDE_STYLE('Metal-Steel',(#559));
#561=SURFACE_STYLE_USAGE(.BOTH.,#560);
#562=PRESENTATION_STYLE_ASSIGNMENT((#561));
#563=STYLED_ITEM('',(#562),#555);
#564=MECHANICAL_DESIGN_GEOMETRIC_PRESENTATION_REPRESENTATION('',(#563),#42);
#565=ADVANCED_BREP_SHAPE_REPRESENTATION('ABSR',(#555),#42);
#566=SHAPE_REPRESENTATION_RELATIONSHIP('SRR','None',#565,#47);
ENDSEC;
END-ISO-10303-21;
