ISO-10303-21;
HEADER;
/* Generated by software containing ST-Developer
 * from STEP Tools, Inc. (www.steptools.com) 
 */

FILE_DESCRIPTION(
/* description */ (''),
/* implementation_level */ '2;1');

FILE_NAME(
/* name */ 
'\\\\CARBON\\Engineering\\Website Standard Product Files\\Brackets\\25
0_Bracket.stp',
/* time_stamp */ '2020-05-14T11:56:32-04:00',
/* author */ ('jrf'),
/* organization */ (''),
/* preprocessor_version */ 'ST-DEVELOPER v17',
/* originating_system */ 'Autodesk Inventor 2019',
/* authorisation */ '');

FILE_SCHEMA (('AUTOMOTIVE_DESIGN { 1 0 10303 214 3 1 1 }'));
ENDSEC;

DATA;
#10=MECHANICAL_DESIGN_GEOMETRIC_PRESENTATION_REPRESENTATION('',(#13),#481);
#11=SHAPE_REPRESENTATION_RELATIONSHIP('SRR','None',#491,#12);
#12=ADVANCED_BREP_SHAPE_REPRESENTATION('',(#14),#480);
#13=STYLED_ITEM('',(#500),#14);
#14=MANIFOLD_SOLID_BREP('Solid1',#279);
#15=FACE_BOUND('',#51,.T.);
#16=FACE_BOUND('',#52,.T.);
#17=FACE_BOUND('',#56,.T.);
#18=FACE_BOUND('',#57,.T.);
#19=FACE_BOUND('',#62,.T.);
#20=FACE_BOUND('',#63,.T.);
#21=FACE_BOUND('',#65,.T.);
#22=FACE_BOUND('',#66,.T.);
#23=PLANE('',#314);
#24=PLANE('',#315);
#25=PLANE('',#319);
#26=PLANE('',#320);
#27=PLANE('',#321);
#28=PLANE('',#322);
#29=PLANE('',#323);
#30=PLANE('',#324);
#31=FACE_OUTER_BOUND('',#45,.T.);
#32=FACE_OUTER_BOUND('',#46,.T.);
#33=FACE_OUTER_BOUND('',#47,.T.);
#34=FACE_OUTER_BOUND('',#48,.T.);
#35=FACE_OUTER_BOUND('',#49,.T.);
#36=FACE_OUTER_BOUND('',#50,.T.);
#37=FACE_OUTER_BOUND('',#53,.T.);
#38=FACE_OUTER_BOUND('',#54,.T.);
#39=FACE_OUTER_BOUND('',#55,.T.);
#40=FACE_OUTER_BOUND('',#58,.T.);
#41=FACE_OUTER_BOUND('',#59,.T.);
#42=FACE_OUTER_BOUND('',#60,.T.);
#43=FACE_OUTER_BOUND('',#61,.T.);
#44=FACE_OUTER_BOUND('',#64,.T.);
#45=EDGE_LOOP('',(#187,#188,#189,#190));
#46=EDGE_LOOP('',(#191,#192,#193,#194));
#47=EDGE_LOOP('',(#195,#196,#197,#198));
#48=EDGE_LOOP('',(#199,#200,#201,#202));
#49=EDGE_LOOP('',(#203,#204,#205,#206));
#50=EDGE_LOOP('',(#207,#208,#209,#210));
#51=EDGE_LOOP('',(#211));
#52=EDGE_LOOP('',(#212));
#53=EDGE_LOOP('',(#213,#214,#215,#216,#217,#218,#219,#220));
#54=EDGE_LOOP('',(#221,#222,#223,#224));
#55=EDGE_LOOP('',(#225,#226,#227,#228));
#56=EDGE_LOOP('',(#229));
#57=EDGE_LOOP('',(#230));
#58=EDGE_LOOP('',(#231,#232,#233,#234));
#59=EDGE_LOOP('',(#235,#236,#237,#238,#239,#240,#241,#242));
#60=EDGE_LOOP('',(#243,#244,#245,#246));
#61=EDGE_LOOP('',(#247,#248,#249,#250));
#62=EDGE_LOOP('',(#251));
#63=EDGE_LOOP('',(#252));
#64=EDGE_LOOP('',(#253,#254,#255,#256));
#65=EDGE_LOOP('',(#257));
#66=EDGE_LOOP('',(#258));
#67=LINE('',#408,#91);
#68=LINE('',#414,#92);
#69=LINE('',#420,#93);
#70=LINE('',#426,#94);
#71=LINE('',#433,#95);
#72=LINE('',#436,#96);
#73=LINE('',#439,#97);
#74=LINE('',#441,#98);
#75=LINE('',#442,#99);
#76=LINE('',#445,#100);
#77=LINE('',#447,#101);
#78=LINE('',#449,#102);
#79=LINE('',#453,#103);
#80=LINE('',#454,#104);
#81=LINE('',#459,#105);
#82=LINE('',#460,#106);
#83=LINE('',#463,#107);
#84=LINE('',#464,#108);
#85=LINE('',#466,#109);
#86=LINE('',#469,#110);
#87=LINE('',#471,#111);
#88=LINE('',#472,#112);
#89=LINE('',#474,#113);
#90=LINE('',#475,#114);
#91=VECTOR('',#331,0.1405);
#92=VECTOR('',#338,0.1405);
#93=VECTOR('',#345,0.1405);
#94=VECTOR('',#352,0.1405);
#95=VECTOR('',#359,0.393700787401575);
#96=VECTOR('',#362,0.393700787401575);
#97=VECTOR('',#365,0.393700787401575);
#98=VECTOR('',#366,0.393700787401575);
#99=VECTOR('',#367,0.393700787401575);
#100=VECTOR('',#370,0.393700787401575);
#101=VECTOR('',#371,0.393700787401575);
#102=VECTOR('',#372,0.393700787401575);
#103=VECTOR('',#375,0.393700787401575);
#104=VECTOR('',#376,0.393700787401575);
#105=VECTOR('',#381,0.393700787401575);
#106=VECTOR('',#382,0.393700787401575);
#107=VECTOR('',#385,0.393700787401575);
#108=VECTOR('',#386,0.393700787401575);
#109=VECTOR('',#389,0.393700787401575);
#110=VECTOR('',#392,0.393700787401575);
#111=VECTOR('',#393,0.393700787401575);
#112=VECTOR('',#394,0.393700787401575);
#113=VECTOR('',#397,0.393700787401575);
#114=VECTOR('',#398,0.393700787401575);
#115=CIRCLE('',#300,0.1405);
#116=CIRCLE('',#301,0.1405);
#117=CIRCLE('',#303,0.1405);
#118=CIRCLE('',#304,0.1405);
#119=CIRCLE('',#306,0.1405);
#120=CIRCLE('',#307,0.1405);
#121=CIRCLE('',#309,0.1405);
#122=CIRCLE('',#310,0.1405);
#123=CIRCLE('',#312,0.25);
#124=CIRCLE('',#313,0.25);
#125=CIRCLE('',#316,0.125);
#126=CIRCLE('',#318,0.125);
#127=VERTEX_POINT('',#405);
#128=VERTEX_POINT('',#407);
#129=VERTEX_POINT('',#411);
#130=VERTEX_POINT('',#413);
#131=VERTEX_POINT('',#417);
#132=VERTEX_POINT('',#419);
#133=VERTEX_POINT('',#423);
#134=VERTEX_POINT('',#425);
#135=VERTEX_POINT('',#429);
#136=VERTEX_POINT('',#430);
#137=VERTEX_POINT('',#432);
#138=VERTEX_POINT('',#434);
#139=VERTEX_POINT('',#438);
#140=VERTEX_POINT('',#440);
#141=VERTEX_POINT('',#444);
#142=VERTEX_POINT('',#446);
#143=VERTEX_POINT('',#448);
#144=VERTEX_POINT('',#450);
#145=VERTEX_POINT('',#452);
#146=VERTEX_POINT('',#456);
#147=VERTEX_POINT('',#457);
#148=VERTEX_POINT('',#462);
#149=VERTEX_POINT('',#468);
#150=VERTEX_POINT('',#470);
#151=EDGE_CURVE('',#127,#127,#115,.T.);
#152=EDGE_CURVE('',#127,#128,#67,.T.);
#153=EDGE_CURVE('',#128,#128,#116,.T.);
#154=EDGE_CURVE('',#129,#129,#117,.T.);
#155=EDGE_CURVE('',#129,#130,#68,.T.);
#156=EDGE_CURVE('',#130,#130,#118,.T.);
#157=EDGE_CURVE('',#131,#131,#119,.T.);
#158=EDGE_CURVE('',#131,#132,#69,.T.);
#159=EDGE_CURVE('',#132,#132,#120,.T.);
#160=EDGE_CURVE('',#133,#133,#121,.T.);
#161=EDGE_CURVE('',#133,#134,#70,.T.);
#162=EDGE_CURVE('',#134,#134,#122,.T.);
#163=EDGE_CURVE('',#135,#136,#123,.T.);
#164=EDGE_CURVE('',#136,#137,#71,.T.);
#165=EDGE_CURVE('',#137,#138,#124,.T.);
#166=EDGE_CURVE('',#138,#135,#72,.T.);
#167=EDGE_CURVE('',#136,#139,#73,.T.);
#168=EDGE_CURVE('',#140,#139,#74,.T.);
#169=EDGE_CURVE('',#137,#140,#75,.T.);
#170=EDGE_CURVE('',#135,#141,#76,.T.);
#171=EDGE_CURVE('',#141,#142,#77,.T.);
#172=EDGE_CURVE('',#143,#142,#78,.T.);
#173=EDGE_CURVE('',#144,#143,#125,.T.);
#174=EDGE_CURVE('',#144,#145,#79,.T.);
#175=EDGE_CURVE('',#139,#145,#80,.T.);
#176=EDGE_CURVE('',#146,#147,#126,.T.);
#177=EDGE_CURVE('',#147,#144,#81,.T.);
#178=EDGE_CURVE('',#143,#146,#82,.T.);
#179=EDGE_CURVE('',#147,#148,#83,.T.);
#180=EDGE_CURVE('',#145,#148,#84,.T.);
#181=EDGE_CURVE('',#148,#140,#85,.T.);
#182=EDGE_CURVE('',#149,#146,#86,.T.);
#183=EDGE_CURVE('',#150,#149,#87,.T.);
#184=EDGE_CURVE('',#150,#138,#88,.T.);
#185=EDGE_CURVE('',#141,#150,#89,.T.);
#186=EDGE_CURVE('',#142,#149,#90,.T.);
#187=ORIENTED_EDGE('',*,*,#151,.F.);
#188=ORIENTED_EDGE('',*,*,#152,.T.);
#189=ORIENTED_EDGE('',*,*,#153,.F.);
#190=ORIENTED_EDGE('',*,*,#152,.F.);
#191=ORIENTED_EDGE('',*,*,#154,.F.);
#192=ORIENTED_EDGE('',*,*,#155,.T.);
#193=ORIENTED_EDGE('',*,*,#156,.F.);
#194=ORIENTED_EDGE('',*,*,#155,.F.);
#195=ORIENTED_EDGE('',*,*,#157,.F.);
#196=ORIENTED_EDGE('',*,*,#158,.T.);
#197=ORIENTED_EDGE('',*,*,#159,.F.);
#198=ORIENTED_EDGE('',*,*,#158,.F.);
#199=ORIENTED_EDGE('',*,*,#160,.F.);
#200=ORIENTED_EDGE('',*,*,#161,.T.);
#201=ORIENTED_EDGE('',*,*,#162,.F.);
#202=ORIENTED_EDGE('',*,*,#161,.F.);
#203=ORIENTED_EDGE('',*,*,#163,.T.);
#204=ORIENTED_EDGE('',*,*,#164,.T.);
#205=ORIENTED_EDGE('',*,*,#165,.T.);
#206=ORIENTED_EDGE('',*,*,#166,.T.);
#207=ORIENTED_EDGE('',*,*,#164,.F.);
#208=ORIENTED_EDGE('',*,*,#167,.T.);
#209=ORIENTED_EDGE('',*,*,#168,.F.);
#210=ORIENTED_EDGE('',*,*,#169,.F.);
#211=ORIENTED_EDGE('',*,*,#153,.T.);
#212=ORIENTED_EDGE('',*,*,#156,.T.);
#213=ORIENTED_EDGE('',*,*,#163,.F.);
#214=ORIENTED_EDGE('',*,*,#170,.T.);
#215=ORIENTED_EDGE('',*,*,#171,.T.);
#216=ORIENTED_EDGE('',*,*,#172,.F.);
#217=ORIENTED_EDGE('',*,*,#173,.F.);
#218=ORIENTED_EDGE('',*,*,#174,.T.);
#219=ORIENTED_EDGE('',*,*,#175,.F.);
#220=ORIENTED_EDGE('',*,*,#167,.F.);
#221=ORIENTED_EDGE('',*,*,#176,.T.);
#222=ORIENTED_EDGE('',*,*,#177,.T.);
#223=ORIENTED_EDGE('',*,*,#173,.T.);
#224=ORIENTED_EDGE('',*,*,#178,.T.);
#225=ORIENTED_EDGE('',*,*,#177,.F.);
#226=ORIENTED_EDGE('',*,*,#179,.T.);
#227=ORIENTED_EDGE('',*,*,#180,.F.);
#228=ORIENTED_EDGE('',*,*,#174,.F.);
#229=ORIENTED_EDGE('',*,*,#151,.T.);
#230=ORIENTED_EDGE('',*,*,#154,.T.);
#231=ORIENTED_EDGE('',*,*,#168,.T.);
#232=ORIENTED_EDGE('',*,*,#175,.T.);
#233=ORIENTED_EDGE('',*,*,#180,.T.);
#234=ORIENTED_EDGE('',*,*,#181,.T.);
#235=ORIENTED_EDGE('',*,*,#165,.F.);
#236=ORIENTED_EDGE('',*,*,#169,.T.);
#237=ORIENTED_EDGE('',*,*,#181,.F.);
#238=ORIENTED_EDGE('',*,*,#179,.F.);
#239=ORIENTED_EDGE('',*,*,#176,.F.);
#240=ORIENTED_EDGE('',*,*,#182,.F.);
#241=ORIENTED_EDGE('',*,*,#183,.F.);
#242=ORIENTED_EDGE('',*,*,#184,.T.);
#243=ORIENTED_EDGE('',*,*,#185,.T.);
#244=ORIENTED_EDGE('',*,*,#183,.T.);
#245=ORIENTED_EDGE('',*,*,#186,.F.);
#246=ORIENTED_EDGE('',*,*,#171,.F.);
#247=ORIENTED_EDGE('',*,*,#178,.F.);
#248=ORIENTED_EDGE('',*,*,#172,.T.);
#249=ORIENTED_EDGE('',*,*,#186,.T.);
#250=ORIENTED_EDGE('',*,*,#182,.T.);
#251=ORIENTED_EDGE('',*,*,#157,.T.);
#252=ORIENTED_EDGE('',*,*,#160,.T.);
#253=ORIENTED_EDGE('',*,*,#166,.F.);
#254=ORIENTED_EDGE('',*,*,#184,.F.);
#255=ORIENTED_EDGE('',*,*,#185,.F.);
#256=ORIENTED_EDGE('',*,*,#170,.F.);
#257=ORIENTED_EDGE('',*,*,#159,.T.);
#258=ORIENTED_EDGE('',*,*,#162,.T.);
#259=CYLINDRICAL_SURFACE('',#299,0.1405);
#260=CYLINDRICAL_SURFACE('',#302,0.1405);
#261=CYLINDRICAL_SURFACE('',#305,0.1405);
#262=CYLINDRICAL_SURFACE('',#308,0.1405);
#263=CYLINDRICAL_SURFACE('',#311,0.25);
#264=CYLINDRICAL_SURFACE('',#317,0.125);
#265=ADVANCED_FACE('',(#31),#259,.F.);
#266=ADVANCED_FACE('',(#32),#260,.F.);
#267=ADVANCED_FACE('',(#33),#261,.F.);
#268=ADVANCED_FACE('',(#34),#262,.F.);
#269=ADVANCED_FACE('',(#35),#263,.T.);
#270=ADVANCED_FACE('',(#36,#15,#16),#23,.T.);
#271=ADVANCED_FACE('',(#37),#24,.T.);
#272=ADVANCED_FACE('',(#38),#264,.F.);
#273=ADVANCED_FACE('',(#39,#17,#18),#25,.T.);
#274=ADVANCED_FACE('',(#40),#26,.T.);
#275=ADVANCED_FACE('',(#41),#27,.T.);
#276=ADVANCED_FACE('',(#42),#28,.T.);
#277=ADVANCED_FACE('',(#43,#19,#20),#29,.T.);
#278=ADVANCED_FACE('',(#44,#21,#22),#30,.F.);
#279=CLOSED_SHELL('',(#265,#266,#267,#268,#269,#270,#271,#272,#273,#274,
#275,#276,#277,#278));
#280=DERIVED_UNIT_ELEMENT(#282,1.);
#281=DERIVED_UNIT_ELEMENT(#485,3.);
#282=(
MASS_UNIT()
NAMED_UNIT(*)
SI_UNIT($,.GRAM.)
);
#283=DERIVED_UNIT((#280,#281));
#284=MEASURE_REPRESENTATION_ITEM('density measure',
POSITIVE_RATIO_MEASURE(1.),#283);
#285=PROPERTY_DEFINITION_REPRESENTATION(#290,#287);
#286=PROPERTY_DEFINITION_REPRESENTATION(#291,#288);
#287=REPRESENTATION('material name',(#289),#480);
#288=REPRESENTATION('density',(#284),#480);
#289=DESCRIPTIVE_REPRESENTATION_ITEM('Generic','Generic');
#290=PROPERTY_DEFINITION('material property','material name',#493);
#291=PROPERTY_DEFINITION('material property','density of part',#493);
#292=DATE_TIME_ROLE('creation_date');
#293=APPLIED_DATE_AND_TIME_ASSIGNMENT(#294,#292,(#493));
#294=DATE_AND_TIME(#295,#296);
#295=CALENDAR_DATE(2020,14,5);
#296=LOCAL_TIME(11,41,13.,#297);
#297=COORDINATED_UNIVERSAL_TIME_OFFSET(0,0,.BEHIND.);
#298=AXIS2_PLACEMENT_3D('placement',#403,#325,#326);
#299=AXIS2_PLACEMENT_3D('',#404,#327,#328);
#300=AXIS2_PLACEMENT_3D('',#406,#329,#330);
#301=AXIS2_PLACEMENT_3D('',#409,#332,#333);
#302=AXIS2_PLACEMENT_3D('',#410,#334,#335);
#303=AXIS2_PLACEMENT_3D('',#412,#336,#337);
#304=AXIS2_PLACEMENT_3D('',#415,#339,#340);
#305=AXIS2_PLACEMENT_3D('',#416,#341,#342);
#306=AXIS2_PLACEMENT_3D('',#418,#343,#344);
#307=AXIS2_PLACEMENT_3D('',#421,#346,#347);
#308=AXIS2_PLACEMENT_3D('',#422,#348,#349);
#309=AXIS2_PLACEMENT_3D('',#424,#350,#351);
#310=AXIS2_PLACEMENT_3D('',#427,#353,#354);
#311=AXIS2_PLACEMENT_3D('',#428,#355,#356);
#312=AXIS2_PLACEMENT_3D('',#431,#357,#358);
#313=AXIS2_PLACEMENT_3D('',#435,#360,#361);
#314=AXIS2_PLACEMENT_3D('',#437,#363,#364);
#315=AXIS2_PLACEMENT_3D('',#443,#368,#369);
#316=AXIS2_PLACEMENT_3D('',#451,#373,#374);
#317=AXIS2_PLACEMENT_3D('',#455,#377,#378);
#318=AXIS2_PLACEMENT_3D('',#458,#379,#380);
#319=AXIS2_PLACEMENT_3D('',#461,#383,#384);
#320=AXIS2_PLACEMENT_3D('',#465,#387,#388);
#321=AXIS2_PLACEMENT_3D('',#467,#390,#391);
#322=AXIS2_PLACEMENT_3D('',#473,#395,#396);
#323=AXIS2_PLACEMENT_3D('',#476,#399,#400);
#324=AXIS2_PLACEMENT_3D('',#477,#401,#402);
#325=DIRECTION('axis',(0.,0.,1.));
#326=DIRECTION('refdir',(1.,0.,0.));
#327=DIRECTION('center_axis',(0.,0.,1.));
#328=DIRECTION('ref_axis',(1.,0.,0.));
#329=DIRECTION('center_axis',(0.,0.,1.));
#330=DIRECTION('ref_axis',(1.,0.,0.));
#331=DIRECTION('',(0.,0.,1.));
#332=DIRECTION('center_axis',(0.,0.,-1.));
#333=DIRECTION('ref_axis',(1.,0.,0.));
#334=DIRECTION('center_axis',(0.,0.,1.));
#335=DIRECTION('ref_axis',(1.,0.,0.));
#336=DIRECTION('center_axis',(0.,0.,1.));
#337=DIRECTION('ref_axis',(1.,0.,0.));
#338=DIRECTION('',(0.,0.,1.));
#339=DIRECTION('center_axis',(0.,0.,-1.));
#340=DIRECTION('ref_axis',(1.,0.,0.));
#341=DIRECTION('center_axis',(0.,-1.,0.));
#342=DIRECTION('ref_axis',(-1.,0.,0.));
#343=DIRECTION('center_axis',(0.,-1.,0.));
#344=DIRECTION('ref_axis',(-1.,0.,0.));
#345=DIRECTION('',(0.,-1.,0.));
#346=DIRECTION('center_axis',(0.,1.,0.));
#347=DIRECTION('ref_axis',(-1.,0.,0.));
#348=DIRECTION('center_axis',(0.,-1.,0.));
#349=DIRECTION('ref_axis',(-1.,0.,0.));
#350=DIRECTION('center_axis',(0.,-1.,0.));
#351=DIRECTION('ref_axis',(-1.,0.,0.));
#352=DIRECTION('',(0.,-1.,0.));
#353=DIRECTION('center_axis',(0.,1.,0.));
#354=DIRECTION('ref_axis',(-1.,0.,0.));
#355=DIRECTION('center_axis',(1.,0.,0.));
#356=DIRECTION('ref_axis',(0.,-0.707106781186548,0.707106781186548));
#357=DIRECTION('center_axis',(-1.,0.,0.));
#358=DIRECTION('ref_axis',(0.,-0.707106781186548,0.707106781186548));
#359=DIRECTION('',(-1.,0.,0.));
#360=DIRECTION('center_axis',(1.,0.,2.35115085454563E-32));
#361=DIRECTION('ref_axis',(0.,-0.707106781186548,0.707106781186548));
#362=DIRECTION('',(1.,0.,0.));
#363=DIRECTION('center_axis',(0.,0.,1.));
#364=DIRECTION('ref_axis',(1.,0.,0.));
#365=DIRECTION('',(0.,1.,0.));
#366=DIRECTION('',(1.,0.,0.));
#367=DIRECTION('',(0.,1.,0.));
#368=DIRECTION('center_axis',(1.,0.,0.));
#369=DIRECTION('ref_axis',(0.,0.,-1.));
#370=DIRECTION('',(0.,0.,-1.));
#371=DIRECTION('',(0.,1.,0.));
#372=DIRECTION('',(0.,0.,-1.));
#373=DIRECTION('center_axis',(1.,0.,0.));
#374=DIRECTION('ref_axis',(0.,-0.707106781186548,0.707106781186548));
#375=DIRECTION('',(0.,1.,0.));
#376=DIRECTION('',(0.,0.,-1.));
#377=DIRECTION('center_axis',(1.,0.,0.));
#378=DIRECTION('ref_axis',(0.,-0.707106781186548,0.707106781186548));
#379=DIRECTION('center_axis',(-1.,0.,-2.35115085454563E-32));
#380=DIRECTION('ref_axis',(0.,-0.707106781186548,0.707106781186548));
#381=DIRECTION('',(1.,0.,0.));
#382=DIRECTION('',(-1.,0.,0.));
#383=DIRECTION('center_axis',(0.,0.,-1.));
#384=DIRECTION('ref_axis',(-1.,0.,0.));
#385=DIRECTION('',(0.,1.,0.));
#386=DIRECTION('',(-1.,0.,0.));
#387=DIRECTION('center_axis',(0.,1.,0.));
#388=DIRECTION('ref_axis',(0.,0.,1.));
#389=DIRECTION('',(0.,0.,1.));
#390=DIRECTION('center_axis',(-1.,0.,-2.35115085454563E-32));
#391=DIRECTION('ref_axis',(-2.35115085454563E-32,0.,1.));
#392=DIRECTION('',(-2.35115085454563E-32,0.,1.));
#393=DIRECTION('',(0.,1.,0.));
#394=DIRECTION('',(-2.35115085454563E-32,0.,1.));
#395=DIRECTION('center_axis',(-1.3987061727561E-16,0.,-1.));
#396=DIRECTION('ref_axis',(-1.,0.,1.3987061727561E-16));
#397=DIRECTION('',(-1.,0.,1.3987061727561E-16));
#398=DIRECTION('',(-1.,0.,1.3987061727561E-16));
#399=DIRECTION('center_axis',(0.,1.,0.));
#400=DIRECTION('ref_axis',(0.,0.,1.));
#401=DIRECTION('center_axis',(0.,1.,0.));
#402=DIRECTION('ref_axis',(0.,0.,1.));
#403=CARTESIAN_POINT('',(0.,0.,0.));
#404=CARTESIAN_POINT('Origin',(0.25,0.688,-0.125));
#405=CARTESIAN_POINT('',(0.1095,0.688,-0.125));
#406=CARTESIAN_POINT('Origin',(0.25,0.688,-0.125));
#407=CARTESIAN_POINT('',(0.1095,0.688,0.));
#408=CARTESIAN_POINT('',(0.1095,0.688,-0.125));
#409=CARTESIAN_POINT('Origin',(0.25,0.688,0.));
#410=CARTESIAN_POINT('Origin',(2.25,0.688,-0.125));
#411=CARTESIAN_POINT('',(2.1095,0.688,-0.125));
#412=CARTESIAN_POINT('Origin',(2.25,0.688,-0.125));
#413=CARTESIAN_POINT('',(2.1095,0.688,0.));
#414=CARTESIAN_POINT('',(2.1095,0.688,-0.125));
#415=CARTESIAN_POINT('Origin',(2.25,0.688,0.));
#416=CARTESIAN_POINT('Origin',(0.25,0.125,-0.688));
#417=CARTESIAN_POINT('',(0.3905,0.125,-0.688));
#418=CARTESIAN_POINT('Origin',(0.25,0.125,-0.688));
#419=CARTESIAN_POINT('',(0.3905,0.,-0.688));
#420=CARTESIAN_POINT('',(0.3905,0.125,-0.688));
#421=CARTESIAN_POINT('Origin',(0.25,0.,-0.688));
#422=CARTESIAN_POINT('Origin',(2.25,0.125,-0.688));
#423=CARTESIAN_POINT('',(2.3905,0.125,-0.688));
#424=CARTESIAN_POINT('Origin',(2.25,0.125,-0.688));
#425=CARTESIAN_POINT('',(2.3905,0.,-0.688));
#426=CARTESIAN_POINT('',(2.3905,0.125,-0.688));
#427=CARTESIAN_POINT('Origin',(2.25,0.,-0.688));
#428=CARTESIAN_POINT('Origin',(0.625,0.25,-0.25));
#429=CARTESIAN_POINT('',(2.5,0.,-0.25));
#430=CARTESIAN_POINT('',(2.5,0.25,0.));
#431=CARTESIAN_POINT('Origin',(2.5,0.25,-0.25));
#432=CARTESIAN_POINT('',(0.,0.25,0.));
#433=CARTESIAN_POINT('',(0.625,0.25,0.));
#434=CARTESIAN_POINT('',(5.87787713636407E-33,0.,-0.25));
#435=CARTESIAN_POINT('Origin',(0.,0.25,-0.25));
#436=CARTESIAN_POINT('',(0.625,0.,-0.25));
#437=CARTESIAN_POINT('Origin',(0.,0.,0.));
#438=CARTESIAN_POINT('',(2.5,0.938,0.));
#439=CARTESIAN_POINT('',(2.5,0.,0.));
#440=CARTESIAN_POINT('',(0.,0.938,0.));
#441=CARTESIAN_POINT('',(0.,0.938,0.));
#442=CARTESIAN_POINT('',(0.,0.,0.));
#443=CARTESIAN_POINT('Origin',(2.5,0.,0.));
#444=CARTESIAN_POINT('',(2.5,0.,-0.938));
#445=CARTESIAN_POINT('',(2.5,0.,0.));
#446=CARTESIAN_POINT('',(2.5,0.125,-0.938));
#447=CARTESIAN_POINT('',(2.5,0.,-0.938));
#448=CARTESIAN_POINT('',(2.5,0.125,-0.25));
#449=CARTESIAN_POINT('',(2.5,0.125,0.));
#450=CARTESIAN_POINT('',(2.5,0.25,-0.125));
#451=CARTESIAN_POINT('Origin',(2.5,0.25,-0.25));
#452=CARTESIAN_POINT('',(2.5,0.938,-0.125));
#453=CARTESIAN_POINT('',(2.5,0.125,-0.125));
#454=CARTESIAN_POINT('',(2.5,0.938,0.));
#455=CARTESIAN_POINT('Origin',(1.875,0.25,-0.25));
#456=CARTESIAN_POINT('',(5.87787713636407E-33,0.125,-0.25));
#457=CARTESIAN_POINT('',(0.,0.25,-0.125));
#458=CARTESIAN_POINT('Origin',(0.,0.25,-0.25));
#459=CARTESIAN_POINT('',(1.875,0.25,-0.125));
#460=CARTESIAN_POINT('',(1.875,0.125,-0.25));
#461=CARTESIAN_POINT('Origin',(2.5,0.125,-0.125));
#462=CARTESIAN_POINT('',(0.,0.938,-0.125));
#463=CARTESIAN_POINT('',(0.,0.125,-0.125));
#464=CARTESIAN_POINT('',(2.5,0.938,-0.125));
#465=CARTESIAN_POINT('Origin',(1.25,0.938,-0.0625));
#466=CARTESIAN_POINT('',(0.,0.938,-0.125));
#467=CARTESIAN_POINT('Origin',(2.2053795015638E-32,0.,-0.938));
#468=CARTESIAN_POINT('',(2.2053795015638E-32,0.125,-0.938));
#469=CARTESIAN_POINT('',(2.2053795015638E-32,0.125,-0.938));
#470=CARTESIAN_POINT('',(2.2053795015638E-32,0.,-0.938));
#471=CARTESIAN_POINT('',(2.2053795015638E-32,0.,-0.938));
#472=CARTESIAN_POINT('',(2.2053795015638E-32,0.,-0.938));
#473=CARTESIAN_POINT('Origin',(2.5,0.,-0.938));
#474=CARTESIAN_POINT('',(2.5,0.,-0.938));
#475=CARTESIAN_POINT('',(2.5,0.125,-0.938));
#476=CARTESIAN_POINT('Origin',(1.25,0.125,-0.469));
#477=CARTESIAN_POINT('Origin',(1.25,0.,-0.469));
#478=UNCERTAINTY_MEASURE_WITH_UNIT(LENGTH_MEASURE(0.000393700787401575),
#483,'DISTANCE_ACCURACY_VALUE',
'Maximum model space distance between geometric entities at asserted c
onnectivities');
#479=UNCERTAINTY_MEASURE_WITH_UNIT(LENGTH_MEASURE(0.000393700787401575),
#483,'DISTANCE_ACCURACY_VALUE',
'Maximum model space distance between geometric entities at asserted c
onnectivities');
#480=(
GEOMETRIC_REPRESENTATION_CONTEXT(3)
GLOBAL_UNCERTAINTY_ASSIGNED_CONTEXT((#478))
GLOBAL_UNIT_ASSIGNED_CONTEXT((#483,#488,#487))
REPRESENTATION_CONTEXT('','3D')
);
#481=(
GEOMETRIC_REPRESENTATION_CONTEXT(3)
GLOBAL_UNCERTAINTY_ASSIGNED_CONTEXT((#479))
GLOBAL_UNIT_ASSIGNED_CONTEXT((#483,#488,#487))
REPRESENTATION_CONTEXT('','3D')
);
#482=DIMENSIONAL_EXPONENTS(1.,0.,0.,0.,0.,0.,0.);
#483=(
CONVERSION_BASED_UNIT('inch',#486)
LENGTH_UNIT()
NAMED_UNIT(#482)
);
#484=(
LENGTH_UNIT()
NAMED_UNIT(*)
SI_UNIT(.MILLI.,.METRE.)
);
#485=(
LENGTH_UNIT()
NAMED_UNIT(*)
SI_UNIT(.CENTI.,.METRE.)
);
#486=LENGTH_MEASURE_WITH_UNIT(LENGTH_MEASURE(25.4),#484);
#487=(
NAMED_UNIT(*)
SI_UNIT($,.STERADIAN.)
SOLID_ANGLE_UNIT()
);
#488=(
NAMED_UNIT(*)
PLANE_ANGLE_UNIT()
SI_UNIT($,.RADIAN.)
);
#489=SHAPE_DEFINITION_REPRESENTATION(#490,#491);
#490=PRODUCT_DEFINITION_SHAPE('',$,#493);
#491=SHAPE_REPRESENTATION('',(#298),#480);
#492=PRODUCT_DEFINITION_CONTEXT('part definition',#497,'design');
#493=PRODUCT_DEFINITION('250_Bracket','250_Bracket',#494,#492);
#494=PRODUCT_DEFINITION_FORMATION('',$,#499);
#495=PRODUCT_RELATED_PRODUCT_CATEGORY('250_Bracket','250_Bracket',(#499));
#496=APPLICATION_PROTOCOL_DEFINITION('international standard',
'automotive_design',2009,#497);
#497=APPLICATION_CONTEXT(
'Core Data for Automotive Mechanical Design Process');
#498=PRODUCT_CONTEXT('part definition',#497,'mechanical');
#499=PRODUCT('250_Bracket','250_Bracket',$,(#498));
#500=PRESENTATION_STYLE_ASSIGNMENT((#501));
#501=SURFACE_STYLE_USAGE(.BOTH.,#502);
#502=SURFACE_SIDE_STYLE('',(#503));
#503=SURFACE_STYLE_FILL_AREA(#504);
#504=FILL_AREA_STYLE('',(#505));
#505=FILL_AREA_STYLE_COLOUR('',#506);
#506=COLOUR_RGB('',0.749019607843137,0.749019607843137,0.749019607843137);
ENDSEC;
END-ISO-10303-21;
