ISO-10303-21;
HEADER;
/* Generated by software containing ST-Developer
 * from STEP Tools, Inc. (www.steptools.com) 
 */

FILE_DESCRIPTION(
/* description */ (''),
/* implementation_level */ '2;1');

FILE_NAME(
/* name */ 'C:\\Users\\trevorh\\Desktop\\185_700RU.stp',
/* time_stamp */ '2022-08-26T10:18:32-04:00',
/* author */ ('trevorh'),
/* organization */ (''),
/* preprocessor_version */ 'ST-DEVELOPER v18',
/* originating_system */ 'Autodesk Inventor 2020',
/* authorisation */ '');

FILE_SCHEMA (('CONFIG_CONTROL_DESIGN'));
ENDSEC;

DATA;
#10=MECHANICAL_DESIGN_GEOMETRIC_PRESENTATION_REPRESENTATION('',(#13),#281);
#11=SHAPE_REPRESENTATION_RELATIONSHIP('SRR','None',#288,#12);
#12=ADVANCED_BREP_SHAPE_REPRESENTATION('',(#14),#280);
#13=STYLED_ITEM('',(#297),#14);
#14=MANIFOLD_SOLID_BREP('Solid1',#163);
#15=FACE_BOUND('',#40,.T.);
#16=FACE_BOUND('',#41,.T.);
#17=FACE_BOUND('',#43,.T.);
#18=FACE_BOUND('',#44,.T.);
#19=PLANE('',#185);
#20=PLANE('',#186);
#21=PLANE('',#187);
#22=PLANE('',#188);
#23=PLANE('',#189);
#24=PLANE('',#190);
#25=FACE_OUTER_BOUND('',#33,.T.);
#26=FACE_OUTER_BOUND('',#34,.T.);
#27=FACE_OUTER_BOUND('',#35,.T.);
#28=FACE_OUTER_BOUND('',#36,.T.);
#29=FACE_OUTER_BOUND('',#37,.T.);
#30=FACE_OUTER_BOUND('',#38,.T.);
#31=FACE_OUTER_BOUND('',#39,.T.);
#32=FACE_OUTER_BOUND('',#42,.T.);
#33=EDGE_LOOP('',(#113,#114,#115,#116,#117));
#34=EDGE_LOOP('',(#118,#119,#120,#121,#122));
#35=EDGE_LOOP('',(#123,#124,#125,#126));
#36=EDGE_LOOP('',(#127,#128,#129,#130));
#37=EDGE_LOOP('',(#131,#132,#133,#134));
#38=EDGE_LOOP('',(#135,#136,#137,#138));
#39=EDGE_LOOP('',(#139,#140,#141,#142));
#40=EDGE_LOOP('',(#143,#144));
#41=EDGE_LOOP('',(#145,#146));
#42=EDGE_LOOP('',(#147,#148,#149,#150));
#43=EDGE_LOOP('',(#151));
#44=EDGE_LOOP('',(#152));
#45=LINE('',#242,#59);
#46=LINE('',#250,#60);
#47=LINE('',#255,#61);
#48=LINE('',#257,#62);
#49=LINE('',#259,#63);
#50=LINE('',#260,#64);
#51=LINE('',#263,#65);
#52=LINE('',#265,#66);
#53=LINE('',#266,#67);
#54=LINE('',#269,#68);
#55=LINE('',#271,#69);
#56=LINE('',#272,#70);
#57=LINE('',#274,#71);
#58=LINE('',#275,#72);
#59=VECTOR('',#199,6.35);
#60=VECTOR('',#208,6.35);
#61=VECTOR('',#213,10.);
#62=VECTOR('',#214,10.);
#63=VECTOR('',#215,10.);
#64=VECTOR('',#216,10.);
#65=VECTOR('',#219,10.);
#66=VECTOR('',#220,10.);
#67=VECTOR('',#221,10.);
#68=VECTOR('',#224,10.);
#69=VECTOR('',#225,10.);
#70=VECTOR('',#226,10.);
#71=VECTOR('',#229,10.);
#72=VECTOR('',#230,10.);
#73=CIRCLE('',#178,6.35);
#74=CIRCLE('',#179,6.35);
#75=CIRCLE('',#180,6.35);
#76=CIRCLE('',#182,6.35);
#77=CIRCLE('',#183,6.35);
#78=CIRCLE('',#184,6.35);
#79=VERTEX_POINT('',#237);
#80=VERTEX_POINT('',#238);
#81=VERTEX_POINT('',#241);
#82=VERTEX_POINT('',#245);
#83=VERTEX_POINT('',#246);
#84=VERTEX_POINT('',#249);
#85=VERTEX_POINT('',#253);
#86=VERTEX_POINT('',#254);
#87=VERTEX_POINT('',#256);
#88=VERTEX_POINT('',#258);
#89=VERTEX_POINT('',#262);
#90=VERTEX_POINT('',#264);
#91=VERTEX_POINT('',#268);
#92=VERTEX_POINT('',#270);
#93=EDGE_CURVE('',#79,#80,#73,.T.);
#94=EDGE_CURVE('',#80,#79,#74,.T.);
#95=EDGE_CURVE('',#80,#81,#45,.T.);
#96=EDGE_CURVE('',#81,#81,#75,.T.);
#97=EDGE_CURVE('',#82,#83,#76,.T.);
#98=EDGE_CURVE('',#83,#82,#77,.T.);
#99=EDGE_CURVE('',#83,#84,#46,.T.);
#100=EDGE_CURVE('',#84,#84,#78,.T.);
#101=EDGE_CURVE('',#85,#86,#47,.T.);
#102=EDGE_CURVE('',#86,#87,#48,.T.);
#103=EDGE_CURVE('',#88,#87,#49,.T.);
#104=EDGE_CURVE('',#85,#88,#50,.T.);
#105=EDGE_CURVE('',#89,#85,#51,.T.);
#106=EDGE_CURVE('',#90,#88,#52,.T.);
#107=EDGE_CURVE('',#89,#90,#53,.T.);
#108=EDGE_CURVE('',#91,#89,#54,.T.);
#109=EDGE_CURVE('',#92,#90,#55,.T.);
#110=EDGE_CURVE('',#91,#92,#56,.T.);
#111=EDGE_CURVE('',#86,#91,#57,.T.);
#112=EDGE_CURVE('',#87,#92,#58,.T.);
#113=ORIENTED_EDGE('',*,*,#93,.F.);
#114=ORIENTED_EDGE('',*,*,#94,.F.);
#115=ORIENTED_EDGE('',*,*,#95,.T.);
#116=ORIENTED_EDGE('',*,*,#96,.F.);
#117=ORIENTED_EDGE('',*,*,#95,.F.);
#118=ORIENTED_EDGE('',*,*,#97,.F.);
#119=ORIENTED_EDGE('',*,*,#98,.F.);
#120=ORIENTED_EDGE('',*,*,#99,.T.);
#121=ORIENTED_EDGE('',*,*,#100,.F.);
#122=ORIENTED_EDGE('',*,*,#99,.F.);
#123=ORIENTED_EDGE('',*,*,#101,.T.);
#124=ORIENTED_EDGE('',*,*,#102,.T.);
#125=ORIENTED_EDGE('',*,*,#103,.F.);
#126=ORIENTED_EDGE('',*,*,#104,.F.);
#127=ORIENTED_EDGE('',*,*,#105,.T.);
#128=ORIENTED_EDGE('',*,*,#104,.T.);
#129=ORIENTED_EDGE('',*,*,#106,.F.);
#130=ORIENTED_EDGE('',*,*,#107,.F.);
#131=ORIENTED_EDGE('',*,*,#108,.T.);
#132=ORIENTED_EDGE('',*,*,#107,.T.);
#133=ORIENTED_EDGE('',*,*,#109,.F.);
#134=ORIENTED_EDGE('',*,*,#110,.F.);
#135=ORIENTED_EDGE('',*,*,#111,.T.);
#136=ORIENTED_EDGE('',*,*,#110,.T.);
#137=ORIENTED_EDGE('',*,*,#112,.F.);
#138=ORIENTED_EDGE('',*,*,#102,.F.);
#139=ORIENTED_EDGE('',*,*,#112,.T.);
#140=ORIENTED_EDGE('',*,*,#109,.T.);
#141=ORIENTED_EDGE('',*,*,#106,.T.);
#142=ORIENTED_EDGE('',*,*,#103,.T.);
#143=ORIENTED_EDGE('',*,*,#93,.T.);
#144=ORIENTED_EDGE('',*,*,#94,.T.);
#145=ORIENTED_EDGE('',*,*,#97,.T.);
#146=ORIENTED_EDGE('',*,*,#98,.T.);
#147=ORIENTED_EDGE('',*,*,#111,.F.);
#148=ORIENTED_EDGE('',*,*,#101,.F.);
#149=ORIENTED_EDGE('',*,*,#105,.F.);
#150=ORIENTED_EDGE('',*,*,#108,.F.);
#151=ORIENTED_EDGE('',*,*,#96,.T.);
#152=ORIENTED_EDGE('',*,*,#100,.T.);
#153=CYLINDRICAL_SURFACE('',#177,6.35);
#154=CYLINDRICAL_SURFACE('',#181,6.35);
#155=ADVANCED_FACE('',(#25),#153,.F.);
#156=ADVANCED_FACE('',(#26),#154,.F.);
#157=ADVANCED_FACE('',(#27),#19,.T.);
#158=ADVANCED_FACE('',(#28),#20,.T.);
#159=ADVANCED_FACE('',(#29),#21,.T.);
#160=ADVANCED_FACE('',(#30),#22,.T.);
#161=ADVANCED_FACE('',(#31,#15,#16),#23,.T.);
#162=ADVANCED_FACE('',(#32,#17,#18),#24,.F.);
#163=CLOSED_SHELL('',(#155,#156,#157,#158,#159,#160,#161,#162));
#164=DERIVED_UNIT_ELEMENT(#166,1.);
#165=DERIVED_UNIT_ELEMENT(#283,3.);
#166=(
MASS_UNIT()
NAMED_UNIT(*)
SI_UNIT($,.GRAM.)
);
#167=DERIVED_UNIT((#164,#165));
#168=MEASURE_REPRESENTATION_ITEM('density measure',
POSITIVE_RATIO_MEASURE(1.),#167);
#169=PROPERTY_DEFINITION_REPRESENTATION(#174,#171);
#170=PROPERTY_DEFINITION_REPRESENTATION(#175,#172);
#171=REPRESENTATION('material name',(#173),#280);
#172=REPRESENTATION('density',(#168),#280);
#173=DESCRIPTIVE_REPRESENTATION_ITEM('Generic','Generic');
#174=PROPERTY_DEFINITION('material property','material name',#290);
#175=PROPERTY_DEFINITION('material property','density of part',#290);
#176=AXIS2_PLACEMENT_3D('placement',#235,#191,#192);
#177=AXIS2_PLACEMENT_3D('',#236,#193,#194);
#178=AXIS2_PLACEMENT_3D('',#239,#195,#196);
#179=AXIS2_PLACEMENT_3D('',#240,#197,#198);
#180=AXIS2_PLACEMENT_3D('',#243,#200,#201);
#181=AXIS2_PLACEMENT_3D('',#244,#202,#203);
#182=AXIS2_PLACEMENT_3D('',#247,#204,#205);
#183=AXIS2_PLACEMENT_3D('',#248,#206,#207);
#184=AXIS2_PLACEMENT_3D('',#251,#209,#210);
#185=AXIS2_PLACEMENT_3D('',#252,#211,#212);
#186=AXIS2_PLACEMENT_3D('',#261,#217,#218);
#187=AXIS2_PLACEMENT_3D('',#267,#222,#223);
#188=AXIS2_PLACEMENT_3D('',#273,#227,#228);
#189=AXIS2_PLACEMENT_3D('',#276,#231,#232);
#190=AXIS2_PLACEMENT_3D('',#277,#233,#234);
#191=DIRECTION('axis',(0.,0.,1.));
#192=DIRECTION('refdir',(1.,0.,0.));
#193=DIRECTION('center_axis',(0.,0.,1.));
#194=DIRECTION('ref_axis',(1.,0.,0.));
#195=DIRECTION('center_axis',(0.,0.,-1.));
#196=DIRECTION('ref_axis',(1.,0.,0.));
#197=DIRECTION('center_axis',(0.,0.,-1.));
#198=DIRECTION('ref_axis',(1.,0.,0.));
#199=DIRECTION('',(0.,0.,-1.));
#200=DIRECTION('center_axis',(0.,0.,1.));
#201=DIRECTION('ref_axis',(1.,0.,0.));
#202=DIRECTION('center_axis',(0.,0.,1.));
#203=DIRECTION('ref_axis',(1.,0.,0.));
#204=DIRECTION('center_axis',(0.,0.,-1.));
#205=DIRECTION('ref_axis',(1.,0.,0.));
#206=DIRECTION('center_axis',(0.,0.,-1.));
#207=DIRECTION('ref_axis',(1.,0.,0.));
#208=DIRECTION('',(0.,0.,-1.));
#209=DIRECTION('center_axis',(0.,0.,1.));
#210=DIRECTION('ref_axis',(1.,0.,0.));
#211=DIRECTION('center_axis',(-1.,0.,0.));
#212=DIRECTION('ref_axis',(0.,-1.,0.));
#213=DIRECTION('',(0.,-1.,0.));
#214=DIRECTION('',(0.,0.,1.));
#215=DIRECTION('',(0.,-1.,0.));
#216=DIRECTION('',(0.,0.,1.));
#217=DIRECTION('center_axis',(0.,1.,0.));
#218=DIRECTION('ref_axis',(-1.,0.,0.));
#219=DIRECTION('',(-1.,0.,0.));
#220=DIRECTION('',(-1.,0.,0.));
#221=DIRECTION('',(0.,0.,1.));
#222=DIRECTION('center_axis',(1.,0.,0.));
#223=DIRECTION('ref_axis',(0.,1.,0.));
#224=DIRECTION('',(0.,1.,0.));
#225=DIRECTION('',(0.,1.,0.));
#226=DIRECTION('',(0.,0.,1.));
#227=DIRECTION('center_axis',(0.,-1.,0.));
#228=DIRECTION('ref_axis',(1.,0.,0.));
#229=DIRECTION('',(1.,0.,0.));
#230=DIRECTION('',(1.,0.,0.));
#231=DIRECTION('center_axis',(0.,0.,1.));
#232=DIRECTION('ref_axis',(1.,0.,0.));
#233=DIRECTION('center_axis',(0.,0.,1.));
#234=DIRECTION('ref_axis',(1.,0.,0.));
#235=CARTESIAN_POINT('',(0.,0.,0.));
#236=CARTESIAN_POINT('Origin',(17.4752,14.3002,10.3124));
#237=CARTESIAN_POINT('',(23.8252,14.3002,25.4));
#238=CARTESIAN_POINT('',(11.1252,14.3002,25.4));
#239=CARTESIAN_POINT('Origin',(17.4752,14.3002,25.4));
#240=CARTESIAN_POINT('Origin',(17.4752,14.3002,25.4));
#241=CARTESIAN_POINT('',(11.1252,14.3002,0.));
#242=CARTESIAN_POINT('',(11.1252,14.3002,10.3124));
#243=CARTESIAN_POINT('Origin',(17.4752,14.3002,0.));
#244=CARTESIAN_POINT('Origin',(160.3502,14.3002,10.3124));
#245=CARTESIAN_POINT('',(166.7002,14.3002,25.4));
#246=CARTESIAN_POINT('',(154.0002,14.3002,25.4));
#247=CARTESIAN_POINT('Origin',(160.3502,14.3002,25.4));
#248=CARTESIAN_POINT('Origin',(160.3502,14.3002,25.4));
#249=CARTESIAN_POINT('',(154.0002,14.3002,0.));
#250=CARTESIAN_POINT('',(154.0002,14.3002,10.3124));
#251=CARTESIAN_POINT('Origin',(160.3502,14.3002,0.));
#252=CARTESIAN_POINT('Origin',(0.,31.75,0.));
#253=CARTESIAN_POINT('',(0.,31.75,0.));
#254=CARTESIAN_POINT('',(0.,0.,0.));
#255=CARTESIAN_POINT('',(0.,31.75,0.));
#256=CARTESIAN_POINT('',(0.,0.,25.4));
#257=CARTESIAN_POINT('',(0.,0.,0.));
#258=CARTESIAN_POINT('',(0.,31.75,25.4));
#259=CARTESIAN_POINT('',(0.,31.75,25.4));
#260=CARTESIAN_POINT('',(0.,31.75,0.));
#261=CARTESIAN_POINT('Origin',(177.8,31.75,0.));
#262=CARTESIAN_POINT('',(177.8,31.75,0.));
#263=CARTESIAN_POINT('',(177.8,31.75,0.));
#264=CARTESIAN_POINT('',(177.8,31.75,25.4));
#265=CARTESIAN_POINT('',(177.8,31.75,25.4));
#266=CARTESIAN_POINT('',(177.8,31.75,0.));
#267=CARTESIAN_POINT('Origin',(177.8,0.,0.));
#268=CARTESIAN_POINT('',(177.8,0.,0.));
#269=CARTESIAN_POINT('',(177.8,0.,0.));
#270=CARTESIAN_POINT('',(177.8,0.,25.4));
#271=CARTESIAN_POINT('',(177.8,0.,25.4));
#272=CARTESIAN_POINT('',(177.8,0.,0.));
#273=CARTESIAN_POINT('Origin',(0.,0.,0.));
#274=CARTESIAN_POINT('',(0.,0.,0.));
#275=CARTESIAN_POINT('',(0.,0.,25.4));
#276=CARTESIAN_POINT('Origin',(88.9,15.875,25.4));
#277=CARTESIAN_POINT('Origin',(88.9,15.875,0.));
#278=UNCERTAINTY_MEASURE_WITH_UNIT(LENGTH_MEASURE(0.01),#282,
'DISTANCE_ACCURACY_VALUE',
'Maximum model space distance between geometric entities at asserted c
onnectivities');
#279=UNCERTAINTY_MEASURE_WITH_UNIT(LENGTH_MEASURE(0.01),#282,
'DISTANCE_ACCURACY_VALUE',
'Maximum model space distance between geometric entities at asserted c
onnectivities');
#280=(
GEOMETRIC_REPRESENTATION_CONTEXT(3)
GLOBAL_UNCERTAINTY_ASSIGNED_CONTEXT((#278))
GLOBAL_UNIT_ASSIGNED_CONTEXT((#282,#284,#285))
REPRESENTATION_CONTEXT('','3D')
);
#281=(
GEOMETRIC_REPRESENTATION_CONTEXT(3)
GLOBAL_UNCERTAINTY_ASSIGNED_CONTEXT((#279))
GLOBAL_UNIT_ASSIGNED_CONTEXT((#282,#284,#285))
REPRESENTATION_CONTEXT('','3D')
);
#282=(
LENGTH_UNIT()
NAMED_UNIT(*)
SI_UNIT(.MILLI.,.METRE.)
);
#283=(
LENGTH_UNIT()
NAMED_UNIT(*)
SI_UNIT(.CENTI.,.METRE.)
);
#284=(
NAMED_UNIT(*)
PLANE_ANGLE_UNIT()
SI_UNIT($,.RADIAN.)
);
#285=(
NAMED_UNIT(*)
SI_UNIT($,.STERADIAN.)
SOLID_ANGLE_UNIT()
);
#286=SHAPE_DEFINITION_REPRESENTATION(#287,#288);
#287=PRODUCT_DEFINITION_SHAPE('',$,#290);
#288=SHAPE_REPRESENTATION('',(#176),#280);
#289=DESIGN_CONTEXT('part definition',#294,'design');
#290=PRODUCT_DEFINITION('Part_185_700RU_3D','Part_185_700RU_3D',#291,#289);
#291=PRODUCT_DEFINITION_FORMATION('',$,#296);
#292=PRODUCT_RELATED_PRODUCT_CATEGORY('Part_185_700RU_3D',
'Part_185_700RU_3D',(#296));
#293=APPLICATION_PROTOCOL_DEFINITION('international standard',
'ap203_configuration_controlled_3d_design_of_mechanical_parts_and_asse
mblies_mim_lf',2004,#294);
#294=APPLICATION_CONTEXT(
'Configuration Controlled 3D Design of Mechanical Parts and Assemblies');
#295=MECHANICAL_CONTEXT('part definition',#294,'mechanical');
#296=PRODUCT('Part_185_700RU_3D','Part_185_700RU_3D',$,(#295));
#297=PRESENTATION_STYLE_ASSIGNMENT((#298));
#298=SURFACE_STYLE_USAGE(.BOTH.,#301);
#299=SURFACE_STYLE_RENDERING_WITH_PROPERTIES($,#305,(#300));
#300=SURFACE_STYLE_TRANSPARENT(0.);
#301=SURFACE_SIDE_STYLE('',(#302,#299));
#302=SURFACE_STYLE_FILL_AREA(#303);
#303=FILL_AREA_STYLE('',(#304));
#304=FILL_AREA_STYLE_COLOUR('',#305);
#305=COLOUR_RGB('',0.749019607843137,0.749019607843137,0.749019607843137);
ENDSEC;
END-ISO-10303-21;
