ISO-10303-21;
HEADER;
/* Generated by software containing ST-Developer
 * from STEP Tools, Inc. (www.steptools.com) 
 */

FILE_DESCRIPTION(
/* description */ (''),
/* implementation_level */ '2;1');

FILE_NAME(
/* name */ 'C:\\Users\\trevorh\\Desktop\\185_350RU.stp',
/* time_stamp */ '2022-09-01T12:16:16-04:00',
/* author */ ('trevorh'),
/* organization */ (''),
/* preprocessor_version */ 'ST-DEVELOPER v18',
/* originating_system */ 'Autodesk Inventor 2020',
/* authorisation */ '');

FILE_SCHEMA (('CONFIG_CONTROL_DESIGN'));
ENDSEC;

DATA;
#10=MECHANICAL_DESIGN_GEOMETRIC_PRESENTATION_REPRESENTATION('',(#13),#301);
#11=SHAPE_REPRESENTATION_RELATIONSHIP('SRR','None',#308,#12);
#12=ADVANCED_BREP_SHAPE_REPRESENTATION('',(#14),#300);
#13=STYLED_ITEM('',(#317),#14);
#14=MANIFOLD_SOLID_BREP('Solid1',#173);
#15=FACE_BOUND('',#40,.T.);
#16=FACE_BOUND('',#41,.T.);
#17=FACE_BOUND('',#43,.T.);
#18=FACE_BOUND('',#44,.T.);
#19=PLANE('',#197);
#20=PLANE('',#198);
#21=PLANE('',#199);
#22=PLANE('',#200);
#23=PLANE('',#201);
#24=PLANE('',#202);
#25=FACE_OUTER_BOUND('',#33,.T.);
#26=FACE_OUTER_BOUND('',#34,.T.);
#27=FACE_OUTER_BOUND('',#35,.T.);
#28=FACE_OUTER_BOUND('',#36,.T.);
#29=FACE_OUTER_BOUND('',#37,.T.);
#30=FACE_OUTER_BOUND('',#38,.T.);
#31=FACE_OUTER_BOUND('',#39,.T.);
#32=FACE_OUTER_BOUND('',#42,.T.);
#33=EDGE_LOOP('',(#119,#120,#121,#122,#123,#124));
#34=EDGE_LOOP('',(#125,#126,#127,#128,#129,#130));
#35=EDGE_LOOP('',(#131,#132,#133,#134));
#36=EDGE_LOOP('',(#135,#136,#137,#138));
#37=EDGE_LOOP('',(#139,#140,#141,#142));
#38=EDGE_LOOP('',(#143,#144,#145,#146));
#39=EDGE_LOOP('',(#147,#148,#149,#150));
#40=EDGE_LOOP('',(#151,#152));
#41=EDGE_LOOP('',(#153,#154));
#42=EDGE_LOOP('',(#155,#156,#157,#158));
#43=EDGE_LOOP('',(#159,#160));
#44=EDGE_LOOP('',(#161,#162));
#45=LINE('',#258,#59);
#46=LINE('',#268,#60);
#47=LINE('',#275,#61);
#48=LINE('',#277,#62);
#49=LINE('',#279,#63);
#50=LINE('',#280,#64);
#51=LINE('',#283,#65);
#52=LINE('',#285,#66);
#53=LINE('',#286,#67);
#54=LINE('',#289,#68);
#55=LINE('',#291,#69);
#56=LINE('',#292,#70);
#57=LINE('',#294,#71);
#58=LINE('',#295,#72);
#59=VECTOR('',#211,3.9624);
#60=VECTOR('',#222,3.9624);
#61=VECTOR('',#229,10.);
#62=VECTOR('',#230,10.);
#63=VECTOR('',#231,10.);
#64=VECTOR('',#232,10.);
#65=VECTOR('',#235,10.);
#66=VECTOR('',#236,10.);
#67=VECTOR('',#237,10.);
#68=VECTOR('',#240,10.);
#69=VECTOR('',#241,10.);
#70=VECTOR('',#242,10.);
#71=VECTOR('',#245,10.);
#72=VECTOR('',#246,10.);
#73=CIRCLE('',#188,3.9624);
#74=CIRCLE('',#189,3.9624);
#75=CIRCLE('',#190,3.9624);
#76=CIRCLE('',#191,3.9624);
#77=CIRCLE('',#193,3.9624);
#78=CIRCLE('',#194,3.9624);
#79=CIRCLE('',#195,3.9624);
#80=CIRCLE('',#196,3.9624);
#81=VERTEX_POINT('',#253);
#82=VERTEX_POINT('',#254);
#83=VERTEX_POINT('',#257);
#84=VERTEX_POINT('',#259);
#85=VERTEX_POINT('',#263);
#86=VERTEX_POINT('',#264);
#87=VERTEX_POINT('',#267);
#88=VERTEX_POINT('',#269);
#89=VERTEX_POINT('',#273);
#90=VERTEX_POINT('',#274);
#91=VERTEX_POINT('',#276);
#92=VERTEX_POINT('',#278);
#93=VERTEX_POINT('',#282);
#94=VERTEX_POINT('',#284);
#95=VERTEX_POINT('',#288);
#96=VERTEX_POINT('',#290);
#97=EDGE_CURVE('',#81,#82,#73,.T.);
#98=EDGE_CURVE('',#82,#81,#74,.T.);
#99=EDGE_CURVE('',#82,#83,#45,.T.);
#100=EDGE_CURVE('',#84,#83,#75,.T.);
#101=EDGE_CURVE('',#83,#84,#76,.T.);
#102=EDGE_CURVE('',#85,#86,#77,.T.);
#103=EDGE_CURVE('',#86,#85,#78,.T.);
#104=EDGE_CURVE('',#86,#87,#46,.T.);
#105=EDGE_CURVE('',#88,#87,#79,.T.);
#106=EDGE_CURVE('',#87,#88,#80,.T.);
#107=EDGE_CURVE('',#89,#90,#47,.T.);
#108=EDGE_CURVE('',#90,#91,#48,.T.);
#109=EDGE_CURVE('',#92,#91,#49,.T.);
#110=EDGE_CURVE('',#89,#92,#50,.T.);
#111=EDGE_CURVE('',#93,#89,#51,.T.);
#112=EDGE_CURVE('',#94,#92,#52,.T.);
#113=EDGE_CURVE('',#93,#94,#53,.T.);
#114=EDGE_CURVE('',#95,#93,#54,.T.);
#115=EDGE_CURVE('',#96,#94,#55,.T.);
#116=EDGE_CURVE('',#95,#96,#56,.T.);
#117=EDGE_CURVE('',#90,#95,#57,.T.);
#118=EDGE_CURVE('',#91,#96,#58,.T.);
#119=ORIENTED_EDGE('',*,*,#97,.F.);
#120=ORIENTED_EDGE('',*,*,#98,.F.);
#121=ORIENTED_EDGE('',*,*,#99,.T.);
#122=ORIENTED_EDGE('',*,*,#100,.F.);
#123=ORIENTED_EDGE('',*,*,#101,.F.);
#124=ORIENTED_EDGE('',*,*,#99,.F.);
#125=ORIENTED_EDGE('',*,*,#102,.F.);
#126=ORIENTED_EDGE('',*,*,#103,.F.);
#127=ORIENTED_EDGE('',*,*,#104,.T.);
#128=ORIENTED_EDGE('',*,*,#105,.F.);
#129=ORIENTED_EDGE('',*,*,#106,.F.);
#130=ORIENTED_EDGE('',*,*,#104,.F.);
#131=ORIENTED_EDGE('',*,*,#107,.T.);
#132=ORIENTED_EDGE('',*,*,#108,.T.);
#133=ORIENTED_EDGE('',*,*,#109,.F.);
#134=ORIENTED_EDGE('',*,*,#110,.F.);
#135=ORIENTED_EDGE('',*,*,#111,.T.);
#136=ORIENTED_EDGE('',*,*,#110,.T.);
#137=ORIENTED_EDGE('',*,*,#112,.F.);
#138=ORIENTED_EDGE('',*,*,#113,.F.);
#139=ORIENTED_EDGE('',*,*,#114,.T.);
#140=ORIENTED_EDGE('',*,*,#113,.T.);
#141=ORIENTED_EDGE('',*,*,#115,.F.);
#142=ORIENTED_EDGE('',*,*,#116,.F.);
#143=ORIENTED_EDGE('',*,*,#117,.T.);
#144=ORIENTED_EDGE('',*,*,#116,.T.);
#145=ORIENTED_EDGE('',*,*,#118,.F.);
#146=ORIENTED_EDGE('',*,*,#108,.F.);
#147=ORIENTED_EDGE('',*,*,#118,.T.);
#148=ORIENTED_EDGE('',*,*,#115,.T.);
#149=ORIENTED_EDGE('',*,*,#112,.T.);
#150=ORIENTED_EDGE('',*,*,#109,.T.);
#151=ORIENTED_EDGE('',*,*,#97,.T.);
#152=ORIENTED_EDGE('',*,*,#98,.T.);
#153=ORIENTED_EDGE('',*,*,#102,.T.);
#154=ORIENTED_EDGE('',*,*,#103,.T.);
#155=ORIENTED_EDGE('',*,*,#117,.F.);
#156=ORIENTED_EDGE('',*,*,#107,.F.);
#157=ORIENTED_EDGE('',*,*,#111,.F.);
#158=ORIENTED_EDGE('',*,*,#114,.F.);
#159=ORIENTED_EDGE('',*,*,#100,.T.);
#160=ORIENTED_EDGE('',*,*,#101,.T.);
#161=ORIENTED_EDGE('',*,*,#105,.T.);
#162=ORIENTED_EDGE('',*,*,#106,.T.);
#163=CYLINDRICAL_SURFACE('',#187,3.9624);
#164=CYLINDRICAL_SURFACE('',#192,3.9624);
#165=ADVANCED_FACE('',(#25),#163,.F.);
#166=ADVANCED_FACE('',(#26),#164,.F.);
#167=ADVANCED_FACE('',(#27),#19,.T.);
#168=ADVANCED_FACE('',(#28),#20,.T.);
#169=ADVANCED_FACE('',(#29),#21,.T.);
#170=ADVANCED_FACE('',(#30),#22,.T.);
#171=ADVANCED_FACE('',(#31,#15,#16),#23,.T.);
#172=ADVANCED_FACE('',(#32,#17,#18),#24,.F.);
#173=CLOSED_SHELL('',(#165,#166,#167,#168,#169,#170,#171,#172));
#174=DERIVED_UNIT_ELEMENT(#176,1.);
#175=DERIVED_UNIT_ELEMENT(#303,3.);
#176=(
MASS_UNIT()
NAMED_UNIT(*)
SI_UNIT($,.GRAM.)
);
#177=DERIVED_UNIT((#174,#175));
#178=MEASURE_REPRESENTATION_ITEM('density measure',
POSITIVE_RATIO_MEASURE(1.),#177);
#179=PROPERTY_DEFINITION_REPRESENTATION(#184,#181);
#180=PROPERTY_DEFINITION_REPRESENTATION(#185,#182);
#181=REPRESENTATION('material name',(#183),#300);
#182=REPRESENTATION('density',(#178),#300);
#183=DESCRIPTIVE_REPRESENTATION_ITEM('Generic','Generic');
#184=PROPERTY_DEFINITION('material property','material name',#310);
#185=PROPERTY_DEFINITION('material property','density of part',#310);
#186=AXIS2_PLACEMENT_3D('placement',#251,#203,#204);
#187=AXIS2_PLACEMENT_3D('',#252,#205,#206);
#188=AXIS2_PLACEMENT_3D('',#255,#207,#208);
#189=AXIS2_PLACEMENT_3D('',#256,#209,#210);
#190=AXIS2_PLACEMENT_3D('',#260,#212,#213);
#191=AXIS2_PLACEMENT_3D('',#261,#214,#215);
#192=AXIS2_PLACEMENT_3D('',#262,#216,#217);
#193=AXIS2_PLACEMENT_3D('',#265,#218,#219);
#194=AXIS2_PLACEMENT_3D('',#266,#220,#221);
#195=AXIS2_PLACEMENT_3D('',#270,#223,#224);
#196=AXIS2_PLACEMENT_3D('',#271,#225,#226);
#197=AXIS2_PLACEMENT_3D('',#272,#227,#228);
#198=AXIS2_PLACEMENT_3D('',#281,#233,#234);
#199=AXIS2_PLACEMENT_3D('',#287,#238,#239);
#200=AXIS2_PLACEMENT_3D('',#293,#243,#244);
#201=AXIS2_PLACEMENT_3D('',#296,#247,#248);
#202=AXIS2_PLACEMENT_3D('',#297,#249,#250);
#203=DIRECTION('axis',(0.,0.,1.));
#204=DIRECTION('refdir',(1.,0.,0.));
#205=DIRECTION('center_axis',(0.,0.,1.));
#206=DIRECTION('ref_axis',(1.,0.,0.));
#207=DIRECTION('center_axis',(0.,0.,-1.));
#208=DIRECTION('ref_axis',(1.,0.,0.));
#209=DIRECTION('center_axis',(0.,0.,-1.));
#210=DIRECTION('ref_axis',(1.,0.,0.));
#211=DIRECTION('',(0.,0.,-1.));
#212=DIRECTION('center_axis',(0.,0.,1.));
#213=DIRECTION('ref_axis',(1.,0.,0.));
#214=DIRECTION('center_axis',(0.,0.,1.));
#215=DIRECTION('ref_axis',(1.,0.,0.));
#216=DIRECTION('center_axis',(0.,0.,1.));
#217=DIRECTION('ref_axis',(1.,0.,0.));
#218=DIRECTION('center_axis',(0.,0.,-1.));
#219=DIRECTION('ref_axis',(1.,0.,0.));
#220=DIRECTION('center_axis',(0.,0.,-1.));
#221=DIRECTION('ref_axis',(1.,0.,0.));
#222=DIRECTION('',(0.,0.,-1.));
#223=DIRECTION('center_axis',(0.,0.,1.));
#224=DIRECTION('ref_axis',(1.,0.,0.));
#225=DIRECTION('center_axis',(0.,0.,1.));
#226=DIRECTION('ref_axis',(1.,0.,0.));
#227=DIRECTION('center_axis',(-1.,0.,0.));
#228=DIRECTION('ref_axis',(0.,-1.,0.));
#229=DIRECTION('',(0.,-1.,0.));
#230=DIRECTION('',(0.,0.,1.));
#231=DIRECTION('',(0.,-1.,0.));
#232=DIRECTION('',(0.,0.,1.));
#233=DIRECTION('center_axis',(0.,1.,0.));
#234=DIRECTION('ref_axis',(-1.,0.,0.));
#235=DIRECTION('',(-1.,0.,0.));
#236=DIRECTION('',(-1.,0.,0.));
#237=DIRECTION('',(0.,0.,1.));
#238=DIRECTION('center_axis',(1.,0.,0.));
#239=DIRECTION('ref_axis',(0.,1.,0.));
#240=DIRECTION('',(0.,1.,0.));
#241=DIRECTION('',(0.,1.,0.));
#242=DIRECTION('',(0.,0.,1.));
#243=DIRECTION('center_axis',(0.,-1.,0.));
#244=DIRECTION('ref_axis',(1.,0.,0.));
#245=DIRECTION('',(1.,0.,0.));
#246=DIRECTION('',(1.,0.,0.));
#247=DIRECTION('center_axis',(0.,0.,1.));
#248=DIRECTION('ref_axis',(1.,0.,0.));
#249=DIRECTION('center_axis',(0.,0.,1.));
#250=DIRECTION('ref_axis',(1.,0.,0.));
#251=CARTESIAN_POINT('',(0.,0.,0.));
#252=CARTESIAN_POINT('Origin',(74.6252,7.9502,7.9375));
#253=CARTESIAN_POINT('',(78.5876,7.9502,15.875));
#254=CARTESIAN_POINT('',(70.6628,7.9502,15.875));
#255=CARTESIAN_POINT('Origin',(74.6252,7.9502,15.875));
#256=CARTESIAN_POINT('Origin',(74.6252,7.9502,15.875));
#257=CARTESIAN_POINT('',(70.6628,7.9502,0.));
#258=CARTESIAN_POINT('',(70.6628,7.9502,7.9375));
#259=CARTESIAN_POINT('',(78.5876,7.9502,0.));
#260=CARTESIAN_POINT('Origin',(74.6252,7.9502,0.));
#261=CARTESIAN_POINT('Origin',(74.6252,7.9502,0.));
#262=CARTESIAN_POINT('Origin',(14.3002,7.9502,7.9375));
#263=CARTESIAN_POINT('',(18.2626,7.9502,15.875));
#264=CARTESIAN_POINT('',(10.3378,7.9502,15.875));
#265=CARTESIAN_POINT('Origin',(14.3002,7.9502,15.875));
#266=CARTESIAN_POINT('Origin',(14.3002,7.9502,15.875));
#267=CARTESIAN_POINT('',(10.3378,7.9502,0.));
#268=CARTESIAN_POINT('',(10.3378,7.9502,7.9375));
#269=CARTESIAN_POINT('',(18.2626,7.9502,0.));
#270=CARTESIAN_POINT('Origin',(14.3002,7.9502,0.));
#271=CARTESIAN_POINT('Origin',(14.3002,7.9502,0.));
#272=CARTESIAN_POINT('Origin',(0.,19.05,0.));
#273=CARTESIAN_POINT('',(0.,19.05,0.));
#274=CARTESIAN_POINT('',(0.,0.,0.));
#275=CARTESIAN_POINT('',(0.,19.05,0.));
#276=CARTESIAN_POINT('',(0.,0.,15.875));
#277=CARTESIAN_POINT('',(0.,0.,0.));
#278=CARTESIAN_POINT('',(0.,19.05,15.875));
#279=CARTESIAN_POINT('',(0.,19.05,15.875));
#280=CARTESIAN_POINT('',(0.,19.05,0.));
#281=CARTESIAN_POINT('Origin',(88.9,19.05,0.));
#282=CARTESIAN_POINT('',(88.9,19.05,0.));
#283=CARTESIAN_POINT('',(88.9,19.05,0.));
#284=CARTESIAN_POINT('',(88.9,19.05,15.875));
#285=CARTESIAN_POINT('',(88.9,19.05,15.875));
#286=CARTESIAN_POINT('',(88.9,19.05,0.));
#287=CARTESIAN_POINT('Origin',(88.9,0.,0.));
#288=CARTESIAN_POINT('',(88.9,0.,0.));
#289=CARTESIAN_POINT('',(88.9,0.,0.));
#290=CARTESIAN_POINT('',(88.9,0.,15.875));
#291=CARTESIAN_POINT('',(88.9,0.,15.875));
#292=CARTESIAN_POINT('',(88.9,0.,0.));
#293=CARTESIAN_POINT('Origin',(0.,0.,0.));
#294=CARTESIAN_POINT('',(0.,0.,0.));
#295=CARTESIAN_POINT('',(0.,0.,15.875));
#296=CARTESIAN_POINT('Origin',(44.45,9.525,15.875));
#297=CARTESIAN_POINT('Origin',(44.45,9.525,0.));
#298=UNCERTAINTY_MEASURE_WITH_UNIT(LENGTH_MEASURE(0.01),#302,
'DISTANCE_ACCURACY_VALUE',
'Maximum model space distance between geometric entities at asserted c
onnectivities');
#299=UNCERTAINTY_MEASURE_WITH_UNIT(LENGTH_MEASURE(0.01),#302,
'DISTANCE_ACCURACY_VALUE',
'Maximum model space distance between geometric entities at asserted c
onnectivities');
#300=(
GEOMETRIC_REPRESENTATION_CONTEXT(3)
GLOBAL_UNCERTAINTY_ASSIGNED_CONTEXT((#298))
GLOBAL_UNIT_ASSIGNED_CONTEXT((#302,#304,#305))
REPRESENTATION_CONTEXT('','3D')
);
#301=(
GEOMETRIC_REPRESENTATION_CONTEXT(3)
GLOBAL_UNCERTAINTY_ASSIGNED_CONTEXT((#299))
GLOBAL_UNIT_ASSIGNED_CONTEXT((#302,#304,#305))
REPRESENTATION_CONTEXT('','3D')
);
#302=(
LENGTH_UNIT()
NAMED_UNIT(*)
SI_UNIT(.MILLI.,.METRE.)
);
#303=(
LENGTH_UNIT()
NAMED_UNIT(*)
SI_UNIT(.CENTI.,.METRE.)
);
#304=(
NAMED_UNIT(*)
PLANE_ANGLE_UNIT()
SI_UNIT($,.RADIAN.)
);
#305=(
NAMED_UNIT(*)
SI_UNIT($,.STERADIAN.)
SOLID_ANGLE_UNIT()
);
#306=SHAPE_DEFINITION_REPRESENTATION(#307,#308);
#307=PRODUCT_DEFINITION_SHAPE('',$,#310);
#308=SHAPE_REPRESENTATION('',(#186),#300);
#309=DESIGN_CONTEXT('part definition',#314,'design');
#310=PRODUCT_DEFINITION('Part_185_350RU_3D','Part_185_350RU_3D',#311,#309);
#311=PRODUCT_DEFINITION_FORMATION('',$,#316);
#312=PRODUCT_RELATED_PRODUCT_CATEGORY('Part_185_350RU_3D',
'Part_185_350RU_3D',(#316));
#313=APPLICATION_PROTOCOL_DEFINITION('international standard',
'ap203_configuration_controlled_3d_design_of_mechanical_parts_and_asse
mblies_mim_lf',2004,#314);
#314=APPLICATION_CONTEXT(
'Configuration Controlled 3D Design of Mechanical Parts and Assemblies');
#315=MECHANICAL_CONTEXT('part definition',#314,'mechanical');
#316=PRODUCT('Part_185_350RU_3D','Part_185_350RU_3D',$,(#315));
#317=PRESENTATION_STYLE_ASSIGNMENT((#318));
#318=SURFACE_STYLE_USAGE(.BOTH.,#321);
#319=SURFACE_STYLE_RENDERING_WITH_PROPERTIES($,#325,(#320));
#320=SURFACE_STYLE_TRANSPARENT(0.);
#321=SURFACE_SIDE_STYLE('',(#322,#319));
#322=SURFACE_STYLE_FILL_AREA(#323);
#323=FILL_AREA_STYLE('',(#324));
#324=FILL_AREA_STYLE_COLOUR('',#325);
#325=COLOUR_RGB('',0.749019607843137,0.749019607843137,0.749019607843137);
ENDSEC;
END-ISO-10303-21;
