  0
SECTION
  2
HEADER
  9
$ACADVER
  1
AC1014
  9
$ACADMAINTVER
 70
     9
  9
$DWGCODEPAGE
  3
ANSI_1252
  9
$INSBASE
 10
0.0
 20
0.0
 30
0.0
  9
$EXTMIN
 10
2.280240762446453
 20
6.468442327182536
 30
-0.0000000000112498
  9
$EXTMAX
 10
35.09417865298863
 20
26.87686360434338
 30
0.0000000000002956
  9
$LIMMIN
 10
0.0
 20
0.0
  9
$LIMMAX
 10
12.0
 20
9.0
  9
$ORTHOMODE
 70
     0
  9
$REGENMODE
 70
     1
  9
$FILLMODE
 70
     1
  9
$QTEXTMODE
 70
     0
  9
$MIRRTEXT
 70
     1
  9
$DRAGMODE
 70
     2
  9
$LTSCALE
 40
1.0
  9
$OSMODE
 70
    37
  9
$ATTMODE
 70
     1
  9
$TEXTSIZE
 40
0.2
  9
$TRACEWID
 40
0.05
  9
$TEXTSTYLE
  7
STANDARD
  9
$CLAYER
  8
0
  9
$CELTYPE
  6
HIDDEN
  9
$CECOLOR
 62
   256
  9
$CELTSCALE
 40
1.0
  9
$DELOBJ
 70
     1
  9
$DISPSILH
 70
     0
  9
$DIMSCALE
 40
1.0
  9
$DIMASZ
 40
0.18
  9
$DIMEXO
 40
0.0625
  9
$DIMDLI
 40
0.38
  9
$DIMRND
 40
0.0
  9
$DIMDLE
 40
0.0
  9
$DIMEXE
 40
0.18
  9
$DIMTP
 40
0.0
  9
$DIMTM
 40
0.0
  9
$DIMTXT
 40
0.18
  9
$DIMCEN
 40
0.09
  9
$DIMTSZ
 40
0.0
  9
$DIMTOL
 70
     0
  9
$DIMLIM
 70
     0
  9
$DIMTIH
 70
     1
  9
$DIMTOH
 70
     1
  9
$DIMSE1
 70
     0
  9
$DIMSE2
 70
     0
  9
$DIMTAD
 70
     0
  9
$DIMZIN
 70
     0
  9
$DIMBLK
  1

  9
$DIMASO
 70
     1
  9
$DIMSHO
 70
     1
  9
$DIMPOST
  1

  9
$DIMAPOST
  1

  9
$DIMALT
 70
     0
  9
$DIMALTD
 70
     2
  9
$DIMALTF
 40
25.4
  9
$DIMLFAC
 40
1.0
  9
$DIMTOFL
 70
     0
  9
$DIMTVP
 40
0.0
  9
$DIMTIX
 70
     0
  9
$DIMSOXD
 70
     0
  9
$DIMSAH
 70
     0
  9
$DIMBLK1
  1

  9
$DIMBLK2
  1

  9
$DIMSTYLE
  2
STANDARD
  9
$DIMCLRD
 70
     0
  9
$DIMCLRE
 70
     0
  9
$DIMCLRT
 70
     0
  9
$DIMTFAC
 40
1.0
  9
$DIMGAP
 40
0.09
  9
$DIMJUST
 70
     0
  9
$DIMSD1
 70
     0
  9
$DIMSD2
 70
     0
  9
$DIMTOLJ
 70
     1
  9
$DIMTZIN
 70
     0
  9
$DIMALTZ
 70
     0
  9
$DIMALTTZ
 70
     0
  9
$DIMFIT
 70
     3
  9
$DIMUPT
 70
     0
  9
$DIMUNIT
 70
     2
  9
$DIMDEC
 70
     4
  9
$DIMTDEC
 70
     4
  9
$DIMALTU
 70
     2
  9
$DIMALTTD
 70
     2
  9
$DIMTXSTY
  7
STANDARD
  9
$DIMAUNIT
 70
     0
  9
$LUNITS
 70
     2
  9
$LUPREC
 70
     4
  9
$SKETCHINC
 40
0.1
  9
$FILLETRAD
 40
0.0
  9
$AUNITS
 70
     0
  9
$AUPREC
 70
     0
  9
$MENU
  1
.
  9
$ELEVATION
 40
0.0
  9
$PELEVATION
 40
0.0
  9
$THICKNESS
 40
0.0
  9
$LIMCHECK
 70
     0
  9
$BLIPMODE
 70
     0
  9
$CHAMFERA
 40
0.0
  9
$CHAMFERB
 40
0.0
  9
$CHAMFERC
 40
0.0
  9
$CHAMFERD
 40
0.0
  9
$SKPOLY
 70
     0
  9
$TDCREATE
 40
2453439.413428506
  9
$TDUPDATE
 40
2453440.575397742
  9
$TDINDWG
 40
0.0307351389
  9
$TDUSRTIMER
 40
0.0307338657
  9
$USRTIMER
 70
     1
  9
$ANGBASE
 50
0.0
  9
$ANGDIR
 70
     0
  9
$PDMODE
 70
     0
  9
$PDSIZE
 40
0.0
  9
$PLINEWID
 40
0.0
  9
$COORDS
 70
     1
  9
$SPLFRAME
 70
     0
  9
$SPLINETYPE
 70
     6
  9
$SPLINESEGS
 70
     8
  9
$ATTDIA
 70
     0
  9
$ATTREQ
 70
     1
  9
$HANDLING
 70
-16383
  9
$HANDSEED
  5
857
  9
$SURFTAB1
 70
     6
  9
$SURFTAB2
 70
     6
  9
$SURFTYPE
 70
     6
  9
$SURFU
 70
     6
  9
$SURFV
 70
     6
  9
$UCSNAME
  2

  9
$UCSORG
 10
0.0
 20
0.0
 30
0.0
  9
$UCSXDIR
 10
1.0
 20
0.0
 30
0.0
  9
$UCSYDIR
 10
0.0
 20
1.0
 30
0.0
  9
$PUCSNAME
  2

  9
$PUCSORG
 10
0.0
 20
0.0
 30
0.0
  9
$PUCSXDIR
 10
1.0
 20
0.0
 30
0.0
  9
$PUCSYDIR
 10
0.0
 20
1.0
 30
0.0
  9
$USERI1
 70
     0
  9
$USERI2
 70
     0
  9
$USERI3
 70
     0
  9
$USERI4
 70
     0
  9
$USERI5
 70
     0
  9
$USERR1
 40
0.0
  9
$USERR2
 40
0.0
  9
$USERR3
 40
0.0
  9
$USERR4
 40
0.0
  9
$USERR5
 40
0.0
  9
$WORLDVIEW
 70
     1
  9
$SHADEDGE
 70
     3
  9
$SHADEDIF
 70
    70
  9
$TILEMODE
 70
     1
  9
$MAXACTVP
 70
    64
  9
$PINSBASE
 10
0.0
 20
0.0
 30
0.0
  9
$PLIMCHECK
 70
     0
  9
$PEXTMIN
 10
1.000000000000000E+20
 20
1.000000000000000E+20
 30
1.000000000000000E+20
  9
$PEXTMAX
 10
-1.000000000000000E+20
 20
-1.000000000000000E+20
 30
-1.000000000000000E+20
  9
$PLIMMIN
 10
0.0
 20
0.0
  9
$PLIMMAX
 10
12.0
 20
9.0
  9
$UNITMODE
 70
     0
  9
$VISRETAIN
 70
     1
  9
$PLINEGEN
 70
     0
  9
$PSLTSCALE
 70
     1
  9
$TREEDEPTH
 70
  3020
  9
$PICKSTYLE
 70
     1
  9
$CMLSTYLE
  2
STANDARD
  9
$CMLJUST
 70
     0
  9
$CMLSCALE
 40
1.0
  9
$PROXYGRAPHICS
 70
     1
  9
$MEASUREMENT
 70
     0
  0
ENDSEC
  0
SECTION
  2
CLASSES
  0
CLASS
  1
ACDBDICTIONARYWDFLT
  2
AcDbDictionaryWithDefault
  3
AutoCAD 2000
 90
        0
280
     0
281
     0
  0
CLASS
  1
ACDBPLACEHOLDER
  2
AcDbPlaceHolder
  3
AutoCAD 2000
 90
        0
280
     0
281
     0
  0
CLASS
  1
LAYOUT
  2
AcDbLayout
  3
AutoCAD 2000
 90
        0
280
     0
281
     0
  0
CLASS
  1
LONG_TRANSACTION
  2
AcDbLongTransaction
  3
AutoCAD 2000
 90
        0
280
     0
281
     0
  0
CLASS
  1
LWPOLYLINE
  2
AcDbPolyline
  3
AutoCAD 2000
 90
        0
280
     0
281
     1
  0
CLASS
  1
HATCH
  2
AcDbHatch
  3
AutoCAD 2000
 90
        0
280
     0
281
     1
  0
CLASS
  1
XRECORD
  2
AcDbXrecord
  3
AutoCAD 2000
 90
        0
280
     0
281
     0
  0
CLASS
  1
LONG_TRANSACTION
  2
AcDbLongTransaction
  3
AutoCAD 2000
 90
        0
280
     0
281
     0
  0
CLASS
  1
LWPOLYLINE
  2
AcDbPolyline
  3
AutoCAD 2000
 90
        0
280
     0
281
     1
  0
CLASS
  1
HATCH
  2
AcDbHatch
  3
AutoCAD 2000
 90
        0
280
     0
281
     1
  0
CLASS
  1
XRECORD
  2
AcDbXrecord
  3
AutoCAD 2000
 90
        0
280
     0
281
     0
  0
CLASS
  1
LONG_TRANSACTION
  2
AcDbLongTransaction
  3
AutoCAD 2000
 90
        0
280
     0
281
     0
  0
CLASS
  1
LWPOLYLINE
  2
AcDbPolyline
  3
AutoCAD 2000
 90
        0
280
     0
281
     1
  0
CLASS
  1
HATCH
  2
AcDbHatch
  3
AutoCAD 2000
 90
        0
280
     0
281
     1
  0
CLASS
  1
XRECORD
  2
AcDbXrecord
  3
AutoCAD 2000
 90
        0
280
     0
281
     0
  0
ENDSEC
  0
SECTION
  2
TABLES
  0
TABLE
  2
VPORT
  5
8
330
0
100
AcDbSymbolTable
 70
     7
  0
VPORT
  5
834
330
8
100
AcDbSymbolTableRecord
100
AcDbViewportTableRecord
  2
*ACTIVE
 70
     0
 10
0.0
 20
0.0
 11
1.0
 21
1.0
 12
18.57981056984451
 22
16.47671651493334
 13
0.0
 23
0.0
 14
1.0
 24
1.0
 15
0.0
 25
0.0
 16
0.0
 26
0.0
 36
1.0
 17
0.0
 27
0.0
 37
0.0
 40
22.66314869941719
 41
1.647569444444444
 42
50.0
 43
0.0
 44
0.0
 50
0.0
 51
0.0
 71
     0
 72
   100
 73
     1
 74
     1
 75
     0
 76
     0
 77
     0
 78
     0
  0
ENDTAB
  0
TABLE
  2
LTYPE
  5
5
330
0
100
AcDbSymbolTable
 70
    12
  0
LTYPE
  5
13
330
5
100
AcDbSymbolTableRecord
100
AcDbLinetypeTableRecord
  2
BYBLOCK
 70
     0
  3

 72
    65
 73
     0
 40
0.0
  0
LTYPE
  5
14
330
5
100
AcDbSymbolTableRecord
100
AcDbLinetypeTableRecord
  2
BYLAYER
 70
     0
  3

 72
    65
 73
     0
 40
0.0
  0
LTYPE
  5
15
330
5
100
AcDbSymbolTableRecord
100
AcDbLinetypeTableRecord
  2
CONTINUOUS
 70
     0
  3
Solid line
 72
    65
 73
     0
 40
0.0
  0
LTYPE
  5
22
330
5
100
AcDbSymbolTableRecord
100
AcDbLinetypeTableRecord
  2
DASHED
 70
     0
  3
__ __ __ __ __ __ __ __ __ __ __ __ __ __ __
 72
    65
 73
     2
 40
0.6891850000000001
 49
0.258444
 74
     0
 49
-0.129222
 74
     0
  0
LTYPE
  5
23
330
5
100
AcDbSymbolTableRecord
100
AcDbLinetypeTableRecord
  2
DOT
 70
     0
  3
...............................................
 72
    65
 73
     2
 40
0.129222
 49
0.0
 74
     0
 49
-0.129222
 74
     0
  0
LTYPE
  5
24
330
5
100
AcDbSymbolTableRecord
100
AcDbLinetypeTableRecord
  2
DASHDOT
 70
     0
  3
__ . __ . __ . __ . __ . __ . __ . __ . __ . __
 72
    65
 73
     4
 40
0.5168890000000001
 49
0.258444
 74
     0
 49
-0.129222
 74
     0
 49
0.0
 74
     0
 49
-0.129222
 74
     0
  0
LTYPE
  5
25
330
5
100
AcDbSymbolTableRecord
100
AcDbLinetypeTableRecord
  2
CENTER
 70
     0
  3
____ _ ____ _ ____ _ ____ _ ____ _ ____ _ ____
 72
    65
 73
     4
 40
1.033778
 49
0.646111
 74
     0
 49
-0.129222
 74
     0
 49
0.129222
 74
     0
 49
-0.129222
 74
     0
  0
LTYPE
  5
26
330
5
100
AcDbSymbolTableRecord
100
AcDbLinetypeTableRecord
  2
PHANTOM
 70
     0
  3
_____ _ _ _____ _ _ _____ _ _ _____ _ _ ____
 72
    65
 73
     6
 40
1.292221999999997
 49
0.646111
 74
     0
 49
-0.129222
 74
     0
 49
0.129222
 74
     0
 49
-0.129222
 74
     0
 49
0.129222
 74
     0
 49
-0.129222
 74
     0
  0
LTYPE
  5
27
330
5
100
AcDbSymbolTableRecord
100
AcDbLinetypeTableRecord
  2
HIDDEN
 70
     0
  3
_ _ _ _ _ _ _ _ _ _ _ _ _ _ _ _ _ _ _ _ _ _ _
 72
    65
 73
     2
 40
0.5168890000000001
 49
0.344593
 74
     0
 49
-0.172296
 74
     0
  0
LTYPE
  5
28
330
5
100
AcDbSymbolTableRecord
100
AcDbLinetypeTableRecord
  2
BORDER
 70
     0
  3
__ __ . __ __ . __ __ . __ __ . __ __ . __ __
 72
    65
 73
     6
 40
0.9047059999999998
 49
0.129222
 74
     0
 49
-0.129222
 74
     0
 49
0.258444
 74
     0
 49
-0.129222
 74
     0
 49
0.0
 74
     0
 49
-0.129222
 74
     0
  0
LTYPE
  5
29
330
5
100
AcDbSymbolTableRecord
100
AcDbLinetypeTableRecord
  2
DIVIDE
 70
     0
  3
__ . . __ . . __ . . __ . . __ . . __ . . __
 72
    65
 73
     6
 40
-0.129222
 49
-0.129222
 74
     0
 49
-0.129222
 74
     0
 49
0.0
 74
     0
 49
-0.129222
 74
     0
 49
0.0
 74
     0
 49
-0.129222
 74
     0
  0
LTYPE
  5
2A
330
5
100
AcDbSymbolTableRecord
100
AcDbLinetypeTableRecord
  2
POINT31
 70
     0
  3
+                                          +
 72
    65
 73
     0
 40
0.0
  0
LTYPE
  5
2B
330
5
100
AcDbSymbolTableRecord
100
AcDbLinetypeTableRecord
  2
POINT63
 70
     0
  3
*                                          *
 72
    65
 73
     0
 40
0.0
  0
LTYPE
  5
2C
330
5
100
AcDbSymbolTableRecord
100
AcDbLinetypeTableRecord
  2
DBLDASH
 70
     0
  3
-- -- -- -- -- -- -- -- -- -- -- -- -- -- --
 72
    65
 73
     4
 40
0.452353
 49
0.129222
 74
     0
 49
-0.129222
 74
     0
 49
0.129222
 74
     0
 49
-0.129222
 74
     0
  0
ENDTAB
  0
TABLE
  2
LAYER
  5
2
330
0
100
AcDbSymbolTable
 70
     3
  0
LAYER
  5
10
330
2
100
AcDbSymbolTableRecord
100
AcDbLayerTableRecord
  2
0
 70
     0
 62
     5
  6
CONTINUOUS
  0
LAYER
  5
2D
330
2
100
AcDbSymbolTableRecord
100
AcDbLayerTableRecord
  2
PEN2
 70
     0
 62
     9
  6
PHANTOM
  0
LAYER
  5
5AB
330
2
100
AcDbSymbolTableRecord
100
AcDbLayerTableRecord
  2
DAMAN
 70
     0
 62
     5
  6
CONTINUOUS
  0
ENDTAB
  0
TABLE
  2
STYLE
  5
3
330
0
100
AcDbSymbolTable
 70
     1
  0
STYLE
  5
11
330
3
100
AcDbSymbolTableRecord
100
AcDbTextStyleTableRecord
  2
STANDARD
 70
     0
 40
0.0
 41
1.0
 50
0.0
 71
     0
 42
0.2
  3
txt
  4

  0
ENDTAB
  0
TABLE
  2
VIEW
  5
6
330
0
100
AcDbSymbolTable
 70
     0
  0
ENDTAB
  0
TABLE
  2
UCS
  5
7
330
0
100
AcDbSymbolTable
 70
     0
  0
ENDTAB
  0
TABLE
  2
APPID
  5
9
330
0
100
AcDbSymbolTable
 70
     1
  0
APPID
  5
12
330
9
100
AcDbSymbolTableRecord
100
AcDbRegAppTableRecord
  2
ACAD
 70
     0
  0
ENDTAB
  0
TABLE
  2
DIMSTYLE
  5
A
330
0
100
AcDbSymbolTable
 70
     1
  0
DIMSTYLE
105
511
330
A
100
AcDbSymbolTableRecord
100
AcDbDimStyleTableRecord
  2
STANDARD
 70
     0
  3

  4

  5

  6

  7

 40
1.0
 41
0.18
 42
0.0625
 43
0.38
 44
0.18
 45
0.0
 46
0.0
 47
0.0
 48
0.0
140
0.18
141
0.09
142
0.0
143
25.4
144
1.0
145
0.0
146
1.0
147
0.09
 71
     0
 72
     0
 73
     1
 74
     1
 75
     0
 76
     0
 77
     0
 78
     0
170
     0
171
     2
172
     0
173
     0
174
     0
175
     0
176
     0
177
     0
178
     0
270
     2
271
     4
272
     4
273
     2
274
     2
340
11
275
     0
280
     0
281
     0
282
     0
283
     1
284
     0
285
     0
286
     0
287
     3
288
     0
  0
ENDTAB
  0
TABLE
  2
BLOCK_RECORD
  5
1
330
0
100
AcDbSymbolTable
 70
     8
  0
BLOCK_RECORD
  5
1E
102
{ACAD_XDICTIONARY
360
55C
102
}
330
1
100
AcDbSymbolTableRecord
100
AcDbBlockTableRecord
  2
*MODEL_SPACE
  0
BLOCK_RECORD
  5
1A
102
{ACAD_XDICTIONARY
360
55A
102
}
330
1
100
AcDbSymbolTableRecord
100
AcDbBlockTableRecord
  2
*PAPER_SPACE
  0
BLOCK_RECORD
  5
564
330
1
100
AcDbSymbolTableRecord
100
AcDbBlockTableRecord
  2
100CROSS
  0
BLOCK_RECORD
  5
568
330
1
100
AcDbSymbolTableRecord
100
AcDbBlockTableRecord
  2
050CROSS
  0
BLOCK_RECORD
  5
571
330
1
100
AcDbSymbolTableRecord
100
AcDbBlockTableRecord
  2
700MKT
  0
BLOCK_RECORD
  5
6F4
330
1
100
AcDbSymbolTableRecord
100
AcDbBlockTableRecord
  2
700MKCT
  0
BLOCK_RECORD
  5
71E
330
1
100
AcDbSymbolTableRecord
100
AcDbBlockTableRecord
  2
A$C0DD1551B
  0
BLOCK_RECORD
  5
79E
330
1
100
AcDbSymbolTableRecord
100
AcDbBlockTableRecord
  2
A$C64CF391A
  0
BLOCK_RECORD
  5
800
330
1
100
AcDbSymbolTableRecord
100
AcDbBlockTableRecord
  2
600MKS
  0
BLOCK_RECORD
  5
82D
330
1
100
AcDbSymbolTableRecord
100
AcDbBlockTableRecord
  2
A$C0A7625C0
  0
ENDTAB
  0
ENDSEC
  0
SECTION
  2
BLOCKS
  0
BLOCK
  5
1F
330
1E
100
AcDbEntity
  8
0
100
AcDbBlockBegin
  2
*MODEL_SPACE
 70
     0
 10
0.0
 20
0.0
 30
0.0
  3
*MODEL_SPACE
  1

  0
ENDBLK
  5
20
330
1E
100
AcDbEntity
  8
0
100
AcDbBlockEnd
  0
BLOCK
  5
1B
330
1A
100
AcDbEntity
 67
     1
  8
0
100
AcDbBlockBegin
  2
*PAPER_SPACE
 70
     0
 10
0.0
 20
0.0
 30
0.0
  3
*PAPER_SPACE
  1

  0
ENDBLK
  5
1C
330
1A
100
AcDbEntity
 67
     1
  8
0
100
AcDbBlockEnd
  0
BLOCK
  5
566
330
564
100
AcDbEntity
  8
0
100
AcDbBlockBegin
  2
100CROSS
 70
     0
 10
5.625
 20
4.59375
 30
0.0
  3
100CROSS
  1

  0
INSERT
  5
565
330
564
100
AcDbEntity
  8
0
100
AcDbBlockReference
  2
050CROSS
 10
5.625
 20
4.59375
 30
0.0
  0
ENDBLK
  5
567
330
564
100
AcDbEntity
  8
0
100
AcDbBlockEnd
  0
BLOCK
  5
56F
330
568
100
AcDbEntity
  8
0
100
AcDbBlockBegin
  2
050CROSS
 70
     0
 10
5.0
 20
5.0
 30
0.0
  3
050CROSS
  1

  0
LINE
  5
569
330
568
100
AcDbEntity
  8
0
100
AcDbLine
 10
5.0
 20
5.28125
 30
0.0
 11
5.0
 21
5.78125
 31
0.0
  0
LINE
  5
56A
330
568
100
AcDbEntity
  8
0
100
AcDbLine
 10
5.0
 20
4.875
 30
0.0
 11
5.0
 21
5.125
 31
0.0
  0
LINE
  5
56B
330
568
100
AcDbEntity
  8
0
100
AcDbLine
 10
5.0
 20
4.15625
 30
0.0
 11
5.0
 21
4.71875
 31
0.0
  0
LINE
  5
56C
330
568
100
AcDbEntity
  8
0
100
AcDbLine
 10
5.25
 20
5.0
 30
0.0
 11
5.8125
 21
5.0
 31
0.0
  0
LINE
  5
56D
330
568
100
AcDbEntity
  8
0
100
AcDbLine
 10
4.90625
 20
5.0
 30
0.0
 11
5.09375
 21
5.0
 31
0.0
  0
LINE
  5
56E
330
568
100
AcDbEntity
  8
0
100
AcDbLine
 10
4.1875
 20
5.0
 30
0.0
 11
4.75
 21
5.0
 31
0.0
  0
ENDBLK
  5
570
330
568
100
AcDbEntity
  8
0
100
AcDbBlockEnd
  0
BLOCK
  5
5A9
330
571
100
AcDbEntity
  8
0
100
AcDbBlockBegin
  2
700MKT
 70
     0
 10
0.0
 20
0.0
 30
0.0
  3
700MKT
  1

  0
LINE
  5
572
330
571
100
AcDbEntity
  8
DAMAN
100
AcDbLine
 10
-1.0625
 20
6.3125
 30
0.0
 11
0.5625
 21
6.3125
 31
0.0
  0
LINE
  5
573
330
571
100
AcDbEntity
  8
DAMAN
100
AcDbLine
 10
0.5625
 20
6.3125
 30
0.0
 11
0.5625
 21
-0.6875
 31
0.0
  0
LINE
  5
574
330
571
100
AcDbEntity
  8
DAMAN
100
AcDbLine
 10
0.5625
 20
-0.6875
 30
0.0
 11
-1.0625
 21
-0.6875
 31
0.0
  0
LINE
  5
575
330
571
100
AcDbEntity
  8
DAMAN
100
AcDbLine
 10
-1.0625
 20
-0.6875
 30
0.0
 11
-1.0625
 21
6.3125
 31
0.0
  0
LINE
  5
576
330
571
100
AcDbEntity
  8
DAMAN
100
AcDbLine
 10
-0.875
 20
-0.6875
 30
0.0
 11
-0.875
 21
6.3125
 31
0.0
  0
LINE
  5
577
330
571
100
AcDbEntity
  8
DAMAN
100
AcDbLine
 10
-0.875
 20
0.53125
 30
0.0
 11
-0.8125
 21
0.53125
 31
0.0
  0
LINE
  5
578
330
571
100
AcDbEntity
  8
DAMAN
100
AcDbLine
 10
-0.8125
 20
0.53125
 30
0.0
 11
-0.8125
 21
-0.53125
 31
0.0
  0
LINE
  5
579
330
571
100
AcDbEntity
  8
DAMAN
100
AcDbLine
 10
-0.8125
 20
-0.53125
 30
0.0
 11
-0.875
 21
-0.53125
 31
0.0
  0
LINE
  5
57A
330
571
100
AcDbEntity
  8
DAMAN
100
AcDbLine
 10
-0.8125
 20
0.4330130000000001
 30
0.0
 11
-0.5428350000000001
 21
0.4330130000000001
 31
0.0
  0
LINE
  5
57B
330
571
100
AcDbEntity
  8
DAMAN
100
AcDbLine
 10
-0.5
 20
0.358821
 30
0.0
 11
-0.5
 21
-0.358821
 31
0.0
  0
LINE
  5
57C
330
571
100
AcDbEntity
  8
DAMAN
100
AcDbLine
 10
-0.5428350000000001
 20
-0.4330130000000001
 30
0.0
 11
-0.8125
 21
-0.4330130000000001
 31
0.0
  0
LINE
  5
57D
330
571
100
AcDbEntity
  8
DAMAN
100
AcDbLine
 10
-0.8125
 20
0.216506
 30
0.0
 11
-0.5625
 21
0.216506
 31
0.0
  0
LINE
  5
57E
330
571
100
AcDbEntity
  8
DAMAN
100
AcDbLine
 10
-0.8125
 20
-0.216506
 30
0.0
 11
-0.5625
 21
-0.216506
 31
0.0
  0
ARC
  5
57F
330
571
100
AcDbEntity
  8
DAMAN
100
AcDbCircle
 10
-0.90625
 20
0.0
 30
0.0
 40
0.40625
100
AcDbArc
 50
327.7957719999998
 51
32.204228
  0
ARC
  5
580
330
571
100
AcDbEntity
  8
DAMAN
100
AcDbCircle
 10
-0.625
 20
-0.32476
 30
0.0
 40
0.125
100
AcDbArc
 50
300.0
 51
60.0
  0
ARC
  5
581
330
571
100
AcDbEntity
  8
DAMAN
100
AcDbCircle
 10
-0.625
 20
0.32476
 30
0.0
 40
0.125
100
AcDbArc
 50
300.0
 51
60.0
  0
LINE
  5
582
330
571
100
AcDbEntity
  8
DAMAN
100
AcDbLine
 10
-0.5428350000000001
 20
0.4330130000000001
 30
0.0
 11
-0.5
 21
0.358821
 31
0.0
  0
LINE
  5
583
330
571
100
AcDbEntity
  8
DAMAN
100
AcDbLine
 10
-0.5428350000000001
 20
-0.4330130000000001
 30
0.0
 11
-0.5
 21
-0.358821
 31
0.0
  0
LINE
  5
584
330
571
100
AcDbEntity
  8
DAMAN
100
AcDbLine
 10
-1.0625
 20
0.25
 30
0.0
 11
-1.78125
 21
0.25
 31
0.0
  0
LINE
  5
585
330
571
100
AcDbEntity
  8
DAMAN
100
AcDbLine
 10
-1.78125
 20
0.25
 30
0.0
 11
-1.8125
 21
0.21875
 31
0.0
  0
LINE
  5
586
330
571
100
AcDbEntity
  8
DAMAN
100
AcDbLine
 10
-1.8125
 20
0.21875
 30
0.0
 11
-1.8125
 21
-0.21875
 31
0.0
  0
LINE
  5
587
330
571
100
AcDbEntity
  8
DAMAN
100
AcDbLine
 10
-1.8125
 20
-0.21875
 30
0.0
 11
-1.78125
 21
-0.25
 31
0.0
  0
LINE
  5
588
330
571
100
AcDbEntity
  8
DAMAN
100
AcDbLine
 10
-1.78125
 20
-0.25
 30
0.0
 11
-1.0625
 21
-0.25
 31
0.0
  0
LINE
  5
589
330
571
100
AcDbEntity
  8
DAMAN
100
AcDbLine
 10
-1.0625
 20
0.21875
 30
0.0
 11
-1.8125
 21
0.21875
 31
0.0
  0
LINE
  5
58A
330
571
100
AcDbEntity
  8
DAMAN
100
AcDbLine
 10
-1.0625
 20
-0.21875
 30
0.0
 11
-1.8125
 21
-0.21875
 31
0.0
  0
LINE
  5
58B
330
571
100
AcDbEntity
  8
DAMAN
100
AcDbLine
 10
-0.375
 20
0.0
 30
0.0
 11
-1.90625
 21
0.0
 31
0.0
  0
LINE
  5
58C
330
571
100
AcDbEntity
  8
DAMAN
100
AcDbLine
 10
-0.375
 20
5.625
 30
0.0
 11
-1.90625
 21
5.625
 31
0.0
  0
LINE
  5
58D
330
571
100
AcDbEntity
  8
DAMAN
100
AcDbLine
 10
-1.0625
 20
5.40625
 30
0.0
 11
-1.8125
 21
5.40625
 31
0.0
  0
LINE
  5
58E
330
571
100
AcDbEntity
  8
DAMAN
100
AcDbLine
 10
-1.78125
 20
5.375
 30
0.0
 11
-1.0625
 21
5.375
 31
0.0
  0
LINE
  5
58F
330
571
100
AcDbEntity
  8
DAMAN
100
AcDbLine
 10
-1.0625
 20
5.84375
 30
0.0
 11
-1.8125
 21
5.84375
 31
0.0
  0
LINE
  5
590
330
571
100
AcDbEntity
  8
DAMAN
100
AcDbLine
 10
-1.0625
 20
5.875
 30
0.0
 11
-1.78125
 21
5.875
 31
0.0
  0
LINE
  5
591
330
571
100
AcDbEntity
  8
DAMAN
100
AcDbLine
 10
-1.8125
 20
5.84375
 30
0.0
 11
-1.8125
 21
5.40625
 31
0.0
  0
LINE
  5
592
330
571
100
AcDbEntity
  8
DAMAN
100
AcDbLine
 10
-1.78125
 20
5.875
 30
0.0
 11
-1.8125
 21
5.84375
 31
0.0
  0
LINE
  5
593
330
571
100
AcDbEntity
  8
DAMAN
100
AcDbLine
 10
-1.8125
 20
5.40625
 30
0.0
 11
-1.78125
 21
5.375
 31
0.0
  0
ARC
  5
594
330
571
100
AcDbEntity
  8
DAMAN
100
AcDbCircle
 10
-0.90625
 20
5.625
 30
0.0
 40
0.40625
100
AcDbArc
 50
327.7957719999998
 51
32.204228
  0
LINE
  5
595
330
571
100
AcDbEntity
  8
DAMAN
100
AcDbLine
 10
-0.8125
 20
6.15625
 30
0.0
 11
-0.8125
 21
5.09375
 31
0.0
  0
LINE
  5
596
330
571
100
AcDbEntity
  8
DAMAN
100
AcDbLine
 10
-0.5
 20
5.983820999999998
 30
0.0
 11
-0.5
 21
5.266179
 31
0.0
  0
ARC
  5
597
330
571
100
AcDbEntity
  8
DAMAN
100
AcDbCircle
 10
-0.625
 20
5.949759999999998
 30
0.0
 40
0.125
100
AcDbArc
 50
300.0
 51
60.0
  0
LINE
  5
598
330
571
100
AcDbEntity
  8
DAMAN
100
AcDbLine
 10
-0.5428350000000001
 20
6.058012999999998
 30
0.0
 11
-0.5
 21
5.983820999999998
 31
0.0
  0
LINE
  5
599
330
571
100
AcDbEntity
  8
DAMAN
100
AcDbLine
 10
-0.8125
 20
6.058012999999998
 30
0.0
 11
-0.5428350000000001
 21
6.058012999999998
 31
0.0
  0
LINE
  5
59A
330
571
100
AcDbEntity
  8
DAMAN
100
AcDbLine
 10
-0.875
 20
6.15625
 30
0.0
 11
-0.8125
 21
6.15625
 31
0.0
  0
LINE
  5
59B
330
571
100
AcDbEntity
  8
DAMAN
100
AcDbLine
 10
-0.8125
 20
5.841505999999998
 30
0.0
 11
-0.5625
 21
5.841505999999998
 31
0.0
  0
ARC
  5
59C
330
571
100
AcDbEntity
  8
DAMAN
100
AcDbCircle
 10
-0.625
 20
5.30024
 30
0.0
 40
0.125
100
AcDbArc
 50
300.0
 51
60.0
  0
LINE
  5
59D
330
571
100
AcDbEntity
  8
DAMAN
100
AcDbLine
 10
-0.8125
 20
5.408494
 30
0.0
 11
-0.5625
 21
5.408494
 31
0.0
  0
LINE
  5
59E
330
571
100
AcDbEntity
  8
DAMAN
100
AcDbLine
 10
-0.5428350000000001
 20
5.191987
 30
0.0
 11
-0.8125
 21
5.191987
 31
0.0
  0
LINE
  5
59F
330
571
100
AcDbEntity
  8
DAMAN
100
AcDbLine
 10
-0.8125
 20
5.09375
 30
0.0
 11
-0.875
 21
5.09375
 31
0.0
  0
LINE
  5
5A0
330
571
100
AcDbEntity
  8
DAMAN
100
AcDbLine
 10
-0.5428350000000001
 20
5.191987
 30
0.0
 11
-0.5
 21
5.266179
 31
0.0
  0
CIRCLE
  5
5A1
330
571
100
AcDbEntity
  8
DAMAN
100
AcDbCircle
 10
0.0
 20
5.625
 30
0.0
 40
0.53125
  0
CIRCLE
  5
5A2
330
571
100
AcDbEntity
  8
DAMAN
100
AcDbCircle
 10
0.0
 20
0.0
 30
0.0
 40
0.53125
  0
LWPOLYLINE
  5
5A3
330
571
100
AcDbEntity
  8
DAMAN
100
AcDbPolyline
 90
        6
 70
     1
 43
0.0
 10
0.375
 20
5.841505999999998
 10
0.0
 20
6.058012999999998
 10
-0.375
 20
5.841505999999998
 10
-0.375
 20
5.408494
 10
0.0
 20
5.191987
 10
0.375
 20
5.408494
  0
CIRCLE
  5
5A4
330
571
100
AcDbEntity
  8
DAMAN
100
AcDbCircle
 10
0.0
 20
5.625
 30
0.0
 40
0.375
  0
CIRCLE
  5
5A5
330
571
100
AcDbEntity
  8
DAMAN
100
AcDbCircle
 10
0.0
 20
0.0
 30
0.0
 40
0.375
  0
LWPOLYLINE
  5
5A6
330
571
100
AcDbEntity
  8
DAMAN
100
AcDbPolyline
 90
        6
 70
     1
 43
0.0
 10
0.375
 20
0.216506
 10
0.0
 20
0.4330130000000001
 10
-0.375
 20
0.216506
 10
-0.375
 20
-0.216506
 10
0.0
 20
-0.4330130000000001
 10
0.375
 20
-0.216506
  0
INSERT
  5
5A7
330
571
100
AcDbEntity
  8
DAMAN
100
AcDbBlockReference
  2
100CROSS
 10
0.0
 20
5.625
 30
0.0
 41
0.8
 42
0.8
  0
INSERT
  5
5A8
330
571
100
AcDbEntity
  8
DAMAN
100
AcDbBlockReference
  2
100CROSS
 10
0.0
 20
0.0
 30
0.0
 41
0.8
 42
0.8
  0
ENDBLK
  5
5AA
330
571
100
AcDbEntity
  8
0
100
AcDbBlockEnd
  0
BLOCK
  5
71C
330
6F4
100
AcDbEntity
  8
0
100
AcDbBlockBegin
  2
700MKCT
 70
     0
 10
0.0
 20
0.0
 30
0.0
  3
700MKCT
  1

  0
LINE
  5
6F5
330
6F4
100
AcDbEntity
  8
DAMAN
100
AcDbLine
 10
-1.0625
 20
6.3125
 30
0.0
 11
0.5625
 21
6.3125
 31
0.0
  0
LINE
  5
6F6
330
6F4
100
AcDbEntity
  8
DAMAN
100
AcDbLine
 10
0.5625
 20
6.3125
 30
0.0
 11
0.5625
 21
-0.6875
 31
0.0
  0
LINE
  5
6F7
330
6F4
100
AcDbEntity
  8
DAMAN
100
AcDbLine
 10
0.5625
 20
-0.6875
 30
0.0
 11
-1.0625
 21
-0.6875
 31
0.0
  0
LINE
  5
6F8
330
6F4
100
AcDbEntity
  8
DAMAN
100
AcDbLine
 10
-1.0625
 20
-0.6875
 30
0.0
 11
-1.0625
 21
6.3125
 31
0.0
  0
LINE
  5
6F9
330
6F4
100
AcDbEntity
  8
DAMAN
100
AcDbLine
 10
-0.875
 20
-0.6875
 30
0.0
 11
-0.875
 21
6.3125
 31
0.0
  0
LINE
  5
6FA
330
6F4
100
AcDbEntity
  8
DAMAN
100
AcDbLine
 10
-0.875
 20
0.53125
 30
0.0
 11
-0.8125
 21
0.53125
 31
0.0
  0
LINE
  5
6FB
330
6F4
100
AcDbEntity
  8
DAMAN
100
AcDbLine
 10
-0.8125
 20
0.53125
 30
0.0
 11
-0.8125
 21
-0.53125
 31
0.0
  0
LINE
  5
6FC
330
6F4
100
AcDbEntity
  8
DAMAN
100
AcDbLine
 10
-0.8125
 20
-0.53125
 30
0.0
 11
-0.875
 21
-0.53125
 31
0.0
  0
LINE
  5
6FD
330
6F4
100
AcDbEntity
  8
DAMAN
100
AcDbLine
 10
-0.8125
 20
0.4330130000000001
 30
0.0
 11
-0.5428350000000001
 21
0.4330130000000001
 31
0.0
  0
LINE
  5
6FE
330
6F4
100
AcDbEntity
  8
DAMAN
100
AcDbLine
 10
-0.5
 20
0.358821
 30
0.0
 11
-0.5
 21
-0.358821
 31
0.0
  0
LINE
  5
6FF
330
6F4
100
AcDbEntity
  8
DAMAN
100
AcDbLine
 10
-0.5428350000000001
 20
-0.4330130000000001
 30
0.0
 11
-0.8125
 21
-0.4330130000000001
 31
0.0
  0
LINE
  5
700
330
6F4
100
AcDbEntity
  8
DAMAN
100
AcDbLine
 10
-0.8125
 20
0.216506
 30
0.0
 11
-0.5625
 21
0.216506
 31
0.0
  0
LINE
  5
701
330
6F4
100
AcDbEntity
  8
DAMAN
100
AcDbLine
 10
-0.8125
 20
-0.216506
 30
0.0
 11
-0.5625
 21
-0.216506
 31
0.0
  0
ARC
  5
702
330
6F4
100
AcDbEntity
  8
DAMAN
100
AcDbCircle
 10
-0.90625
 20
0.0
 30
0.0
 40
0.40625
100
AcDbArc
 50
327.7957719999999
 51
32.204228
  0
ARC
  5
703
330
6F4
100
AcDbEntity
  8
DAMAN
100
AcDbCircle
 10
-0.625
 20
-0.32476
 30
0.0
 40
0.125
100
AcDbArc
 50
300.0
 51
60.0
  0
ARC
  5
704
330
6F4
100
AcDbEntity
  8
DAMAN
100
AcDbCircle
 10
-0.625
 20
0.32476
 30
0.0
 40
0.125
100
AcDbArc
 50
300.0
 51
60.0
  0
LINE
  5
705
330
6F4
100
AcDbEntity
  8
DAMAN
100
AcDbLine
 10
-0.5428350000000001
 20
0.4330130000000001
 30
0.0
 11
-0.5
 21
0.358821
 31
0.0
  0
LINE
  5
706
330
6F4
100
AcDbEntity
  8
DAMAN
100
AcDbLine
 10
-0.5428350000000001
 20
-0.4330130000000001
 30
0.0
 11
-0.5
 21
-0.358821
 31
0.0
  0
ARC
  5
707
330
6F4
100
AcDbEntity
  8
DAMAN
100
AcDbCircle
 10
-0.90625
 20
5.625
 30
0.0
 40
0.40625
100
AcDbArc
 50
327.7957719999999
 51
32.204228
  0
LINE
  5
708
330
6F4
100
AcDbEntity
  8
DAMAN
100
AcDbLine
 10
-0.8125
 20
6.15625
 30
0.0
 11
-0.8125
 21
5.09375
 31
0.0
  0
LINE
  5
709
330
6F4
100
AcDbEntity
  8
DAMAN
100
AcDbLine
 10
-0.5
 20
5.983820999999999
 30
0.0
 11
-0.5
 21
5.266179
 31
0.0
  0
ARC
  5
70A
330
6F4
100
AcDbEntity
  8
DAMAN
100
AcDbCircle
 10
-0.625
 20
5.949759999999999
 30
0.0
 40
0.125
100
AcDbArc
 50
300.0
 51
60.0
  0
LINE
  5
70B
330
6F4
100
AcDbEntity
  8
DAMAN
100
AcDbLine
 10
-0.5428350000000001
 20
6.058012999999999
 30
0.0
 11
-0.5
 21
5.983820999999999
 31
0.0
  0
LINE
  5
70C
330
6F4
100
AcDbEntity
  8
DAMAN
100
AcDbLine
 10
-0.8125
 20
6.058012999999999
 30
0.0
 11
-0.5428350000000001
 21
6.058012999999999
 31
0.0
  0
LINE
  5
70D
330
6F4
100
AcDbEntity
  8
DAMAN
100
AcDbLine
 10
-0.875
 20
6.15625
 30
0.0
 11
-0.8125
 21
6.15625
 31
0.0
  0
LINE
  5
70E
330
6F4
100
AcDbEntity
  8
DAMAN
100
AcDbLine
 10
-0.8125
 20
5.841505999999999
 30
0.0
 11
-0.5625
 21
5.841505999999999
 31
0.0
  0
ARC
  5
70F
330
6F4
100
AcDbEntity
  8
DAMAN
100
AcDbCircle
 10
-0.625
 20
5.30024
 30
0.0
 40
0.125
100
AcDbArc
 50
300.0
 51
60.0
  0
LINE
  5
710
330
6F4
100
AcDbEntity
  8
DAMAN
100
AcDbLine
 10
-0.8125
 20
5.408494
 30
0.0
 11
-0.5625
 21
5.408494
 31
0.0
  0
LINE
  5
711
330
6F4
100
AcDbEntity
  8
DAMAN
100
AcDbLine
 10
-0.5428350000000001
 20
5.191987
 30
0.0
 11
-0.8125
 21
5.191987
 31
0.0
  0
LINE
  5
712
330
6F4
100
AcDbEntity
  8
DAMAN
100
AcDbLine
 10
-0.8125
 20
5.09375
 30
0.0
 11
-0.875
 21
5.09375
 31
0.0
  0
LINE
  5
713
330
6F4
100
AcDbEntity
  8
DAMAN
100
AcDbLine
 10
-0.5428350000000001
 20
5.191987
 30
0.0
 11
-0.5
 21
5.266179
 31
0.0
  0
CIRCLE
  5
714
330
6F4
100
AcDbEntity
  8
DAMAN
100
AcDbCircle
 10
0.0
 20
5.625
 30
0.0
 40
0.53125
  0
CIRCLE
  5
715
330
6F4
100
AcDbEntity
  8
DAMAN
100
AcDbCircle
 10
0.0
 20
0.0
 30
0.0
 40
0.53125
  0
LWPOLYLINE
  5
716
330
6F4
100
AcDbEntity
  8
DAMAN
100
AcDbPolyline
 90
        6
 70
     1
 43
0.0
 10
0.375
 20
5.841505999999999
 10
0.0
 20
6.058012999999999
 10
-0.375
 20
5.841505999999999
 10
-0.375
 20
5.408494
 10
0.0
 20
5.191987
 10
0.375
 20
5.408494
  0
CIRCLE
  5
717
330
6F4
100
AcDbEntity
  8
DAMAN
100
AcDbCircle
 10
0.0
 20
5.625
 30
0.0
 40
0.375
  0
CIRCLE
  5
718
330
6F4
100
AcDbEntity
  8
DAMAN
100
AcDbCircle
 10
0.0
 20
0.0
 30
0.0
 40
0.375
  0
LWPOLYLINE
  5
719
330
6F4
100
AcDbEntity
  8
DAMAN
100
AcDbPolyline
 90
        6
 70
     1
 43
0.0
 10
0.375
 20
0.216506
 10
0.0
 20
0.4330130000000001
 10
-0.375
 20
0.216506
 10
-0.375
 20
-0.216506
 10
0.0
 20
-0.4330130000000001
 10
0.375
 20
-0.216506
  0
INSERT
  5
71A
330
6F4
100
AcDbEntity
  8
DAMAN
100
AcDbBlockReference
  2
100CROSS
 10
0.0
 20
5.625
 30
0.0
 41
0.8
 42
0.8
  0
INSERT
  5
71B
330
6F4
100
AcDbEntity
  8
DAMAN
100
AcDbBlockReference
  2
100CROSS
 10
0.0
 20
0.0
 30
0.0
 41
0.8
 42
0.8
  0
ENDBLK
  5
71D
330
6F4
100
AcDbEntity
  8
0
100
AcDbBlockEnd
  0
BLOCK
  5
722
330
71E
100
AcDbEntity
  8
0
100
AcDbBlockBegin
  2
A$C0DD1551B
 70
     0
 10
0.0
 20
0.0
 30
0.0
  3
A$C0DD1551B
  1

  0
INSERT
  5
71F
330
71E
100
AcDbEntity
  8
DAMAN
100
AcDbBlockReference
  2
700MKCT
 10
-1.0625
 20
-0.6875
 30
0.0
 50
180.0
  0
LINE
  5
720
330
71E
100
AcDbEntity
  8
DAMAN
100
AcDbLine
 10
0.0
 20
0.0
 30
0.0
 11
0.0
 21
-7.0
 31
0.0
  0
LINE
  5
721
330
71E
100
AcDbEntity
  8
DAMAN
100
AcDbLine
 10
0.0
 20
0.0
 30
0.0
 11
0.0
 21
-7.0
 31
0.0
  0
ENDBLK
  5
723
330
71E
100
AcDbEntity
  8
0
100
AcDbBlockEnd
  0
BLOCK
  5
7DA
330
79E
100
AcDbEntity
  8
0
100
AcDbBlockBegin
  2
A$C64CF391A
 70
     0
 10
0.0
 20
0.0
 30
0.0
  3
A$C64CF391A
  1

  0
INSERT
  5
79F
330
79E
100
AcDbEntity
  8
DAMAN
100
AcDbBlockReference
  2
100CROSS
 10
1.033860895416168
 20
-4.928872856733093
 30
0.0
 41
0.8000000000000007
 42
0.8000000000000007
 50
180.0
  0
LINE
  5
7A0
330
79E
100
AcDbEntity
  8
DAMAN
100
AcDbLine
 10
2.096360895416168
 20
-0.4283728567330912
 30
0.0
 11
2.096360895416168
 21
-9.428372856733091
 31
0.0
  0
LINE
  5
7A1
330
79E
100
AcDbEntity
  8
DAMAN
100
AcDbLine
 10
2.096360895416168
 20
-0.4283728567330912
 30
0.0
 11
2.096360895416168
 21
-9.428372856733091
 31
0.0
  0
LINE
  5
7A2
330
79E
100
AcDbEntity
  8
DAMAN
100
AcDbLine
 10
0.4713608954161686
 20
-9.428372856733091
 30
0.0
 11
0.4713608954161686
 21
-0.4283728567330912
 31
0.0
  0
LINE
  5
7A3
330
79E
100
AcDbEntity
  8
DAMAN
100
AcDbLine
 10
2.096360895416168
 20
-0.4283728567330912
 30
0.0
 11
2.096360895416168
 21
-9.428372856733091
 31
0.0
  0
LINE
  5
7A4
330
79E
100
AcDbEntity
  8
DAMAN
100
AcDbLine
 10
1.908860895416168
 20
-0.4283728567330912
 30
0.0
 11
1.908860895416168
 21
-9.428372856733091
 31
0.0
  0
LINE
  5
7A5
330
79E
100
AcDbEntity
  8
0
  6
CONTINUOUS
 62
     5
100
AcDbLine
 10
2.096360895416168
 20
-0.4283728567330912
 30
0.0
 11
2.096360895416168
 21
-9.428372856733091
 31
0.0
  0
INSERT
  5
7A6
330
79E
100
AcDbEntity
  8
DAMAN
100
AcDbBlockReference
  2
100CROSS
 10
1.033860895416168
 20
-8.740872856733091
 30
0.0
 41
0.8000000000000007
 42
0.8000000000000007
 50
180.0
  0
LINE
  5
7A7
330
79E
100
AcDbEntity
  8
DAMAN
100
AcDbLine
 10
2.096360895416168
 20
-9.428372856733091
 30
0.0
 11
0.4713608954161686
 21
-9.428372856733091
 31
0.0
  0
LINE
  5
7A8
330
79E
100
AcDbEntity
  8
DAMAN
100
AcDbLine
 10
1.846360895416168
 20
-9.17388585673309
 30
0.0
 11
1.576695895416168
 21
-9.17388585673309
 31
0.0
  0
LINE
  5
7A9
330
79E
100
AcDbEntity
  8
DAMAN
100
AcDbLine
 10
1.846360895416168
 20
-8.95737885673309
 30
0.0
 11
1.596360895416168
 21
-8.95737885673309
 31
0.0
  0
LINE
  5
7AA
330
79E
100
AcDbEntity
  8
DAMAN
100
AcDbLine
 10
1.846360895416168
 20
-8.524366856733092
 30
0.0
 11
1.596360895416168
 21
-8.524366856733092
 31
0.0
  0
LINE
  5
7AB
330
79E
100
AcDbEntity
  8
DAMAN
100
AcDbLine
 10
1.576695895416168
 20
-8.307859856733092
 30
0.0
 11
1.846360895416168
 21
-8.307859856733092
 31
0.0
  0
LWPOLYLINE
  5
7AC
330
79E
100
AcDbEntity
  8
DAMAN
100
AcDbPolyline
 90
        6
 70
     1
 43
0.0
 10
0.6588608954161686
 20
-8.95737885673309
 10
1.033860895416168
 20
-9.17388585673309
 10
1.408860895416168
 20
-8.95737885673309
 10
1.408860895416168
 20
-8.524366856733092
 10
1.033860895416168
 20
-8.307859856733092
 10
0.6588608954161686
 20
-8.524366856733092
  0
ARC
  5
7AD
330
79E
100
AcDbEntity
  8
DAMAN
100
AcDbCircle
 10
1.940110895416168
 20
-8.740872856733091
 30
0.0
 40
0.40625
100
AcDbArc
 50
147.795772
 51
212.2042279999999
  0
LINE
  5
7AE
330
79E
100
AcDbEntity
  8
DAMAN
100
AcDbLine
 10
1.533860895416168
 20
-9.09969385673309
 30
0.0
 11
1.533860895416168
 21
-8.382051856733092
 31
0.0
  0
CIRCLE
  5
7AF
330
79E
100
AcDbEntity
  8
DAMAN
100
AcDbCircle
 10
1.033860895416168
 20
-8.740872856733091
 30
0.0
 40
0.53125
  0
CIRCLE
  5
7B0
330
79E
100
AcDbEntity
  8
DAMAN
100
AcDbCircle
 10
1.033860895416168
 20
-8.740872856733091
 30
0.0
 40
0.375
  0
LINE
  5
7B1
330
79E
100
AcDbEntity
  8
DAMAN
100
AcDbLine
 10
1.576695895416168
 20
-9.17388585673309
 30
0.0
 11
1.533860895416168
 21
-9.09969385673309
 31
0.0
  0
ARC
  5
7B2
330
79E
100
AcDbEntity
  8
DAMAN
100
AcDbCircle
 10
1.658860895416168
 20
-9.065632856733088
 30
0.0
 40
0.125
100
AcDbArc
 50
120.0
 51
239.9999999999999
  0
LINE
  5
7B3
330
79E
100
AcDbEntity
  8
DAMAN
100
AcDbLine
 10
1.576695895416168
 20
-8.307859856733092
 30
0.0
 11
1.533860895416168
 21
-8.382051856733092
 31
0.0
  0
ARC
  5
7B4
330
79E
100
AcDbEntity
  8
DAMAN
100
AcDbCircle
 10
1.658860895416168
 20
-8.416112856733093
 30
0.0
 40
0.125
100
AcDbArc
 50
120.0
 51
239.9999999999999
  0
LINE
  5
7B5
330
79E
100
AcDbEntity
  8
DAMAN
100
AcDbLine
 10
1.846360895416168
 20
-9.272122856733091
 30
0.0
 11
1.846360895416168
 21
-8.209622856733091
 31
0.0
  0
LINE
  5
7B6
330
79E
100
AcDbEntity
  8
DAMAN
100
AcDbLine
 10
1.908860895416168
 20
-9.272122856733091
 30
0.0
 11
1.846360895416168
 21
-9.272122856733091
 31
0.0
  0
LINE
  5
7B7
330
79E
100
AcDbEntity
  8
DAMAN
100
AcDbLine
 10
1.846360895416168
 20
-8.209622856733091
 30
0.0
 11
1.908860895416168
 21
-8.209622856733091
 31
0.0
  0
LINE
  5
7B8
330
79E
100
AcDbEntity
  8
DAMAN
100
AcDbLine
 10
0.4713608954161686
 20
-0.4283728567330912
 30
0.0
 11
2.096360895416168
 21
-0.4283728567330912
 31
0.0
  0
INSERT
  5
7B9
330
79E
100
AcDbEntity
  8
DAMAN
100
AcDbBlockReference
  2
100CROSS
 10
1.033860895416168
 20
-1.115872856733091
 30
0.0
 41
0.8000000000000007
 42
0.8000000000000007
 50
180.0
  0
LINE
  5
7BA
330
79E
100
AcDbEntity
  8
DAMAN
100
AcDbLine
 10
1.846360895416168
 20
-1.647122856733091
 30
0.0
 11
1.846360895416168
 21
-0.5846228567330912
 31
0.0
  0
LWPOLYLINE
  5
7BB
330
79E
100
AcDbEntity
  8
DAMAN
100
AcDbPolyline
 90
        6
 70
     1
 43
0.0
 10
0.6588608954161686
 20
-1.33237885673309
 10
1.033860895416168
 20
-1.54888585673309
 10
1.408860895416168
 20
-1.33237885673309
 10
1.408860895416168
 20
-0.8993668567330921
 10
1.033860895416168
 20
-0.6828598567330922
 10
0.6588608954161686
 20
-0.8993668567330921
  0
CIRCLE
  5
7BC
330
79E
100
AcDbEntity
  8
DAMAN
100
AcDbCircle
 10
1.033860895416168
 20
-1.115872856733091
 30
0.0
 40
0.375
  0
CIRCLE
  5
7BD
330
79E
100
AcDbEntity
  8
DAMAN
100
AcDbCircle
 10
1.033860895416168
 20
-1.115872856733091
 30
0.0
 40
0.53125
  0
ARC
  5
7BE
330
79E
100
AcDbEntity
  8
DAMAN
100
AcDbCircle
 10
1.940110895416168
 20
-1.115872856733091
 30
0.0
 40
0.40625
100
AcDbArc
 50
147.795772
 51
212.2042279999999
  0
LINE
  5
7BF
330
79E
100
AcDbEntity
  8
DAMAN
100
AcDbLine
 10
1.533860895416168
 20
-1.47469385673309
 30
0.0
 11
1.533860895416168
 21
-0.7570518567330922
 31
0.0
  0
LINE
  5
7C0
330
79E
100
AcDbEntity
  8
DAMAN
100
AcDbLine
 10
1.576695895416168
 20
-4.495859856733094
 30
0.0
 11
1.846360895416168
 21
-4.495859856733094
 31
0.0
  0
LINE
  5
7C1
330
79E
100
AcDbEntity
  8
DAMAN
100
AcDbLine
 10
1.846360895416168
 20
-4.712366856733094
 30
0.0
 11
1.596360895416168
 21
-4.712366856733094
 31
0.0
  0
LINE
  5
7C2
330
79E
100
AcDbEntity
  8
DAMAN
100
AcDbLine
 10
1.846360895416168
 20
-5.361885856733092
 30
0.0
 11
1.576695895416168
 21
-5.361885856733092
 31
0.0
  0
LINE
  5
7C3
330
79E
100
AcDbEntity
  8
DAMAN
100
AcDbLine
 10
1.846360895416168
 20
-5.145378856733092
 30
0.0
 11
1.596360895416168
 21
-5.145378856733092
 31
0.0
  0
CIRCLE
  5
7C4
330
79E
100
AcDbEntity
  8
DAMAN
100
AcDbCircle
 10
1.033860895416168
 20
-4.928872856733093
 30
0.0
 40
0.53125
  0
CIRCLE
  5
7C5
330
79E
100
AcDbEntity
  8
DAMAN
100
AcDbCircle
 10
1.033860895416168
 20
-4.928872856733093
 30
0.0
 40
0.375
  0
LWPOLYLINE
  5
7C6
330
79E
100
AcDbEntity
  8
DAMAN
100
AcDbPolyline
 90
        6
 70
     1
 43
0.0
 10
0.6588608954161686
 20
-5.145378856733092
 10
1.033860895416168
 20
-5.361885856733092
 10
1.408860895416168
 20
-5.145378856733092
 10
1.408860895416168
 20
-4.712366856733094
 10
1.033860895416168
 20
-4.495859856733094
 10
0.6588608954161686
 20
-4.712366856733094
  0
LINE
  5
7C7
330
79E
100
AcDbEntity
  8
DAMAN
100
AcDbLine
 10
1.533860895416168
 20
-5.287693856733092
 30
0.0
 11
1.533860895416168
 21
-4.570051856733094
 31
0.0
  0
ARC
  5
7C8
330
79E
100
AcDbEntity
  8
DAMAN
100
AcDbCircle
 10
1.940110895416168
 20
-4.928872856733093
 30
0.0
 40
0.40625
100
AcDbArc
 50
147.795772
 51
212.2042279999999
  0
ARC
  5
7C9
330
79E
100
AcDbEntity
  8
DAMAN
100
AcDbCircle
 10
1.658860895416168
 20
-5.253632856733094
 30
0.0
 40
0.125
100
AcDbArc
 50
120.0
 51
239.9999999999999
  0
LINE
  5
7CA
330
79E
100
AcDbEntity
  8
DAMAN
100
AcDbLine
 10
1.576695895416168
 20
-5.361885856733092
 30
0.0
 11
1.533860895416168
 21
-5.287693856733092
 31
0.0
  0
ARC
  5
7CB
330
79E
100
AcDbEntity
  8
DAMAN
100
AcDbCircle
 10
1.658860895416168
 20
-4.604112856733092
 30
0.0
 40
0.125
100
AcDbArc
 50
120.0
 51
239.9999999999999
  0
LINE
  5
7CC
330
79E
100
AcDbEntity
  8
DAMAN
100
AcDbLine
 10
1.576695895416168
 20
-4.495859856733094
 30
0.0
 11
1.533860895416168
 21
-4.570051856733094
 31
0.0
  0
LINE
  5
7CD
330
79E
100
AcDbEntity
  8
DAMAN
100
AcDbLine
 10
1.846360895416168
 20
-5.460122856733093
 30
0.0
 11
1.846360895416168
 21
-4.397622856733093
 31
0.0
  0
LINE
  5
7CE
330
79E
100
AcDbEntity
  8
DAMAN
100
AcDbLine
 10
1.908860895416168
 20
-5.460122856733093
 30
0.0
 11
1.846360895416168
 21
-5.460122856733093
 31
0.0
  0
LINE
  5
7CF
330
79E
100
AcDbEntity
  8
DAMAN
100
AcDbLine
 10
1.846360895416168
 20
-4.397622856733093
 30
0.0
 11
1.908860895416168
 21
-4.397622856733093
 31
0.0
  0
LINE
  5
7D0
330
79E
100
AcDbEntity
  8
DAMAN
100
AcDbLine
 10
1.846360895416168
 20
-1.33237885673309
 30
0.0
 11
1.596360895416168
 21
-1.33237885673309
 31
0.0
  0
LINE
  5
7D1
330
79E
100
AcDbEntity
  8
DAMAN
100
AcDbLine
 10
1.846360895416168
 20
-1.54888585673309
 30
0.0
 11
1.576695895416168
 21
-1.54888585673309
 31
0.0
  0
LINE
  5
7D2
330
79E
100
AcDbEntity
  8
DAMAN
100
AcDbLine
 10
1.576695895416168
 20
-1.54888585673309
 30
0.0
 11
1.533860895416168
 21
-1.47469385673309
 31
0.0
  0
ARC
  5
7D3
330
79E
100
AcDbEntity
  8
DAMAN
100
AcDbCircle
 10
1.658860895416168
 20
-1.440632856733092
 30
0.0
 40
0.125
100
AcDbArc
 50
120.0
 51
239.9999999999999
  0
LINE
  5
7D4
330
79E
100
AcDbEntity
  8
DAMAN
100
AcDbLine
 10
1.908860895416168
 20
-1.647122856733091
 30
0.0
 11
1.846360895416168
 21
-1.647122856733091
 31
0.0
  0
LINE
  5
7D5
330
79E
100
AcDbEntity
  8
DAMAN
100
AcDbLine
 10
1.846360895416168
 20
-0.8993668567330921
 30
0.0
 11
1.596360895416168
 21
-0.8993668567330921
 31
0.0
  0
LINE
  5
7D6
330
79E
100
AcDbEntity
  8
DAMAN
100
AcDbLine
 10
1.576695895416168
 20
-0.6828598567330922
 30
0.0
 11
1.846360895416168
 21
-0.6828598567330922
 31
0.0
  0
LINE
  5
7D7
330
79E
100
AcDbEntity
  8
DAMAN
100
AcDbLine
 10
1.576695895416168
 20
-0.6828598567330922
 30
0.0
 11
1.533860895416168
 21
-0.7570518567330922
 31
0.0
  0
ARC
  5
7D8
330
79E
100
AcDbEntity
  8
DAMAN
100
AcDbCircle
 10
1.658860895416168
 20
-0.7911128567330899
 30
0.0
 40
0.125
100
AcDbArc
 50
120.0
 51
239.9999999999999
  0
LINE
  5
7D9
330
79E
100
AcDbEntity
  8
DAMAN
100
AcDbLine
 10
1.846360895416168
 20
-0.5846228567330912
 30
0.0
 11
1.908860895416168
 21
-0.5846228567330912
 31
0.0
  0
ENDBLK
  5
7DB
330
79E
100
AcDbEntity
  8
0
100
AcDbBlockEnd
  0
BLOCK
  5
82B
330
800
100
AcDbEntity
  8
0
100
AcDbBlockBegin
  2
600MKS
 70
     0
 10
0.0
 20
0.0
 30
0.0
  3
600MKS
  1

  0
LINE
  5
801
330
800
100
AcDbEntity
  8
DAMAN
100
AcDbLine
 10
-1.625
 20
-0.5625
 30
0.0
 11
-1.625
 21
-0.375
 31
0.0
  0
LINE
  5
802
330
800
100
AcDbEntity
  8
DAMAN
100
AcDbLine
 10
-1.625
 20
-0.375
 30
0.0
 11
-0.4375
 21
-0.375
 31
0.0
  0
LINE
  5
803
330
800
100
AcDbEntity
  8
DAMAN
100
AcDbLine
 10
-0.1875
 20
-0.125
 30
0.0
 11
-0.1875
 21
1.0625
 31
0.0
  0
LINE
  5
804
330
800
100
AcDbEntity
  8
DAMAN
100
AcDbLine
 10
-0.1875
 20
1.0625
 30
0.0
 11
0.0
 21
1.0625
 31
0.0
  0
LINE
  5
805
330
800
100
AcDbEntity
  8
DAMAN
100
AcDbLine
 10
0.0
 20
1.0625
 30
0.0
 11
0.0
 21
-0.125
 31
0.0
  0
LINE
  5
806
330
800
100
AcDbEntity
  8
DAMAN
100
AcDbLine
 10
-0.4375
 20
-0.5625
 30
0.0
 11
-1.625
 21
-0.5625
 31
0.0
  0
ARC
  5
807
330
800
100
AcDbEntity
  8
DAMAN
100
AcDbCircle
 10
-0.4375
 20
-0.125
 30
0.0
 40
0.25
100
AcDbArc
 50
270.0
 51
0.0
  0
ARC
  5
808
330
800
100
AcDbEntity
  8
DAMAN
100
AcDbCircle
 10
-0.4375
 20
-0.125
 30
0.0
 40
0.4375
100
AcDbArc
 50
270.0
 51
0.0
  0
LINE
  5
809
330
800
100
AcDbEntity
  8
DAMAN
100
AcDbLine
 10
-1.59375
 20
-0.375
 30
0.0
 11
-1.59375
 21
-0.3125
 31
0.0
  0
LINE
  5
80A
330
800
100
AcDbEntity
  8
DAMAN
100
AcDbLine
 10
-1.59375
 20
-0.3125
 30
0.0
 11
-0.53125
 21
-0.3125
 31
0.0
  0
LINE
  5
80B
330
800
100
AcDbEntity
  8
DAMAN
100
AcDbLine
 10
-0.53125
 20
-0.3125
 30
0.0
 11
-0.53125
 21
-0.375
 31
0.0
  0
LINE
  5
80C
330
800
100
AcDbEntity
  8
DAMAN
100
AcDbLine
 10
-1.495512999999999
 20
-0.3125
 30
0.0
 11
-1.495512999999999
 21
-0.042835
 31
0.0
  0
LINE
  5
80D
330
800
100
AcDbEntity
  8
DAMAN
100
AcDbLine
 10
-1.421320999999999
 20
0.0
 30
0.0
 11
-0.703679
 21
0.0
 31
0.0
  0
LINE
  5
80E
330
800
100
AcDbEntity
  8
DAMAN
100
AcDbLine
 10
-0.6294870000000001
 20
-0.042835
 30
0.0
 11
-0.6294870000000001
 21
-0.3125
 31
0.0
  0
LINE
  5
80F
330
800
100
AcDbEntity
  8
DAMAN
100
AcDbLine
 10
-1.279005999999999
 20
-0.3125
 30
0.0
 11
-1.279005999999999
 21
-0.0625
 31
0.0
  0
LINE
  5
810
330
800
100
AcDbEntity
  8
DAMAN
100
AcDbLine
 10
-0.8459939999999999
 20
-0.3125
 30
0.0
 11
-0.8459939999999999
 21
-0.0625
 31
0.0
  0
ARC
  5
811
330
800
100
AcDbEntity
  8
DAMAN
100
AcDbCircle
 10
-1.0625
 20
-0.40625
 30
0.0
 40
0.40625
100
AcDbArc
 50
57.79577200000001
 51
122.2042279999999
  0
ARC
  5
812
330
800
100
AcDbEntity
  8
DAMAN
100
AcDbCircle
 10
-0.73774
 20
-0.125
 30
0.0
 40
0.125
100
AcDbArc
 50
30.0
 51
150.0
  0
ARC
  5
813
330
800
100
AcDbEntity
  8
DAMAN
100
AcDbCircle
 10
-1.387259999999999
 20
-0.125
 30
0.0
 40
0.125
100
AcDbArc
 50
30.0
 51
150.0
  0
LINE
  5
814
330
800
100
AcDbEntity
  8
DAMAN
100
AcDbLine
 10
-1.495512999999999
 20
-0.042835
 30
0.0
 11
-1.421320999999999
 21
0.0
 31
0.0
  0
LINE
  5
815
330
800
100
AcDbEntity
  8
DAMAN
100
AcDbLine
 10
-0.6294870000000001
 20
-0.042835
 30
0.0
 11
-0.703679
 21
0.0
 31
0.0
  0
LINE
  5
816
330
800
100
AcDbEntity
  8
DAMAN
100
AcDbLine
 10
-1.3125
 20
-0.5625
 30
0.0
 11
-1.3125
 21
-1.28125
 31
0.0
  0
LINE
  5
817
330
800
100
AcDbEntity
  8
DAMAN
100
AcDbLine
 10
-1.3125
 20
-1.28125
 30
0.0
 11
-1.28125
 21
-1.3125
 31
0.0
  0
LINE
  5
818
330
800
100
AcDbEntity
  8
DAMAN
100
AcDbLine
 10
-1.28125
 20
-1.3125
 30
0.0
 11
-0.84375
 21
-1.3125
 31
0.0
  0
LINE
  5
819
330
800
100
AcDbEntity
  8
DAMAN
100
AcDbLine
 10
-0.84375
 20
-1.3125
 30
0.0
 11
-0.8125
 21
-1.28125
 31
0.0
  0
LINE
  5
81A
330
800
100
AcDbEntity
  8
DAMAN
100
AcDbLine
 10
-0.8125
 20
-1.28125
 30
0.0
 11
-0.8125
 21
-0.5625
 31
0.0
  0
LINE
  5
81B
330
800
100
AcDbEntity
  8
DAMAN
100
AcDbLine
 10
-1.28125
 20
-0.5625
 30
0.0
 11
-1.28125
 21
-1.3125
 31
0.0
  0
LINE
  5
81C
330
800
100
AcDbEntity
  8
DAMAN
100
AcDbLine
 10
-0.84375
 20
-0.5625
 30
0.0
 11
-0.84375
 21
-1.3125
 31
0.0
  0
LINE
  5
81D
330
800
100
AcDbEntity
  8
DAMAN
100
AcDbLine
 10
-1.0625
 20
0.125
 30
0.0
 11
-1.0625
 21
-1.40625
 31
0.0
  0
LINE
  5
81E
330
800
100
AcDbEntity
  8
DAMAN
100
AcDbLine
 10
-0.5196649999999999
 20
0.9330129999999998
 30
0.0
 11
-0.5625
 21
0.858821
 31
0.0
  0
LINE
  5
81F
330
800
100
AcDbEntity
  8
DAMAN
100
AcDbLine
 10
-0.5196649999999999
 20
0.066987
 30
0.0
 11
-0.5625
 21
0.141179
 31
0.0
  0
ARC
  5
820
330
800
100
AcDbEntity
  8
DAMAN
100
AcDbCircle
 10
-0.4375
 20
0.17524
 30
0.0
 40
0.125
100
AcDbArc
 50
119.9999999999999
 51
239.9999999999999
  0
ARC
  5
821
330
800
100
AcDbEntity
  8
DAMAN
100
AcDbCircle
 10
-0.4375
 20
0.82476
 30
0.0
 40
0.125
100
AcDbArc
 50
119.9999999999999
 51
239.9999999999999
  0
ARC
  5
822
330
800
100
AcDbEntity
  8
DAMAN
100
AcDbCircle
 10
-0.15625
 20
0.5
 30
0.0
 40
0.40625
100
AcDbArc
 50
147.795772
 51
212.2042279999999
  0
LINE
  5
823
330
800
100
AcDbEntity
  8
DAMAN
100
AcDbLine
 10
-0.25
 20
0.7165060000000001
 30
0.0
 11
-0.5
 21
0.7165060000000001
 31
0.0
  0
LINE
  5
824
330
800
100
AcDbEntity
  8
DAMAN
100
AcDbLine
 10
-0.25
 20
0.283494
 30
0.0
 11
-0.5
 21
0.283494
 31
0.0
  0
LINE
  5
825
330
800
100
AcDbEntity
  8
DAMAN
100
AcDbLine
 10
-0.5196649999999999
 20
0.9330129999999998
 30
0.0
 11
-0.25
 21
0.9330129999999998
 31
0.0
  0
LINE
  5
826
330
800
100
AcDbEntity
  8
DAMAN
100
AcDbLine
 10
-0.5625
 20
0.141179
 30
0.0
 11
-0.5625
 21
0.858821
 31
0.0
  0
LINE
  5
827
330
800
100
AcDbEntity
  8
DAMAN
100
AcDbLine
 10
-0.25
 20
0.066987
 30
0.0
 11
-0.5196649999999999
 21
0.066987
 31
0.0
  0
LINE
  5
828
330
800
100
AcDbEntity
  8
DAMAN
100
AcDbLine
 10
-0.25
 20
1.03125
 30
0.0
 11
-0.1875
 21
1.03125
 31
0.0
  0
LINE
  5
829
330
800
100
AcDbEntity
  8
DAMAN
100
AcDbLine
 10
-0.25
 20
-0.03125
 30
0.0
 11
-0.25
 21
1.03125
 31
0.0
  0
LINE
  5
82A
330
800
100
AcDbEntity
  8
DAMAN
100
AcDbLine
 10
-0.1875
 20
-0.03125
 30
0.0
 11
-0.25
 21
-0.03125
 31
0.0
  0
ENDBLK
  5
82C
330
800
100
AcDbEntity
  8
0
100
AcDbBlockEnd
  0
BLOCK
  5
82F
330
82D
100
AcDbEntity
  8
0
100
AcDbBlockBegin
  2
A$C0A7625C0
 70
     0
 10
0.0
 20
0.0
 30
0.0
  3
A$C0A7625C0
  1

  0
INSERT
  5
82E
330
82D
100
AcDbEntity
  8
DAMAN
100
AcDbBlockReference
  2
600MKS
 10
0.0
 20
0.0
 30
0.0
  0
ENDBLK
  5
830
330
82D
100
AcDbEntity
  8
0
100
AcDbBlockEnd
  0
ENDSEC
  0
SECTION
  2
ENTITIES
  0
LINE
  5
36
330
1E
100
AcDbEntity
  8
0
  6
CONTINUOUS
 62
     5
100
AcDbLine
 10
33.6875
 20
26.875
 30
0.0
 11
26.6875
 21
26.875
 31
0.0
  0
LINE
  5
38
330
1E
100
AcDbEntity
  8
0
  6
CONTINUOUS
 62
     5
100
AcDbLine
 10
31.7185
 20
25.419
 30
0.0
 11
31.7185
 21
26.019
 31
0.0
  0
LINE
  5
3E
330
1E
100
AcDbEntity
  8
0
  6
CONTINUOUS
 62
     5
100
AcDbLine
 10
31.7185
 20
23.73099999999999
 30
0.0
 11
31.7185
 21
24.331
 31
0.0
  0
LINE
  5
53
330
1E
100
AcDbEntity
  8
0
  6
CONTINUOUS
 62
     5
100
AcDbLine
 10
28.98749999999999
 20
24.875
 30
0.0
 11
31.38749999999999
 21
24.875
 31
0.0
  0
CIRCLE
  5
56
330
1E
100
AcDbEntity
  8
0
  6
CONTINUOUS
 62
     5
100
AcDbCircle
 10
30.1875
 20
24.875
 30
0.0
 40
1.0
  0
LINE
  5
57
330
1E
100
AcDbEntity
  8
0
  6
CONTINUOUS
 62
     5
100
AcDbLine
 10
28.6565
 20
25.419
 30
0.0
 11
28.6565
 21
26.019
 31
0.0
  0
TEXT
  5
60
330
1E
100
AcDbEntity
  8
0
 62
     5
100
AcDbText
 10
27.752083
 20
25.10302049999999
 30
0.0
 40
0.2125
  1
T
 50
90.0
 41
0.825
 72
     4
 11
27.645833
 21
25.161458
 31
0.0
100
AcDbText
  0
LINE
  5
61
330
1E
100
AcDbEntity
  8
0
  6
CONTINUOUS
 62
     5
100
AcDbLine
 10
28.6565
 20
23.73099999999999
 30
0.0
 11
28.6565
 21
24.331
 31
0.0
  0
LINE
  5
62
330
1E
100
AcDbEntity
  8
0
  6
CONTINUOUS
 62
     5
100
AcDbLine
 10
28.35649999999999
 20
25.719
 30
0.0
 11
28.95649999999999
 21
25.719
 31
0.0
  0
ARC
  5
63
330
1E
100
AcDbEntity
  8
0
  6
CONTINUOUS
 62
     5
100
AcDbCircle
 10
28.6565
 20
25.719
 30
0.0
 40
0.247
100
AcDbArc
 50
85.00000099999999
 51
5.0
  0
CIRCLE
  5
64
330
1E
100
AcDbEntity
  8
0
  6
CONTINUOUS
 62
     5
100
AcDbCircle
 10
28.6565
 20
25.719
 30
0.0
 40
0.211
  0
CIRCLE
  5
65
330
1E
100
AcDbEntity
  8
0
  6
CONTINUOUS
 62
     5
100
AcDbCircle
 10
28.6565
 20
25.719
 30
0.0
 40
0.25
  0
LINE
  5
66
330
1E
100
AcDbEntity
  8
0
  6
CONTINUOUS
 62
     5
100
AcDbLine
 10
28.35649999999999
 20
24.031
 30
0.0
 11
28.95649999999999
 21
24.031
 31
0.0
  0
ARC
  5
67
330
1E
100
AcDbEntity
  8
0
  6
CONTINUOUS
 62
     5
100
AcDbCircle
 10
28.6565
 20
24.031
 30
0.0
 40
0.247
100
AcDbArc
 50
85.00000099999999
 51
5.0
  0
CIRCLE
  5
68
330
1E
100
AcDbEntity
  8
0
  6
CONTINUOUS
 62
     5
100
AcDbCircle
 10
28.6565
 20
24.031
 30
0.0
 40
0.211
  0
CIRCLE
  5
69
330
1E
100
AcDbEntity
  8
0
  6
CONTINUOUS
 62
     5
100
AcDbCircle
 10
28.6565
 20
24.031
 30
0.0
 40
0.25
  0
LINE
  5
6A
330
1E
100
AcDbEntity
  8
0
  6
CONTINUOUS
 62
     5
100
AcDbLine
 10
28.5125
 20
21.82799999999998
 30
0.0
 11
29.11249999999999
 21
21.82799999999998
 31
0.0
  0
LINE
  5
6B
330
1E
100
AcDbEntity
  8
0
  6
CONTINUOUS
 62
     5
100
AcDbLine
 10
31.5625
 20
20.12199999999999
 30
0.0
 11
31.5625
 21
20.722
 31
0.0
  0
LINE
  5
6C
330
1E
100
AcDbEntity
  8
0
  6
CONTINUOUS
 62
     5
100
AcDbLine
 10
29.2875
 20
21.125
 30
0.0
 11
31.0875
 21
21.125
 31
0.0
  0
LINE
  5
6D
330
1E
100
AcDbEntity
  8
0
  6
CONTINUOUS
 62
     5
100
AcDbLine
 10
28.8125
 20
20.12199999999999
 30
0.0
 11
28.8125
 21
20.722
 31
0.0
  0
TEXT
  5
6E
330
1E
100
AcDbEntity
  8
0
 62
     5
100
AcDbText
 10
27.736458
 20
21.0645595
 30
0.0
 40
0.2125
  1
P
 50
90.0
 41
0.825
 72
     4
 11
27.630208
 21
21.122997
 31
0.0
100
AcDbText
  0
LINE
  5
79
330
1E
100
AcDbEntity
  8
0
  6
CONTINUOUS
 62
     5
100
AcDbLine
 10
28.5125
 20
20.422
 30
0.0
 11
29.11249999999999
 21
20.422
 31
0.0
  0
ARC
  5
7A
330
1E
100
AcDbEntity
  8
0
  6
CONTINUOUS
 62
     5
100
AcDbCircle
 10
28.8125
 20
20.422
 30
0.0
 40
0.247
100
AcDbArc
 50
85.00000099999999
 51
5.0
  0
CIRCLE
  5
7B
330
1E
100
AcDbEntity
  8
0
  6
CONTINUOUS
 62
     5
100
AcDbCircle
 10
28.8125
 20
20.422
 30
0.0
 40
0.211
  0
CIRCLE
  5
7C
330
1E
100
AcDbEntity
  8
0
  6
CONTINUOUS
 62
     5
100
AcDbCircle
 10
28.8125
 20
20.422
 30
0.0
 40
0.25
  0
LINE
  5
7D
330
1E
100
AcDbEntity
  8
0
  6
CONTINUOUS
 62
     5
100
AcDbLine
 10
31.5625
 20
21.528
 30
0.0
 11
31.5625
 21
22.128
 31
0.0
  0
LINE
  5
7E
330
1E
100
AcDbEntity
  8
0
  6
CONTINUOUS
 62
     5
100
AcDbLine
 10
30.1875
 20
20.225
 30
0.0
 11
30.1875
 21
22.025
 31
0.0
  0
ARC
  5
7F
330
1E
100
AcDbEntity
  8
0
  6
CONTINUOUS
 62
     5
100
AcDbCircle
 10
28.8125
 20
21.82799999999998
 30
0.0
 40
0.247
100
AcDbArc
 50
85.00000099999999
 51
5.0
  0
CIRCLE
  5
80
330
1E
100
AcDbEntity
  8
0
  6
CONTINUOUS
 62
     5
100
AcDbCircle
 10
28.8125
 20
21.82799999999998
 30
0.0
 40
0.211
  0
CIRCLE
  5
81
330
1E
100
AcDbEntity
  8
0
  6
CONTINUOUS
 62
     5
100
AcDbCircle
 10
28.8125
 20
21.82799999999998
 30
0.0
 40
0.25
  0
LINE
  5
82
330
1E
100
AcDbEntity
  8
0
  6
CONTINUOUS
 62
     5
100
AcDbLine
 10
28.8125
 20
21.528
 30
0.0
 11
28.8125
 21
22.128
 31
0.0
  0
CIRCLE
  5
84
330
1E
100
AcDbEntity
  8
0
  6
CONTINUOUS
 62
     5
100
AcDbCircle
 10
30.1875
 20
21.125
 30
0.0
 40
0.75
  0
LINE
  5
85
330
1E
100
AcDbEntity
  8
0
  6
CONTINUOUS
 62
     5
100
AcDbLine
 10
31.4185
 20
25.719
 30
0.0
 11
32.0185
 21
25.719
 31
0.0
  0
ARC
  5
86
330
1E
100
AcDbEntity
  8
0
  6
CONTINUOUS
 62
     5
100
AcDbCircle
 10
31.7185
 20
25.719
 30
0.0
 40
0.247
100
AcDbArc
 50
85.00000099999999
 51
5.0
  0
CIRCLE
  5
87
330
1E
100
AcDbEntity
  8
0
  6
CONTINUOUS
 62
     5
100
AcDbCircle
 10
31.7185
 20
25.719
 30
0.0
 40
0.211
  0
CIRCLE
  5
88
330
1E
100
AcDbEntity
  8
0
  6
CONTINUOUS
 62
     5
100
AcDbCircle
 10
31.7185
 20
25.719
 30
0.0
 40
0.25
  0
LINE
  5
89
330
1E
100
AcDbEntity
  8
0
  6
CONTINUOUS
 62
     5
100
AcDbLine
 10
31.4185
 20
24.031
 30
0.0
 11
32.0185
 21
24.031
 31
0.0
  0
ARC
  5
8A
330
1E
100
AcDbEntity
  8
0
  6
CONTINUOUS
 62
     5
100
AcDbCircle
 10
31.7185
 20
24.031
 30
0.0
 40
0.247
100
AcDbArc
 50
85.00000099999999
 51
5.0
  0
CIRCLE
  5
8B
330
1E
100
AcDbEntity
  8
0
  6
CONTINUOUS
 62
     5
100
AcDbCircle
 10
31.7185
 20
24.031
 30
0.0
 40
0.211
  0
CIRCLE
  5
8C
330
1E
100
AcDbEntity
  8
0
  6
CONTINUOUS
 62
     5
100
AcDbCircle
 10
31.7185
 20
24.031
 30
0.0
 40
0.25
  0
LINE
  5
8D
330
1E
100
AcDbEntity
  8
0
  6
CONTINUOUS
 62
     5
100
AcDbLine
 10
31.2625
 20
21.82799999999998
 30
0.0
 11
31.86249999999999
 21
21.82799999999998
 31
0.0
  0
CIRCLE
  5
8E
330
1E
100
AcDbEntity
  8
0
  6
CONTINUOUS
 62
     5
100
AcDbCircle
 10
31.5625
 20
20.422
 30
0.0
 40
0.211
  0
ARC
  5
8F
330
1E
100
AcDbEntity
  8
0
  6
CONTINUOUS
 62
     5
100
AcDbCircle
 10
31.5625
 20
20.422
 30
0.0
 40
0.247
100
AcDbArc
 50
85.00000099999999
 51
5.0
  0
CIRCLE
  5
90
330
1E
100
AcDbEntity
  8
0
  6
CONTINUOUS
 62
     5
100
AcDbCircle
 10
31.5625
 20
20.422
 30
0.0
 40
0.25
  0
LINE
  5
91
330
1E
100
AcDbEntity
  8
0
  6
CONTINUOUS
 62
     5
100
AcDbLine
 10
31.2625
 20
20.422
 30
0.0
 11
31.86249999999999
 21
20.422
 31
0.0
  0
CIRCLE
  5
92
330
1E
100
AcDbEntity
  8
0
  6
CONTINUOUS
 62
     5
100
AcDbCircle
 10
31.5625
 20
21.82799999999998
 30
0.0
 40
0.211
  0
ARC
  5
93
330
1E
100
AcDbEntity
  8
0
  6
CONTINUOUS
 62
     5
100
AcDbCircle
 10
31.5625
 20
21.82799999999998
 30
0.0
 40
0.247
100
AcDbArc
 50
85.00000099999999
 51
5.0
  0
CIRCLE
  5
94
330
1E
100
AcDbEntity
  8
0
  6
CONTINUOUS
 62
     5
100
AcDbCircle
 10
31.5625
 20
21.82799999999998
 30
0.0
 40
0.25
  0
LINE
  5
98
330
1E
100
AcDbEntity
  8
0
  6
CONTINUOUS
 62
     5
100
AcDbLine
 10
26.6875
 20
17.875
 30
0.0
 11
33.6875
 21
17.875
 31
0.0
  0
LINE
  5
A9
330
1E
100
AcDbEntity
  8
0
  6
CONTINUOUS
 62
     5
100
AcDbLine
 10
30.1875
 20
23.675
 30
0.0
 11
30.1875
 21
26.07499999999999
 31
0.0
  0
LINE
  5
AC
330
1E
100
AcDbEntity
  8
0
  6
CONTINUOUS
 62
     5
100
AcDbLine
 10
26.6875
 20
26.875
 30
0.0
 11
26.6875
 21
17.875
 31
0.0
  0
LINE
  5
118
330
1E
100
AcDbEntity
  8
0
  6
CONTINUOUS
 62
     5
100
AcDbLine
 10
23.68749999999999
 20
26.875
 30
0.0
 11
23.68749999999999
 21
17.875
 31
0.0
  0
LINE
  5
236
330
1E
100
AcDbEntity
  8
0
  6
CONTINUOUS
 62
     5
100
AcDbLine
 10
23.68749999999999
 20
14.875
 30
0.0
 11
23.68749999999999
 21
7.875
 31
0.0
  0
LINE
  5
257
330
1E
100
AcDbEntity
  8
0
  6
CONTINUOUS
 62
     5
100
AcDbLine
 10
21.6125
 20
26.125
 30
0.0
 11
22.5125
 21
26.125
 31
0.0
  0
LINE
  5
258
330
1E
100
AcDbEntity
  8
0
  6
CONTINUOUS
 62
     5
100
AcDbLine
 10
15.3625
 20
26.125
 30
0.0
 11
16.26249999999999
 21
26.125
 31
0.0
  0
LINE
  5
269
330
1E
100
AcDbEntity
  8
0
  6
CONTINUOUS
 62
     5
100
AcDbLine
 10
21.6125
 20
23.125
 30
0.0
 11
22.5125
 21
23.125
 31
0.0
  0
LINE
  5
26A
330
1E
100
AcDbEntity
  8
0
  6
CONTINUOUS
 62
     5
100
AcDbLine
 10
22.0625
 20
22.675
 30
0.0
 11
22.0625
 21
23.57499999999999
 31
0.0
  0
ARC
  5
26B
330
1E
100
AcDbEntity
  8
0
  6
CONTINUOUS
 62
     5
100
AcDbCircle
 10
22.0625
 20
23.125
 30
0.0
 40
0.384
100
AcDbArc
 50
85.00000099999999
 51
5.0
  0
CIRCLE
  5
26C
330
1E
100
AcDbEntity
  8
0
  6
CONTINUOUS
 62
     5
100
AcDbCircle
 10
22.0625
 20
23.125
 30
0.0
 40
0.3279999999999999
  0
CIRCLE
  5
26D
330
1E
100
AcDbEntity
  8
0
  6
CONTINUOUS
 62
     5
100
AcDbCircle
 10
22.0625
 20
23.125
 30
0.0
 40
0.375
  0
LINE
  5
26E
330
1E
100
AcDbEntity
  8
0
  6
CONTINUOUS
 62
     5
100
AcDbLine
 10
20.6875
 20
23.75
 30
0.0
 11
20.6875
 21
25.25
 31
0.0
  0
LINE
  5
271
330
1E
100
AcDbEntity
  8
0
  6
CONTINUOUS
 62
     5
100
AcDbLine
 10
19.9375
 20
24.5
 30
0.0
 11
21.4375
 21
24.5
 31
0.0
  0
CIRCLE
  5
272
330
1E
100
AcDbEntity
  8
0
  6
CONTINUOUS
 62
     5
100
AcDbCircle
 10
20.6875
 20
24.5
 30
0.0
 40
0.625
  0
LINE
  5
274
330
1E
100
AcDbEntity
  8
0
  6
CONTINUOUS
 62
     5
100
AcDbLine
 10
22.0625
 20
20.498
 30
0.0
 11
22.0625
 21
20.836
 31
0.0
  0
LINE
  5
275
330
1E
100
AcDbEntity
  8
0
  6
CONTINUOUS
 62
     5
100
AcDbLine
 10
21.8935
 20
20.66699999999998
 30
0.0
 11
22.23149999999999
 21
20.66699999999998
 31
0.0
  0
LINE
  5
276
330
1E
100
AcDbEntity
  8
0
  6
CONTINUOUS
 62
     5
100
AcDbLine
 10
21.8935
 20
20.31299999999998
 30
0.0
 11
22.23149999999999
 21
20.31299999999998
 31
0.0
  0
CIRCLE
  5
277
330
1E
100
AcDbEntity
  8
0
  6
CONTINUOUS
 62
     5
100
AcDbCircle
 10
22.0625
 20
20.66699999999998
 30
0.0
 40
0.14
  0
LINE
  5
278
330
1E
100
AcDbEntity
  8
0
  6
CONTINUOUS
 62
     5
100
AcDbLine
 10
22.0625
 20
20.14399999999997
 30
0.0
 11
22.0625
 21
20.482
 31
0.0
  0
CIRCLE
  5
279
330
1E
100
AcDbEntity
  8
0
  6
CONTINUOUS
 62
     5
100
AcDbCircle
 10
22.0625
 20
20.31299999999998
 30
0.0
 40
0.14
  0
LINE
  5
27A
330
1E
100
AcDbEntity
  8
0
  6
CONTINUOUS
 62
     5
100
AcDbLine
 10
21.6125
 20
18.625
 30
0.0
 11
22.5125
 21
18.625
 31
0.0
  0
CIRCLE
  5
27B
330
1E
100
AcDbEntity
  8
0
  6
CONTINUOUS
 62
     5
100
AcDbCircle
 10
22.0625
 20
18.625
 30
0.0
 40
0.3279999999999999
  0
ARC
  5
27C
330
1E
100
AcDbEntity
  8
0
  6
CONTINUOUS
 62
     5
100
AcDbCircle
 10
22.0625
 20
18.625
 30
0.0
 40
0.384
100
AcDbArc
 50
85.00000099999999
 51
5.0
  0
CIRCLE
  5
27D
330
1E
100
AcDbEntity
  8
0
  6
CONTINUOUS
 62
     5
100
AcDbCircle
 10
22.0625
 20
18.625
 30
0.0
 40
0.375
  0
LINE
  5
27E
330
1E
100
AcDbEntity
  8
0
  6
CONTINUOUS
 62
     5
100
AcDbLine
 10
22.0625
 20
18.175
 30
0.0
 11
22.0625
 21
19.07499999999998
 31
0.0
  0
LINE
  5
280
330
1E
100
AcDbEntity
  8
0
  6
CONTINUOUS
 62
     5
100
AcDbLine
 10
20.3125
 20
19.24699999999998
 30
0.0
 11
20.3125
 21
19.753
 31
0.0
  0
CIRCLE
  5
281
330
1E
100
AcDbEntity
  8
0
  6
CONTINUOUS
 62
     5
100
AcDbCircle
 10
20.3125
 20
19.5
 30
0.0
 40
0.2189999999999999
  0
LINE
  5
282
330
1E
100
AcDbEntity
  8
0
  6
CONTINUOUS
 62
     5
100
AcDbLine
 10
20.05949999999999
 20
19.5
 30
0.0
 11
20.5655
 21
19.5
 31
0.0
  0
LINE
  5
283
330
1E
100
AcDbEntity
  8
0
  6
CONTINUOUS
 62
     5
100
AcDbLine
 10
19.9375
 20
21.625
 30
0.0
 11
21.4375
 21
21.625
 31
0.0
  0
LINE
  5
284
330
1E
100
AcDbEntity
  8
0
  6
CONTINUOUS
 62
     5
100
AcDbLine
 10
20.6875
 20
20.87499999999999
 30
0.0
 11
20.6875
 21
22.375
 31
0.0
  0
CIRCLE
  5
285
330
1E
100
AcDbEntity
  8
0
  6
CONTINUOUS
 62
     5
100
AcDbCircle
 10
20.6875
 20
21.625
 30
0.0
 40
0.625
  0
LINE
  5
286
330
1E
100
AcDbEntity
  8
0
  6
CONTINUOUS
 62
     5
100
AcDbLine
 10
15.8125
 20
24.331
 30
0.0
 11
15.8125
 21
24.669
 31
0.0
  0
LINE
  5
287
330
1E
100
AcDbEntity
  8
0
  6
CONTINUOUS
 62
     5
100
AcDbLine
 10
15.6435
 20
24.5
 30
0.0
 11
15.9815
 21
24.5
 31
0.0
  0
CIRCLE
  5
288
330
1E
100
AcDbEntity
  8
0
  6
CONTINUOUS
 62
     5
100
AcDbCircle
 10
15.8125
 20
24.5
 30
0.0
 40
0.14
  0
LINE
  5
289
330
1E
100
AcDbEntity
  8
0
  6
CONTINUOUS
 62
     5
100
AcDbLine
 10
17.1875
 20
22.12499999999999
 30
0.0
 11
17.1875
 21
23.625
 31
0.0
  0
LINE
  5
2C1
330
1E
100
AcDbEntity
  8
0
  6
CONTINUOUS
 62
     5
100
AcDbLine
 10
17.1875
 20
19.56299999999998
 30
0.0
 11
17.1875
 21
21.063
 31
0.0
  0
LINE
  5
2C2
330
1E
100
AcDbEntity
  8
0
  6
CONTINUOUS
 62
     5
100
AcDbLine
 10
15.3625
 20
21.625
 30
0.0
 11
16.26249999999999
 21
21.625
 31
0.0
  0
LINE
  5
2C3
330
1E
100
AcDbEntity
  8
0
  6
CONTINUOUS
 62
     5
100
AcDbLine
 10
15.3625
 20
18.625
 30
0.0
 11
16.26249999999999
 21
18.625
 31
0.0
  0
CIRCLE
  5
2C4
330
1E
100
AcDbEntity
  8
0
  6
CONTINUOUS
 62
     5
100
AcDbCircle
 10
15.8125
 20
18.625
 30
0.0
 40
0.3279999999999999
  0
LINE
  5
2C5
330
1E
100
AcDbEntity
  8
0
  6
CONTINUOUS
 62
     5
100
AcDbLine
 10
15.8125
 20
18.175
 30
0.0
 11
15.8125
 21
19.07499999999998
 31
0.0
  0
ARC
  5
2C6
330
1E
100
AcDbEntity
  8
0
  6
CONTINUOUS
 62
     5
100
AcDbCircle
 10
15.8125
 20
18.625
 30
0.0
 40
0.384
100
AcDbArc
 50
85.00000099999999
 51
5.0
  0
CIRCLE
  5
2C7
330
1E
100
AcDbEntity
  8
0
  6
CONTINUOUS
 62
     5
100
AcDbCircle
 10
15.8125
 20
18.625
 30
0.0
 40
0.375
  0
LINE
  5
2C9
330
1E
100
AcDbEntity
  8
0
  6
CONTINUOUS
 62
     5
100
AcDbLine
 10
15.8125
 20
21.175
 30
0.0
 11
15.8125
 21
22.075
 31
0.0
  0
ARC
  5
2CA
330
1E
100
AcDbEntity
  8
0
  6
CONTINUOUS
 62
     5
100
AcDbCircle
 10
15.8125
 20
21.625
 30
0.0
 40
0.384
100
AcDbArc
 50
85.00000099999999
 51
5.0
  0
CIRCLE
  5
2CB
330
1E
100
AcDbEntity
  8
0
  6
CONTINUOUS
 62
     5
100
AcDbCircle
 10
15.8125
 20
21.625
 30
0.0
 40
0.3279999999999999
  0
CIRCLE
  5
2CC
330
1E
100
AcDbEntity
  8
0
  6
CONTINUOUS
 62
     5
100
AcDbCircle
 10
15.8125
 20
21.625
 30
0.0
 40
0.375
  0
CIRCLE
  5
2CD
330
1E
100
AcDbEntity
  8
0
  6
CONTINUOUS
 62
     5
100
AcDbCircle
 10
17.1875
 20
22.875
 30
0.0
 40
0.625
  0
LINE
  5
2CE
330
1E
100
AcDbEntity
  8
0
  6
CONTINUOUS
 62
     5
100
AcDbLine
 10
16.4375
 20
22.875
 30
0.0
 11
17.9375
 21
22.875
 31
0.0
  0
LINE
  5
2CF
330
1E
100
AcDbEntity
  8
0
  6
CONTINUOUS
 62
     5
100
AcDbLine
 10
16.4375
 20
20.31299999999998
 30
0.0
 11
17.9375
 21
20.31299999999998
 31
0.0
  0
CIRCLE
  5
2D0
330
1E
100
AcDbEntity
  8
0
  6
CONTINUOUS
 62
     5
100
AcDbCircle
 10
17.1875
 20
20.31299999999998
 30
0.0
 40
0.625
  0
LINE
  5
2D1
330
1E
100
AcDbEntity
  8
0
  6
CONTINUOUS
 62
     5
100
AcDbLine
 10
22.0625
 20
25.675
 30
0.0
 11
22.0625
 21
26.575
 31
0.0
  0
ARC
  5
2D2
330
1E
100
AcDbEntity
  8
0
  6
CONTINUOUS
 62
     5
100
AcDbCircle
 10
22.0625
 20
26.125
 30
0.0
 40
0.384
100
AcDbArc
 50
85.00000099999999
 51
5.0
  0
CIRCLE
  5
2D3
330
1E
100
AcDbEntity
  8
0
  6
CONTINUOUS
 62
     5
100
AcDbCircle
 10
22.0625
 20
26.125
 30
0.0
 40
0.3279999999999999
  0
CIRCLE
  5
2D4
330
1E
100
AcDbEntity
  8
0
  6
CONTINUOUS
 62
     5
100
AcDbCircle
 10
22.0625
 20
26.125
 30
0.0
 40
0.375
  0
LINE
  5
2D5
330
1E
100
AcDbEntity
  8
0
  6
CONTINUOUS
 62
     5
100
AcDbLine
 10
15.8125
 20
25.675
 30
0.0
 11
15.8125
 21
26.575
 31
0.0
  0
CIRCLE
  5
2D6
330
1E
100
AcDbEntity
  8
0
  6
CONTINUOUS
 62
     5
100
AcDbCircle
 10
15.8125
 20
26.125
 30
0.0
 40
0.3279999999999999
  0
ARC
  5
2D7
330
1E
100
AcDbEntity
  8
0
  6
CONTINUOUS
 62
     5
100
AcDbCircle
 10
15.8125
 20
26.125
 30
0.0
 40
0.384
100
AcDbArc
 50
85.00000099999999
 51
5.0
  0
CIRCLE
  5
2D8
330
1E
100
AcDbEntity
  8
0
  6
CONTINUOUS
 62
     5
100
AcDbCircle
 10
15.8125
 20
26.125
 30
0.0
 40
0.375
  0
LINE
  5
2D9
330
1E
100
AcDbEntity
  8
0
  6
CONTINUOUS
 62
     5
100
AcDbLine
 10
13.6875
 20
26.875
 30
0.0
 11
13.6875
 21
17.875
 31
0.0
  0
LINE
  5
2E1
330
1E
100
AcDbEntity
  8
0
  6
CONTINUOUS
 62
     5
100
AcDbLine
 10
3.6875
 20
26.875
 30
0.0
 11
10.6875
 21
26.875
 31
0.0
  0
TEXT
  5
2E2
330
1E
100
AcDbEntity
  8
0
 62
     5
100
AcDbText
 10
9.622917000000001
 20
25.2198955
 30
0.0
 40
0.2125
  1
T
 50
270.0
 41
0.825
 72
     4
 11
9.729167
 21
25.161458
 31
0.0
100
AcDbText
  0
LINE
  5
2EB
330
1E
100
AcDbEntity
  8
0
  6
CONTINUOUS
 62
     5
100
AcDbLine
 10
8.7185
 20
25.419
 30
0.0
 11
8.7185
 21
26.019
 31
0.0
  0
LINE
  5
323
330
1E
100
AcDbEntity
  8
0
  6
CONTINUOUS
 62
     5
100
AcDbLine
 10
8.7185
 20
23.73099999999999
 30
0.0
 11
8.7185
 21
24.331
 31
0.0
  0
LINE
  5
324
330
1E
100
AcDbEntity
  8
0
  6
CONTINUOUS
 62
     5
100
AcDbLine
 10
5.987499999999998
 20
24.875
 30
0.0
 11
8.387499999999999
 21
24.875
 31
0.0
  0
CIRCLE
  5
327
330
1E
100
AcDbEntity
  8
0
  6
CONTINUOUS
 62
     5
100
AcDbCircle
 10
7.1875
 20
24.875
 30
0.0
 40
1.0
  0
LINE
  5
328
330
1E
100
AcDbEntity
  8
0
  6
CONTINUOUS
 62
     5
100
AcDbLine
 10
8.418499999999998
 20
25.719
 30
0.0
 11
9.018499999999999
 21
25.719
 31
0.0
  0
CIRCLE
  5
329
330
1E
100
AcDbEntity
  8
0
  6
CONTINUOUS
 62
     5
100
AcDbCircle
 10
8.7185
 20
25.719
 30
0.0
 40
0.25
  0
ARC
  5
32A
330
1E
100
AcDbEntity
  8
0
  6
CONTINUOUS
 62
     5
100
AcDbCircle
 10
8.7185
 20
25.719
 30
0.0
 40
0.247
100
AcDbArc
 50
85.00000099999999
 51
5.0
  0
CIRCLE
  5
32B
330
1E
100
AcDbEntity
  8
0
  6
CONTINUOUS
 62
     5
100
AcDbCircle
 10
8.7185
 20
25.719
 30
0.0
 40
0.211
  0
LINE
  5
32C
330
1E
100
AcDbEntity
  8
0
  6
CONTINUOUS
 62
     5
100
AcDbLine
 10
8.418499999999998
 20
24.031
 30
0.0
 11
9.018499999999999
 21
24.031
 31
0.0
  0
ARC
  5
32D
330
1E
100
AcDbEntity
  8
0
  6
CONTINUOUS
 62
     5
100
AcDbCircle
 10
8.7185
 20
24.031
 30
0.0
 40
0.247
100
AcDbArc
 50
85.00000099999999
 51
5.0
  0
CIRCLE
  5
32E
330
1E
100
AcDbEntity
  8
0
  6
CONTINUOUS
 62
     5
100
AcDbCircle
 10
8.7185
 20
24.031
 30
0.0
 40
0.211
  0
CIRCLE
  5
32F
330
1E
100
AcDbEntity
  8
0
  6
CONTINUOUS
 62
     5
100
AcDbCircle
 10
8.7185
 20
24.031
 30
0.0
 40
0.25
  0
LINE
  5
330
330
1E
100
AcDbEntity
  8
0
  6
CONTINUOUS
 62
     5
100
AcDbLine
 10
8.262499999999999
 20
21.82799999999998
 30
0.0
 11
8.8625
 21
21.82799999999998
 31
0.0
  0
TEXT
  5
331
330
1E
100
AcDbEntity
  8
0
 62
     5
100
AcDbText
 10
9.638229
 20
21.1834375
 30
0.0
 40
0.2125
  1
P
 50
270.0
 41
0.825
 72
     4
 11
9.744479
 21
21.125
 31
0.0
100
AcDbText
  0
LINE
  5
372
330
1E
100
AcDbEntity
  8
0
  6
CONTINUOUS
 62
     5
100
AcDbLine
 10
8.5625
 20
20.12199999999999
 30
0.0
 11
8.5625
 21
20.722
 31
0.0
  0
LINE
  5
373
330
1E
100
AcDbEntity
  8
0
  6
CONTINUOUS
 62
     5
100
AcDbLine
 10
5.8125
 20
20.12199999999999
 30
0.0
 11
5.8125
 21
20.722
 31
0.0
  0
LINE
  5
374
330
1E
100
AcDbEntity
  8
0
  6
CONTINUOUS
 62
     5
100
AcDbLine
 10
6.287499999999997
 20
21.125
 30
0.0
 11
8.0875
 21
21.125
 31
0.0
  0
CIRCLE
  5
375
330
1E
100
AcDbEntity
  8
0
  6
CONTINUOUS
 62
     5
100
AcDbCircle
 10
8.5625
 20
20.422
 30
0.0
 40
0.211
  0
LINE
  5
376
330
1E
100
AcDbEntity
  8
0
  6
CONTINUOUS
 62
     5
100
AcDbLine
 10
8.262499999999999
 20
20.422
 30
0.0
 11
8.8625
 21
20.422
 31
0.0
  0
ARC
  5
377
330
1E
100
AcDbEntity
  8
0
  6
CONTINUOUS
 62
     5
100
AcDbCircle
 10
8.5625
 20
20.422
 30
0.0
 40
0.247
100
AcDbArc
 50
85.00000099999999
 51
5.0
  0
CIRCLE
  5
378
330
1E
100
AcDbEntity
  8
0
  6
CONTINUOUS
 62
     5
100
AcDbCircle
 10
8.5625
 20
20.422
 30
0.0
 40
0.25
  0
LINE
  5
379
330
1E
100
AcDbEntity
  8
0
  6
CONTINUOUS
 62
     5
100
AcDbLine
 10
8.5625
 20
21.528
 30
0.0
 11
8.5625
 21
22.128
 31
0.0
  0
CIRCLE
  5
37B
330
1E
100
AcDbEntity
  8
0
  6
CONTINUOUS
 62
     5
100
AcDbCircle
 10
7.1875
 20
21.125
 30
0.0
 40
0.75
  0
LINE
  5
37C
330
1E
100
AcDbEntity
  8
0
  6
CONTINUOUS
 62
     5
100
AcDbLine
 10
7.1875
 20
20.225
 30
0.0
 11
7.1875
 21
22.025
 31
0.0
  0
LINE
  5
37D
330
1E
100
AcDbEntity
  8
0
  6
CONTINUOUS
 62
     5
100
AcDbLine
 10
5.8125
 20
21.528
 30
0.0
 11
5.8125
 21
22.128
 31
0.0
  0
CIRCLE
  5
37E
330
1E
100
AcDbEntity
  8
0
  6
CONTINUOUS
 62
     5
100
AcDbCircle
 10
8.5625
 20
21.82799999999998
 30
0.0
 40
0.211
  0
ARC
  5
37F
330
1E
100
AcDbEntity
  8
0
  6
CONTINUOUS
 62
     5
100
AcDbCircle
 10
8.5625
 20
21.82799999999998
 30
0.0
 40
0.247
100
AcDbArc
 50
85.00000099999999
 51
5.0
  0
CIRCLE
  5
380
330
1E
100
AcDbEntity
  8
0
  6
CONTINUOUS
 62
     5
100
AcDbCircle
 10
8.5625
 20
21.82799999999998
 30
0.0
 40
0.25
  0
LINE
  5
381
330
1E
100
AcDbEntity
  8
0
  6
CONTINUOUS
 62
     5
100
AcDbLine
 10
5.6565
 20
25.419
 30
0.0
 11
5.6565
 21
26.019
 31
0.0
  0
LINE
  5
387
330
1E
100
AcDbEntity
  8
0
  6
CONTINUOUS
 62
     5
100
AcDbLine
 10
5.6565
 20
23.73099999999999
 30
0.0
 11
5.6565
 21
24.331
 31
0.0
  0
ARC
  5
38E
330
1E
100
AcDbEntity
  8
0
  6
CONTINUOUS
 62
     5
100
AcDbCircle
 10
5.6565
 20
25.719
 30
0.0
 40
0.247
100
AcDbArc
 50
85.00000099999999
 51
5.0
  0
CIRCLE
  5
38F
330
1E
100
AcDbEntity
  8
0
  6
CONTINUOUS
 62
     5
100
AcDbCircle
 10
5.6565
 20
25.719
 30
0.0
 40
0.211
  0
CIRCLE
  5
390
330
1E
100
AcDbEntity
  8
0
  6
CONTINUOUS
 62
     5
100
AcDbCircle
 10
5.6565
 20
25.719
 30
0.0
 40
0.25
  0
LINE
  5
391
330
1E
100
AcDbEntity
  8
0
  6
CONTINUOUS
 62
     5
100
AcDbLine
 10
5.356499999999997
 20
25.719
 30
0.0
 11
5.9565
 21
25.719
 31
0.0
  0
LINE
  5
392
330
1E
100
AcDbEntity
  8
0
  6
CONTINUOUS
 62
     5
100
AcDbLine
 10
5.356499999999997
 20
24.031
 30
0.0
 11
5.9565
 21
24.031
 31
0.0
  0
ARC
  5
393
330
1E
100
AcDbEntity
  8
0
  6
CONTINUOUS
 62
     5
100
AcDbCircle
 10
5.6565
 20
24.031
 30
0.0
 40
0.247
100
AcDbArc
 50
85.00000099999999
 51
5.0
  0
CIRCLE
  5
394
330
1E
100
AcDbEntity
  8
0
  6
CONTINUOUS
 62
     5
100
AcDbCircle
 10
5.6565
 20
24.031
 30
0.0
 40
0.211
  0
CIRCLE
  5
395
330
1E
100
AcDbEntity
  8
0
  6
CONTINUOUS
 62
     5
100
AcDbCircle
 10
5.6565
 20
24.031
 30
0.0
 40
0.25
  0
LINE
  5
398
330
1E
100
AcDbEntity
  8
0
  6
CONTINUOUS
 62
     5
100
AcDbLine
 10
5.5125
 20
21.82799999999998
 30
0.0
 11
6.112499999999998
 21
21.82799999999998
 31
0.0
  0
LINE
  5
399
330
1E
100
AcDbEntity
  8
0
  6
CONTINUOUS
 62
     5
100
AcDbLine
 10
5.5125
 20
20.422
 30
0.0
 11
6.112499999999998
 21
20.422
 31
0.0
  0
ARC
  5
39A
330
1E
100
AcDbEntity
  8
0
  6
CONTINUOUS
 62
     5
100
AcDbCircle
 10
5.8125
 20
20.422
 30
0.0
 40
0.247
100
AcDbArc
 50
85.00000099999999
 51
5.0
  0
CIRCLE
  5
39B
330
1E
100
AcDbEntity
  8
0
  6
CONTINUOUS
 62
     5
100
AcDbCircle
 10
5.8125
 20
20.422
 30
0.0
 40
0.211
  0
CIRCLE
  5
39C
330
1E
100
AcDbEntity
  8
0
  6
CONTINUOUS
 62
     5
100
AcDbCircle
 10
5.8125
 20
20.422
 30
0.0
 40
0.25
  0
ARC
  5
39E
330
1E
100
AcDbEntity
  8
0
  6
CONTINUOUS
 62
     5
100
AcDbCircle
 10
5.8125
 20
21.82799999999998
 30
0.0
 40
0.247
100
AcDbArc
 50
85.00000099999999
 51
5.0
  0
CIRCLE
  5
39F
330
1E
100
AcDbEntity
  8
0
  6
CONTINUOUS
 62
     5
100
AcDbCircle
 10
5.8125
 20
21.82799999999998
 30
0.0
 40
0.211
  0
CIRCLE
  5
3A0
330
1E
100
AcDbEntity
  8
0
  6
CONTINUOUS
 62
     5
100
AcDbCircle
 10
5.8125
 20
21.82799999999998
 30
0.0
 40
0.25
  0
LINE
  5
3A1
330
1E
100
AcDbEntity
  8
0
  6
CONTINUOUS
 62
     5
100
AcDbLine
 10
10.6875
 20
17.875
 30
0.0
 11
3.6875
 21
17.875
 31
0.0
  0
LINE
  5
3B1
330
1E
100
AcDbEntity
  8
0
  6
CONTINUOUS
 62
     5
100
AcDbLine
 10
7.1875
 20
23.675
 30
0.0
 11
7.1875
 21
26.07499999999999
 31
0.0
  0
LINE
  5
3B4
330
1E
100
AcDbEntity
  8
0
  6
CONTINUOUS
 62
     5
100
AcDbLine
 10
10.6875
 20
26.875
 30
0.0
 11
10.6875
 21
17.875
 31
0.0
  0
TEXT
  5
3B6
330
1E
100
AcDbEntity
  8
0
 62
     5
100
AcDbText
 10
20.07003449999998
 20
14.38201799999999
 30
0.0
 40
0.2125
  1
B
 41
0.825
 72
     4
 11
20.12847199999999
 21
14.48826799999999
 31
0.0
100
AcDbText
  0
LINE
  5
3B7
330
1E
100
AcDbEntity
  8
0
  6
CONTINUOUS
 62
     5
100
AcDbLine
 10
19.0125
 20
13.828
 30
0.0
 11
19.6125
 21
13.828
 31
0.0
  0
LINE
  5
3B8
330
1E
100
AcDbEntity
  8
0
  6
CONTINUOUS
 62
     5
100
AcDbLine
 10
19.3125
 20
13.528
 30
0.0
 11
19.3125
 21
14.128
 31
0.0
  0
CIRCLE
  5
3B9
330
1E
100
AcDbEntity
  8
0
  6
CONTINUOUS
 62
     5
100
AcDbCircle
 10
19.3125
 20
13.828
 30
0.0
 40
0.211
  0
ARC
  5
3BA
330
1E
100
AcDbEntity
  8
0
  6
CONTINUOUS
 62
     5
100
AcDbCircle
 10
19.3125
 20
13.828
 30
0.0
 40
0.247
100
AcDbArc
 50
85.00000099999999
 51
5.0
  0
CIRCLE
  5
3BB
330
1E
100
AcDbEntity
  8
0
  6
CONTINUOUS
 62
     5
100
AcDbCircle
 10
19.3125
 20
13.828
 30
0.0
 40
0.25
  0
TEXT
  5
3C4
330
1E
100
AcDbEntity
  8
0
 62
     5
100
AcDbText
 10
22.49365425
 20
10.978819
 30
0.0
 40
0.2125
  1
GA
 41
0.825
 72
     4
 11
22.639748
 21
11.085069
 31
0.0
100
AcDbText
  0
TEXT
  5
3C5
330
1E
100
AcDbEntity
  8
0
 62
     5
100
AcDbText
 10
21.53422491399698
 20
9.033153691488253
 30
0.0
 40
0.1872
  1
DAMAN ****
 41
0.825
 72
     4
 11
22.28068491399698
 21
9.126753691488254
 31
0.0
100
AcDbText
  0
LINE
  5
3C6
330
1E
100
AcDbEntity
  8
0
  6
CONTINUOUS
 62
     5
100
AcDbLine
 10
21.34749999999999
 20
10.615
 30
0.0
 11
22.5275
 21
10.615
 31
0.0
  0
CIRCLE
  5
3D0
330
1E
100
AcDbEntity
  8
0
  6
CONTINUOUS
 62
     5
100
AcDbCircle
 10
21.9375
 20
10.615
 30
0.0
 40
0.4920000000000001
  0
CIRCLE
  5
3D1
330
1E
100
AcDbEntity
  8
0
  6
CONTINUOUS
 62
     5
100
AcDbCircle
 10
21.9375
 20
10.615
 30
0.0
 40
0.307
  0
CIRCLE
  5
3D2
330
1E
100
AcDbEntity
  8
0
  6
CONTINUOUS
 62
     5
100
AcDbCircle
 10
21.9375
 20
10.615
 30
0.0
 40
0.281
  0
ARC
  5
3D3
330
1E
100
AcDbEntity
  8
0
  6
CONTINUOUS
 62
     5
100
AcDbCircle
 10
21.9375
 20
10.615
 30
0.0
 40
0.283
100
AcDbArc
 50
85.00000099999999
 51
5.0
  0
CIRCLE
  5
3D4
330
1E
100
AcDbEntity
  8
0
  6
CONTINUOUS
 62
     5
100
AcDbCircle
 10
21.9375
 20
10.615
 30
0.0
 40
0.254
  0
CIRCLE
  5
3D5
330
1E
100
AcDbEntity
  8
0
  6
CONTINUOUS
 62
     5
100
AcDbCircle
 10
21.9375
 20
10.615
 30
0.0
 40
0.242
  0
LINE
  5
3D6
330
1E
100
AcDbEntity
  8
0
  6
CONTINUOUS
 62
     5
100
AcDbLine
 10
21.9375
 20
10.025
 30
0.0
 11
21.9375
 21
11.205
 31
0.0
  0
LINE
  5
3D7
330
1E
100
AcDbEntity
  8
0
  6
CONTINUOUS
 62
     5
100
AcDbLine
 10
19.0125
 20
12.422
 30
0.0
 11
19.6125
 21
12.422
 31
0.0
  0
LINE
  5
3D8
330
1E
100
AcDbEntity
  8
0
  6
CONTINUOUS
 62
     5
100
AcDbLine
 10
19.3125
 20
12.122
 30
0.0
 11
19.3125
 21
12.72199999999999
 31
0.0
  0
CIRCLE
  5
3D9
330
1E
100
AcDbEntity
  8
0
  6
CONTINUOUS
 62
     5
100
AcDbCircle
 10
19.3125
 20
12.422
 30
0.0
 40
0.211
  0
ARC
  5
3DA
330
1E
100
AcDbEntity
  8
0
  6
CONTINUOUS
 62
     5
100
AcDbCircle
 10
19.3125
 20
12.422
 30
0.0
 40
0.247
100
AcDbArc
 50
85.00000099999999
 51
5.0
  0
CIRCLE
  5
3DB
330
1E
100
AcDbEntity
  8
0
  6
CONTINUOUS
 62
     5
100
AcDbCircle
 10
19.3125
 20
12.422
 30
0.0
 40
0.25
  0
TEXT
  5
3DC
330
1E
100
AcDbEntity
  8
0
 62
     5
100
AcDbText
 10
20.0778475
 20
10.260069
 30
0.0
 40
0.2125
  1
A
 41
0.825
 72
     4
 11
20.136285
 21
10.366319
 31
0.0
100
AcDbText
  0
LINE
  5
3DD
330
1E
100
AcDbEntity
  8
0
  6
CONTINUOUS
 62
     5
100
AcDbLine
 10
19.3125
 20
10.02799999999999
 30
0.0
 11
19.3125
 21
10.62799999999999
 31
0.0
  0
LINE
  5
3DE
330
1E
100
AcDbEntity
  8
0
  6
CONTINUOUS
 62
     5
100
AcDbLine
 10
19.0125
 20
10.32799999999999
 30
0.0
 11
19.6125
 21
10.32799999999999
 31
0.0
  0
CIRCLE
  5
3DF
330
1E
100
AcDbEntity
  8
0
  6
CONTINUOUS
 62
     5
100
AcDbCircle
 10
19.3125
 20
10.32799999999999
 30
0.0
 40
0.211
  0
ARC
  5
3E0
330
1E
100
AcDbEntity
  8
0
  6
CONTINUOUS
 62
     5
100
AcDbCircle
 10
19.3125
 20
10.32799999999999
 30
0.0
 40
0.247
100
AcDbArc
 50
85.00000099999999
 51
5.0
  0
CIRCLE
  5
3E1
330
1E
100
AcDbEntity
  8
0
  6
CONTINUOUS
 62
     5
100
AcDbCircle
 10
19.3125
 20
10.32799999999999
 30
0.0
 40
0.25
  0
LINE
  5
3E2
330
1E
100
AcDbEntity
  8
0
  6
CONTINUOUS
 62
     5
100
AcDbLine
 10
19.0125
 20
8.922
 30
0.0
 11
19.6125
 21
8.922
 31
0.0
  0
CIRCLE
  5
3E3
330
1E
100
AcDbEntity
  8
0
  6
CONTINUOUS
 62
     5
100
AcDbCircle
 10
19.3125
 20
8.922
 30
0.0
 40
0.211
  0
LINE
  5
3E4
330
1E
100
AcDbEntity
  8
0
  6
CONTINUOUS
 62
     5
100
AcDbLine
 10
17.9375
 20
8.724999999999999
 30
0.0
 11
17.9375
 21
10.52499999999999
 31
0.0
  0
LINE
  5
3EE
330
1E
100
AcDbEntity
  8
0
  6
CONTINUOUS
 62
     5
100
AcDbLine
 10
17.9375
 20
12.225
 30
0.0
 11
17.9375
 21
14.025
 31
0.0
  0
LINE
  5
3EF
330
1E
100
AcDbEntity
  8
0
  6
CONTINUOUS
 62
     5
100
AcDbLine
 10
16.26249999999999
 20
13.828
 30
0.0
 11
16.8625
 21
13.828
 31
0.0
  0
ARC
  5
3F0
330
1E
100
AcDbEntity
  8
0
  6
CONTINUOUS
 62
     5
100
AcDbCircle
 10
16.5625
 20
13.828
 30
0.0
 40
0.247
100
AcDbArc
 50
85.00000099999999
 51
5.0
  0
CIRCLE
  5
3F1
330
1E
100
AcDbEntity
  8
0
  6
CONTINUOUS
 62
     5
100
AcDbCircle
 10
16.5625
 20
13.828
 30
0.0
 40
0.211
  0
CIRCLE
  5
3F2
330
1E
100
AcDbEntity
  8
0
  6
CONTINUOUS
 62
     5
100
AcDbCircle
 10
16.5625
 20
13.828
 30
0.0
 40
0.25
  0
LINE
  5
3F3
330
1E
100
AcDbEntity
  8
0
  6
CONTINUOUS
 62
     5
100
AcDbLine
 10
16.5625
 20
13.528
 30
0.0
 11
16.5625
 21
14.128
 31
0.0
  0
LINE
  5
400
330
1E
100
AcDbEntity
  8
0
  6
CONTINUOUS
 62
     5
100
AcDbLine
 10
16.26249999999999
 20
12.422
 30
0.0
 11
16.8625
 21
12.422
 31
0.0
  0
CIRCLE
  5
401
330
1E
100
AcDbEntity
  8
0
  6
CONTINUOUS
 62
     5
100
AcDbCircle
 10
16.5625
 20
12.422
 30
0.0
 40
0.211
  0
ARC
  5
402
330
1E
100
AcDbEntity
  8
0
  6
CONTINUOUS
 62
     5
100
AcDbCircle
 10
16.5625
 20
12.422
 30
0.0
 40
0.247
100
AcDbArc
 50
85.00000099999999
 51
5.0
  0
CIRCLE
  5
403
330
1E
100
AcDbEntity
  8
0
  6
CONTINUOUS
 62
     5
100
AcDbCircle
 10
16.5625
 20
12.422
 30
0.0
 40
0.25
  0
LINE
  5
404
330
1E
100
AcDbEntity
  8
0
  6
CONTINUOUS
 62
     5
100
AcDbLine
 10
16.5625
 20
12.122
 30
0.0
 11
16.5625
 21
12.72199999999999
 31
0.0
  0
LINE
  5
405
330
1E
100
AcDbEntity
  8
0
  6
CONTINUOUS
 62
     5
100
AcDbLine
 10
16.26249999999999
 20
10.32799999999999
 30
0.0
 11
16.8625
 21
10.32799999999999
 31
0.0
  0
LINE
  5
406
330
1E
100
AcDbEntity
  8
0
  6
CONTINUOUS
 62
     5
100
AcDbLine
 10
16.5625
 20
10.02799999999999
 30
0.0
 11
16.5625
 21
10.62799999999999
 31
0.0
  0
ARC
  5
407
330
1E
100
AcDbEntity
  8
0
  6
CONTINUOUS
 62
     5
100
AcDbCircle
 10
16.5625
 20
10.32799999999999
 30
0.0
 40
0.247
100
AcDbArc
 50
85.00000099999999
 51
5.0
  0
CIRCLE
  5
408
330
1E
100
AcDbEntity
  8
0
  6
CONTINUOUS
 62
     5
100
AcDbCircle
 10
16.5625
 20
10.32799999999999
 30
0.0
 40
0.211
  0
CIRCLE
  5
409
330
1E
100
AcDbEntity
  8
0
  6
CONTINUOUS
 62
     5
100
AcDbCircle
 10
16.5625
 20
10.32799999999999
 30
0.0
 40
0.25
  0
LINE
  5
40A
330
1E
100
AcDbEntity
  8
0
  6
CONTINUOUS
 62
     5
100
AcDbLine
 10
16.26249999999999
 20
8.922
 30
0.0
 11
16.8625
 21
8.922
 31
0.0
  0
CIRCLE
  5
40B
330
1E
100
AcDbEntity
  8
0
  6
CONTINUOUS
 62
     5
100
AcDbCircle
 10
16.5625
 20
8.922
 30
0.0
 40
0.211
  0
LINE
  5
40C
330
1E
100
AcDbEntity
  8
0
  6
CONTINUOUS
 62
     5
100
AcDbLine
 10
14.6875
 20
10.66599999999999
 30
0.0
 11
14.6875
 21
12.084
 31
0.0
  0
TEXT
  5
418
330
1E
100
AcDbEntity
  8
0
 62
     5
100
AcDbText
 10
14.1012845
 20
12.01875
 30
0.0
 40
0.2125
  1
Y
 41
0.825
 72
     4
 11
14.159722
 21
12.125
 31
0.0
100
AcDbText
  0
ARC
  5
421
330
1E
100
AcDbEntity
  8
0
  6
CONTINUOUS
 62
     5
100
AcDbCircle
 10
14.6875
 20
11.37499999999999
 30
0.0
 40
0.366
100
AcDbArc
 50
85.00000099999999
 51
5.0
  0
CIRCLE
  5
422
330
1E
100
AcDbEntity
  8
0
  6
CONTINUOUS
 62
     5
100
AcDbCircle
 10
14.6875
 20
11.37499999999999
 30
0.0
 40
0.313
  0
CIRCLE
  5
423
330
1E
100
AcDbEntity
  8
0
  6
CONTINUOUS
 62
     5
100
AcDbCircle
 10
14.6875
 20
11.37499999999999
 30
0.0
 40
0.345
  0
CIRCLE
  5
424
330
1E
100
AcDbEntity
  8
0
  6
CONTINUOUS
 62
     5
100
AcDbCircle
 10
14.6875
 20
11.37499999999999
 30
0.0
 40
0.375
  0
CIRCLE
  5
425
330
1E
100
AcDbEntity
  8
0
  6
CONTINUOUS
 62
     5
100
AcDbCircle
 10
14.6875
 20
11.37499999999999
 30
0.0
 40
0.4050000000000001
  0
CIRCLE
  5
426
330
1E
100
AcDbEntity
  8
0
  6
CONTINUOUS
 62
     5
100
AcDbCircle
 10
14.6875
 20
11.37499999999999
 30
0.0
 40
0.59
  0
LINE
  5
427
330
1E
100
AcDbEntity
  8
0
  6
CONTINUOUS
 62
     5
100
AcDbLine
 10
13.9785
 20
11.37499999999999
 30
0.0
 11
15.39649999999999
 21
11.37499999999999
 31
0.0
  0
CIRCLE
  5
42E
330
1E
100
AcDbEntity
  8
0
  6
CONTINUOUS
 62
     5
100
AcDbCircle
 10
17.9375
 20
13.125
 30
0.0
 40
0.75
  0
LINE
  5
42F
330
1E
100
AcDbEntity
  8
0
  6
CONTINUOUS
 62
     5
100
AcDbLine
 10
17.0375
 20
13.125
 30
0.0
 11
18.8375
 21
13.125
 31
0.0
  0
LINE
  5
431
330
1E
100
AcDbEntity
  8
0
  6
CONTINUOUS
 62
     5
100
AcDbLine
 10
17.0375
 20
9.625
 30
0.0
 11
18.8375
 21
9.625
 31
0.0
  0
CIRCLE
  5
434
330
1E
100
AcDbEntity
  8
0
  6
CONTINUOUS
 62
     5
100
AcDbCircle
 10
17.9375
 20
9.625
 30
0.0
 40
0.75
  0
ARC
  5
438
330
1E
100
AcDbEntity
  8
0
  6
CONTINUOUS
 62
     5
100
AcDbCircle
 10
19.3125
 20
8.922
 30
0.0
 40
0.247
100
AcDbArc
 50
85.00000099999999
 51
5.0
  0
CIRCLE
  5
439
330
1E
100
AcDbEntity
  8
0
  6
CONTINUOUS
 62
     5
100
AcDbCircle
 10
19.3125
 20
8.922
 30
0.0
 40
0.25
  0
LINE
  5
43A
330
1E
100
AcDbEntity
  8
0
  6
CONTINUOUS
 62
     5
100
AcDbLine
 10
19.3125
 20
8.621999999999998
 30
0.0
 11
19.3125
 21
9.221999999999999
 31
0.0
  0
ARC
  5
43B
330
1E
100
AcDbEntity
  8
0
  6
CONTINUOUS
 62
     5
100
AcDbCircle
 10
16.5625
 20
8.922
 30
0.0
 40
0.247
100
AcDbArc
 50
85.00000099999999
 51
5.0
  0
CIRCLE
  5
43C
330
1E
100
AcDbEntity
  8
0
  6
CONTINUOUS
 62
     5
100
AcDbCircle
 10
16.5625
 20
8.922
 30
0.0
 40
0.25
  0
LINE
  5
43D
330
1E
100
AcDbEntity
  8
0
  6
CONTINUOUS
 62
     5
100
AcDbLine
 10
16.5625
 20
8.621999999999998
 30
0.0
 11
16.5625
 21
9.221999999999999
 31
0.0
  0
LINE
  5
440
330
1E
100
AcDbEntity
  8
0
  6
CONTINUOUS
 62
     5
100
AcDbLine
 10
13.6875
 20
7.875
 30
0.0
 11
13.6875
 21
14.875
 31
0.0
  0
LINE
  5
46D
330
1E
100
AcDbEntity
  8
0
  6
CONTINUOUS
 62
     5
100
AcDbLine
 10
23.68749999999999
 20
26.875
 30
0.0
 11
13.6875
 21
26.875
 31
0.0
  0
LINE
  5
46E
330
1E
100
AcDbEntity
  8
0
  6
CONTINUOUS
 62
     5
100
AcDbLine
 10
13.6875
 20
14.875
 30
0.0
 11
23.68749999999999
 21
14.875
 31
0.0
  0
LINE
  5
46F
330
1E
100
AcDbEntity
  8
0
  6
CONTINUOUS
 62
     5
100
AcDbLine
 10
23.68749999999999
 20
7.875
 30
0.0
 11
13.6875
 21
7.875
 31
0.0
  0
LINE
  5
470
330
1E
100
AcDbEntity
  8
0
  6
CONTINUOUS
 62
     5
100
AcDbLine
 10
13.6875
 20
17.875
 30
0.0
 11
23.68749999999999
 21
17.875
 31
0.0
  0
LINE
  5
5B2
330
1E
100
AcDbEntity
  8
DAMAN
100
AcDbLine
 10
3.125
 20
26.87549999999999
 30
0.0
 11
4.75
 21
26.87549999999999
 31
0.0
  0
LINE
  5
5B3
330
1E
100
AcDbEntity
  8
DAMAN
100
AcDbLine
 10
4.75
 20
26.87549999999999
 30
0.0
 11
4.75
 21
17.87549999999998
 31
0.0
  0
LINE
  5
5B4
330
1E
100
AcDbEntity
  8
DAMAN
100
AcDbLine
 10
4.75
 20
17.87549999999998
 30
0.0
 11
3.125
 21
17.87549999999998
 31
0.0
  0
LINE
  5
5B5
330
1E
100
AcDbEntity
  8
DAMAN
100
AcDbLine
 10
3.125
 20
17.87549999999998
 30
0.0
 11
3.125
 21
26.87549999999999
 31
0.0
  0
LINE
  5
5B6
330
1E
100
AcDbEntity
  8
DAMAN
100
AcDbLine
 10
3.3125
 20
17.87549999999998
 30
0.0
 11
3.3125
 21
26.87549999999999
 31
0.0
  0
LINE
  5
5B7
330
1E
100
AcDbEntity
  8
DAMAN
100
AcDbLine
 10
3.3125
 20
19.09424999999998
 30
0.0
 11
3.375
 21
19.09424999999998
 31
0.0
  0
LINE
  5
5B8
330
1E
100
AcDbEntity
  8
DAMAN
100
AcDbLine
 10
3.375
 20
19.09424999999998
 30
0.0
 11
3.375
 21
18.03174999999998
 31
0.0
  0
LINE
  5
5B9
330
1E
100
AcDbEntity
  8
DAMAN
100
AcDbLine
 10
3.375
 20
18.03174999999998
 30
0.0
 11
3.3125
 21
18.03174999999998
 31
0.0
  0
LINE
  5
5BA
330
1E
100
AcDbEntity
  8
DAMAN
100
AcDbLine
 10
3.375
 20
18.99601299999998
 30
0.0
 11
3.644664999999998
 21
18.99601299999998
 31
0.0
  0
LINE
  5
5BB
330
1E
100
AcDbEntity
  8
DAMAN
100
AcDbLine
 10
3.6875
 20
18.92182099999998
 30
0.0
 11
3.6875
 21
18.20417899999998
 31
0.0
  0
LINE
  5
5BC
330
1E
100
AcDbEntity
  8
DAMAN
100
AcDbLine
 10
3.644664999999998
 20
18.12998699999998
 30
0.0
 11
3.375
 21
18.12998699999998
 31
0.0
  0
LINE
  5
5BD
330
1E
100
AcDbEntity
  8
DAMAN
100
AcDbLine
 10
3.375
 20
18.77950599999998
 30
0.0
 11
3.625
 21
18.77950599999998
 31
0.0
  0
LINE
  5
5BE
330
1E
100
AcDbEntity
  8
DAMAN
100
AcDbLine
 10
3.375
 20
18.34649399999999
 30
0.0
 11
3.625
 21
18.34649399999999
 31
0.0
  0
ARC
  5
5BF
330
1E
100
AcDbEntity
  8
DAMAN
100
AcDbCircle
 10
3.28125
 20
18.563
 30
0.0
 40
0.40625
100
AcDbArc
 50
327.7957719999999
 51
32.20422799999993
  0
ARC
  5
5C0
330
1E
100
AcDbEntity
  8
DAMAN
100
AcDbCircle
 10
3.5625
 20
18.23823999999998
 30
0.0
 40
0.125
100
AcDbArc
 50
300.0
 51
59.99999999999997
  0
ARC
  5
5C1
330
1E
100
AcDbEntity
  8
DAMAN
100
AcDbCircle
 10
3.5625
 20
18.88776
 30
0.0
 40
0.125
100
AcDbArc
 50
300.0
 51
59.99999999999997
  0
LINE
  5
5C2
330
1E
100
AcDbEntity
  8
DAMAN
100
AcDbLine
 10
3.644664999999998
 20
18.99601299999998
 30
0.0
 11
3.6875
 21
18.92182099999998
 31
0.0
  0
LINE
  5
5C3
330
1E
100
AcDbEntity
  8
DAMAN
100
AcDbLine
 10
3.644664999999998
 20
18.12998699999998
 30
0.0
 11
3.6875
 21
18.20417899999998
 31
0.0
  0
LINE
  5
5C4
330
1E
100
AcDbEntity
  8
DAMAN
100
AcDbLine
 10
3.125
 20
18.81299999999998
 30
0.0
 11
2.40625
 21
18.81299999999998
 31
0.0
  0
LINE
  5
5C5
330
1E
100
AcDbEntity
  8
DAMAN
100
AcDbLine
 10
2.40625
 20
18.81299999999998
 30
0.0
 11
2.375
 21
18.78174999999998
 31
0.0
  0
LINE
  5
5C6
330
1E
100
AcDbEntity
  8
DAMAN
100
AcDbLine
 10
2.375
 20
18.78174999999998
 30
0.0
 11
2.375
 21
18.34424999999998
 31
0.0
  0
LINE
  5
5C7
330
1E
100
AcDbEntity
  8
DAMAN
100
AcDbLine
 10
2.375
 20
18.34424999999998
 30
0.0
 11
2.40625
 21
18.31299999999998
 31
0.0
  0
LINE
  5
5C8
330
1E
100
AcDbEntity
  8
DAMAN
100
AcDbLine
 10
2.40625
 20
18.31299999999998
 30
0.0
 11
3.125
 21
18.31299999999998
 31
0.0
  0
LINE
  5
5C9
330
1E
100
AcDbEntity
  8
DAMAN
100
AcDbLine
 10
3.125
 20
18.78174999999998
 30
0.0
 11
2.375
 21
18.78174999999998
 31
0.0
  0
LINE
  5
5CA
330
1E
100
AcDbEntity
  8
DAMAN
100
AcDbLine
 10
3.125
 20
18.34424999999998
 30
0.0
 11
2.375
 21
18.34424999999998
 31
0.0
  0
LINE
  5
5CB
330
1E
100
AcDbEntity
  8
DAMAN
100
AcDbLine
 10
3.8125
 20
18.563
 30
0.0
 11
2.28125
 21
18.563
 31
0.0
  0
LINE
  5
5CC
330
1E
100
AcDbEntity
  8
DAMAN
100
AcDbLine
 10
3.8125
 20
26.188
 30
0.0
 11
2.28125
 21
26.188
 31
0.0
  0
LINE
  5
5CD
330
1E
100
AcDbEntity
  8
DAMAN
100
AcDbLine
 10
3.125
 20
25.96925
 30
0.0
 11
2.375
 21
25.96925
 31
0.0
  0
LINE
  5
5CE
330
1E
100
AcDbEntity
  8
DAMAN
100
AcDbLine
 10
2.40625
 20
25.93799999999999
 30
0.0
 11
3.125
 21
25.93799999999999
 31
0.0
  0
LINE
  5
5CF
330
1E
100
AcDbEntity
  8
DAMAN
100
AcDbLine
 10
3.125
 20
26.40674999999999
 30
0.0
 11
2.375
 21
26.40674999999999
 31
0.0
  0
LINE
  5
5D0
330
1E
100
AcDbEntity
  8
DAMAN
100
AcDbLine
 10
3.125
 20
26.438
 30
0.0
 11
2.40625
 21
26.438
 31
0.0
  0
LINE
  5
5D1
330
1E
100
AcDbEntity
  8
DAMAN
100
AcDbLine
 10
2.375
 20
26.40674999999999
 30
0.0
 11
2.375
 21
25.96925
 31
0.0
  0
LINE
  5
5D2
330
1E
100
AcDbEntity
  8
DAMAN
100
AcDbLine
 10
2.40625
 20
26.438
 30
0.0
 11
2.375
 21
26.40674999999999
 31
0.0
  0
LINE
  5
5D3
330
1E
100
AcDbEntity
  8
DAMAN
100
AcDbLine
 10
2.375
 20
25.96925
 30
0.0
 11
2.40625
 21
25.93799999999999
 31
0.0
  0
ARC
  5
5D4
330
1E
100
AcDbEntity
  8
DAMAN
100
AcDbCircle
 10
3.28125
 20
26.188
 30
0.0
 40
0.40625
100
AcDbArc
 50
327.7957719999999
 51
32.20422799999993
  0
LINE
  5
5D5
330
1E
100
AcDbEntity
  8
DAMAN
100
AcDbLine
 10
3.375
 20
26.71924999999999
 30
0.0
 11
3.375
 21
25.65675
 31
0.0
  0
LINE
  5
5D6
330
1E
100
AcDbEntity
  8
DAMAN
100
AcDbLine
 10
3.6875
 20
26.546821
 30
0.0
 11
3.6875
 21
25.82917899999999
 31
0.0
  0
ARC
  5
5D7
330
1E
100
AcDbEntity
  8
DAMAN
100
AcDbCircle
 10
3.5625
 20
26.51275999999999
 30
0.0
 40
0.125
100
AcDbArc
 50
300.0
 51
59.99999999999997
  0
LINE
  5
5D8
330
1E
100
AcDbEntity
  8
DAMAN
100
AcDbLine
 10
3.644664999999998
 20
26.62101299999999
 30
0.0
 11
3.6875
 21
26.546821
 31
0.0
  0
LINE
  5
5D9
330
1E
100
AcDbEntity
  8
DAMAN
100
AcDbLine
 10
3.375
 20
26.62101299999999
 30
0.0
 11
3.644664999999998
 21
26.62101299999999
 31
0.0
  0
LINE
  5
5DA
330
1E
100
AcDbEntity
  8
DAMAN
100
AcDbLine
 10
3.3125
 20
26.71924999999999
 30
0.0
 11
3.375
 21
26.71924999999999
 31
0.0
  0
LINE
  5
5DB
330
1E
100
AcDbEntity
  8
DAMAN
100
AcDbLine
 10
3.375
 20
26.40450599999999
 30
0.0
 11
3.625
 21
26.40450599999999
 31
0.0
  0
ARC
  5
5DC
330
1E
100
AcDbEntity
  8
DAMAN
100
AcDbCircle
 10
3.5625
 20
25.86323999999999
 30
0.0
 40
0.125
100
AcDbArc
 50
300.0
 51
59.99999999999997
  0
LINE
  5
5DD
330
1E
100
AcDbEntity
  8
DAMAN
100
AcDbLine
 10
3.375
 20
25.971494
 30
0.0
 11
3.625
 21
25.971494
 31
0.0
  0
LINE
  5
5DE
330
1E
100
AcDbEntity
  8
DAMAN
100
AcDbLine
 10
3.644664999999998
 20
25.754987
 30
0.0
 11
3.375
 21
25.754987
 31
0.0
  0
LINE
  5
5DF
330
1E
100
AcDbEntity
  8
DAMAN
100
AcDbLine
 10
3.375
 20
25.65675
 30
0.0
 11
3.3125
 21
25.65675
 31
0.0
  0
LINE
  5
5E0
330
1E
100
AcDbEntity
  8
DAMAN
100
AcDbLine
 10
3.644664999999998
 20
25.754987
 30
0.0
 11
3.6875
 21
25.82917899999999
 31
0.0
  0
CIRCLE
  5
5E1
330
1E
100
AcDbEntity
  8
DAMAN
100
AcDbCircle
 10
4.1875
 20
26.188
 30
0.0
 40
0.53125
  0
CIRCLE
  5
5E2
330
1E
100
AcDbEntity
  8
DAMAN
100
AcDbCircle
 10
4.1875
 20
18.563
 30
0.0
 40
0.53125
  0
LWPOLYLINE
  5
5E3
330
1E
100
AcDbEntity
  8
DAMAN
100
AcDbPolyline
 90
        6
 70
     1
 43
0.0
 10
4.5625
 20
26.40450599999999
 10
4.1875
 20
26.62101299999999
 10
3.8125
 20
26.40450599999999
 10
3.8125
 20
25.971494
 10
4.1875
 20
25.754987
 10
4.5625
 20
25.971494
  0
CIRCLE
  5
5E4
330
1E
100
AcDbEntity
  8
DAMAN
100
AcDbCircle
 10
4.1875
 20
26.188
 30
0.0
 40
0.375
  0
CIRCLE
  5
5E5
330
1E
100
AcDbEntity
  8
DAMAN
100
AcDbCircle
 10
4.1875
 20
18.563
 30
0.0
 40
0.375
  0
LWPOLYLINE
  5
5E6
330
1E
100
AcDbEntity
  8
DAMAN
100
AcDbPolyline
 90
        6
 70
     1
 43
0.0
 10
4.5625
 20
18.77950599999998
 10
4.1875
 20
18.99601299999998
 10
3.8125
 20
18.77950599999998
 10
3.8125
 20
18.34649399999999
 10
4.1875
 20
18.12998699999998
 10
4.5625
 20
18.34649399999999
  0
INSERT
  5
5E7
330
1E
100
AcDbEntity
  8
DAMAN
100
AcDbBlockReference
  2
100CROSS
 10
4.1875
 20
26.188
 30
0.0
 41
0.8
 42
0.8000000000000007
  0
INSERT
  5
5E8
330
1E
100
AcDbEntity
  8
DAMAN
100
AcDbBlockReference
  2
100CROSS
 10
4.1875
 20
18.563
 30
0.0
 41
0.8
 42
0.8000000000000007
  0
CIRCLE
  5
5EA
330
1E
100
AcDbEntity
  8
DAMAN
100
AcDbCircle
 10
4.1875
 20
22.375
 30
0.0
 40
0.53125
  0
LINE
  5
5EB
330
1E
100
AcDbEntity
  8
DAMAN
100
AcDbLine
 10
3.8125
 20
22.375
 30
0.0
 11
2.28125
 21
22.375
 31
0.0
  0
LINE
  5
5EC
330
1E
100
AcDbEntity
  8
DAMAN
100
AcDbLine
 10
3.644664999999998
 20
21.941987
 30
0.0
 11
3.6875
 21
22.016179
 31
0.0
  0
LINE
  5
5ED
330
1E
100
AcDbEntity
  8
DAMAN
100
AcDbLine
 10
3.644664999999998
 20
22.80801299999999
 30
0.0
 11
3.6875
 21
22.733821
 31
0.0
  0
ARC
  5
5EE
330
1E
100
AcDbEntity
  8
DAMAN
100
AcDbCircle
 10
3.5625
 20
22.69976
 30
0.0
 40
0.125
100
AcDbArc
 50
300.0
 51
59.99999999999997
  0
ARC
  5
5EF
330
1E
100
AcDbEntity
  8
DAMAN
100
AcDbCircle
 10
3.5625
 20
22.05023999999999
 30
0.0
 40
0.125
100
AcDbArc
 50
300.0
 51
59.99999999999997
  0
ARC
  5
5F0
330
1E
100
AcDbEntity
  8
DAMAN
100
AcDbCircle
 10
3.28125
 20
22.375
 30
0.0
 40
0.40625
100
AcDbArc
 50
327.7957719999999
 51
32.20422799999993
  0
LINE
  5
5F1
330
1E
100
AcDbEntity
  8
DAMAN
100
AcDbLine
 10
2.375
 20
22.59374999999999
 30
0.0
 11
2.375
 21
22.15625
 31
0.0
  0
LINE
  5
5F2
330
1E
100
AcDbEntity
  8
DAMAN
100
AcDbLine
 10
3.375
 20
22.90624999999999
 30
0.0
 11
3.375
 21
21.84375
 31
0.0
  0
LINE
  5
5F3
330
1E
100
AcDbEntity
  8
DAMAN
100
AcDbLine
 10
3.125
 20
22.15625
 30
0.0
 11
2.375
 21
22.15625
 31
0.0
  0
LINE
  5
5F4
330
1E
100
AcDbEntity
  8
DAMAN
100
AcDbLine
 10
2.40625
 20
22.12499999999999
 30
0.0
 11
3.125
 21
22.12499999999999
 31
0.0
  0
LINE
  5
5F5
330
1E
100
AcDbEntity
  8
DAMAN
100
AcDbLine
 10
2.375
 20
22.15625
 30
0.0
 11
2.40625
 21
22.12499999999999
 31
0.0
  0
LINE
  5
5F6
330
1E
100
AcDbEntity
  8
DAMAN
100
AcDbLine
 10
3.375
 20
21.84375
 30
0.0
 11
3.3125
 21
21.84375
 31
0.0
  0
LINE
  5
5F7
330
1E
100
AcDbEntity
  8
DAMAN
100
AcDbLine
 10
3.644664999999998
 20
21.941987
 30
0.0
 11
3.375
 21
21.941987
 31
0.0
  0
LINE
  5
5F8
330
1E
100
AcDbEntity
  8
DAMAN
100
AcDbLine
 10
3.375
 20
22.158494
 30
0.0
 11
3.625
 21
22.158494
 31
0.0
  0
LINE
  5
5F9
330
1E
100
AcDbEntity
  8
DAMAN
100
AcDbLine
 10
3.125
 20
22.59374999999999
 30
0.0
 11
2.375
 21
22.59374999999999
 31
0.0
  0
LINE
  5
5FA
330
1E
100
AcDbEntity
  8
DAMAN
100
AcDbLine
 10
3.125
 20
22.625
 30
0.0
 11
2.40625
 21
22.625
 31
0.0
  0
LINE
  5
5FB
330
1E
100
AcDbEntity
  8
DAMAN
100
AcDbLine
 10
2.40625
 20
22.625
 30
0.0
 11
2.375
 21
22.59374999999999
 31
0.0
  0
LINE
  5
5FC
330
1E
100
AcDbEntity
  8
DAMAN
100
AcDbLine
 10
3.3125
 20
22.90624999999999
 30
0.0
 11
3.375
 21
22.90624999999999
 31
0.0
  0
LINE
  5
5FD
330
1E
100
AcDbEntity
  8
DAMAN
100
AcDbLine
 10
3.375
 20
22.59150599999999
 30
0.0
 11
3.625
 21
22.59150599999999
 31
0.0
  0
LINE
  5
5FE
330
1E
100
AcDbEntity
  8
DAMAN
100
AcDbLine
 10
3.375
 20
22.80801299999999
 30
0.0
 11
3.644664999999998
 21
22.80801299999999
 31
0.0
  0
LWPOLYLINE
  5
5FF
330
1E
100
AcDbEntity
  8
DAMAN
100
AcDbPolyline
 90
        6
 70
     1
 43
0.0
 10
4.5625
 20
22.59150599999999
 10
4.1875
 20
22.80801299999999
 10
3.8125
 20
22.59150599999999
 10
3.8125
 20
22.158494
 10
4.1875
 20
21.941987
 10
4.5625
 20
22.158494
  0
CIRCLE
  5
600
330
1E
100
AcDbEntity
  8
DAMAN
100
AcDbCircle
 10
4.1875
 20
22.375
 30
0.0
 40
0.375
  0
LINE
  5
601
330
1E
100
AcDbEntity
  8
DAMAN
100
AcDbLine
 10
3.6875
 20
22.733821
 30
0.0
 11
3.6875
 21
22.016179
 31
0.0
  0
INSERT
  5
602
330
1E
100
AcDbEntity
  8
DAMAN
100
AcDbBlockReference
  2
100CROSS
 10
4.1875
 20
22.375
 30
0.0
 41
0.8
 42
0.8000000000000007
  0
LINE
  5
603
330
1E
100
AcDbEntity
  8
0
  6
HIDDEN
100
AcDbLine
 10
3.6875
 20
17.875
 30
0.0
 11
3.6875
 21
26.875
 31
0.0
  0
LINE
  5
606
330
1E
100
AcDbEntity
  8
0
  6
HIDDEN
100
AcDbLine
 10
33.6875
 20
17.875
 30
0.0
 11
33.6875
 21
26.875
 31
0.0
  0
INSERT
  5
607
330
1E
100
AcDbEntity
  8
DAMAN
100
AcDbBlockReference
  2
100CROSS
 10
33.1875
 20
22.375
 30
0.0
 41
-0.8
 42
0.8000000000000007
  0
LINE
  5
608
330
1E
100
AcDbEntity
  8
DAMAN
100
AcDbLine
 10
32.625
 20
26.87549999999999
 30
0.0
 11
32.625
 21
17.87549999999998
 31
0.0
  0
LINE
  5
609
330
1E
100
AcDbEntity
  8
DAMAN
100
AcDbLine
 10
34.25
 20
17.87549999999998
 30
0.0
 11
34.25
 21
26.87549999999999
 31
0.0
  0
LINE
  5
60A
330
1E
100
AcDbEntity
  8
DAMAN
100
AcDbLine
 10
34.0625
 20
17.87549999999998
 30
0.0
 11
34.0625
 21
26.87549999999999
 31
0.0
  0
INSERT
  5
60B
330
1E
100
AcDbEntity
  8
DAMAN
100
AcDbBlockReference
  2
100CROSS
 10
33.1875
 20
18.563
 30
0.0
 41
-0.8
 42
0.8000000000000007
  0
CIRCLE
  5
60C
330
1E
100
AcDbEntity
  8
DAMAN
100
AcDbCircle
 10
33.1875
 20
18.563
 30
0.0
 40
0.53125
  0
LINE
  5
60D
330
1E
100
AcDbEntity
  8
DAMAN
100
AcDbLine
 10
33.5625
 20
18.563
 30
0.0
 11
35.09375
 21
18.563
 31
0.0
  0
LINE
  5
60E
330
1E
100
AcDbEntity
  8
DAMAN
100
AcDbLine
 10
33.730335
 20
18.12998699999998
 30
0.0
 11
33.6875
 21
18.20417899999998
 31
0.0
  0
LINE
  5
60F
330
1E
100
AcDbEntity
  8
DAMAN
100
AcDbLine
 10
33.730335
 20
18.99601299999998
 30
0.0
 11
33.6875
 21
18.92182099999998
 31
0.0
  0
ARC
  5
610
330
1E
100
AcDbEntity
  8
DAMAN
100
AcDbCircle
 10
33.8125
 20
18.88776
 30
0.0
 40
0.125
100
AcDbArc
 50
119.9999999999999
 51
239.9999999999999
  0
ARC
  5
611
330
1E
100
AcDbEntity
  8
DAMAN
100
AcDbCircle
 10
33.8125
 20
18.23823999999998
 30
0.0
 40
0.125
100
AcDbArc
 50
119.9999999999999
 51
239.9999999999999
  0
ARC
  5
612
330
1E
100
AcDbEntity
  8
DAMAN
100
AcDbCircle
 10
34.09375
 20
18.563
 30
0.0
 40
0.40625
100
AcDbArc
 50
147.795772
 51
212.2042279999999
  0
LINE
  5
613
330
1E
100
AcDbEntity
  8
DAMAN
100
AcDbLine
 10
32.625
 20
17.87549999999998
 30
0.0
 11
34.25
 21
17.87549999999998
 31
0.0
  0
LINE
  5
614
330
1E
100
AcDbEntity
  8
DAMAN
100
AcDbLine
 10
35.0
 20
18.78174999999998
 30
0.0
 11
35.0
 21
18.34424999999998
 31
0.0
  0
LINE
  5
615
330
1E
100
AcDbEntity
  8
DAMAN
100
AcDbLine
 10
34.0
 20
19.09424999999998
 30
0.0
 11
34.0
 21
18.03174999999998
 31
0.0
  0
LINE
  5
616
330
1E
100
AcDbEntity
  8
DAMAN
100
AcDbLine
 10
34.25
 20
18.34424999999998
 30
0.0
 11
35.0
 21
18.34424999999998
 31
0.0
  0
LINE
  5
617
330
1E
100
AcDbEntity
  8
DAMAN
100
AcDbLine
 10
34.96875
 20
18.31299999999998
 30
0.0
 11
34.25
 21
18.31299999999998
 31
0.0
  0
LINE
  5
618
330
1E
100
AcDbEntity
  8
DAMAN
100
AcDbLine
 10
35.0
 20
18.34424999999998
 30
0.0
 11
34.96875
 21
18.31299999999998
 31
0.0
  0
LINE
  5
619
330
1E
100
AcDbEntity
  8
DAMAN
100
AcDbLine
 10
34.0
 20
18.03174999999998
 30
0.0
 11
34.0625
 21
18.03174999999998
 31
0.0
  0
LINE
  5
61A
330
1E
100
AcDbEntity
  8
DAMAN
100
AcDbLine
 10
33.730335
 20
18.12998699999998
 30
0.0
 11
34.0
 21
18.12998699999998
 31
0.0
  0
LINE
  5
61B
330
1E
100
AcDbEntity
  8
DAMAN
100
AcDbLine
 10
34.0
 20
18.34649399999999
 30
0.0
 11
33.75
 21
18.34649399999999
 31
0.0
  0
LINE
  5
61C
330
1E
100
AcDbEntity
  8
DAMAN
100
AcDbLine
 10
34.25
 20
18.78174999999998
 30
0.0
 11
35.0
 21
18.78174999999998
 31
0.0
  0
LINE
  5
61D
330
1E
100
AcDbEntity
  8
DAMAN
100
AcDbLine
 10
34.25
 20
18.81299999999998
 30
0.0
 11
34.96875
 21
18.81299999999998
 31
0.0
  0
LINE
  5
61E
330
1E
100
AcDbEntity
  8
DAMAN
100
AcDbLine
 10
34.96875
 20
18.81299999999998
 30
0.0
 11
35.0
 21
18.78174999999998
 31
0.0
  0
LINE
  5
61F
330
1E
100
AcDbEntity
  8
DAMAN
100
AcDbLine
 10
34.0625
 20
19.09424999999998
 30
0.0
 11
34.0
 21
19.09424999999998
 31
0.0
  0
LINE
  5
620
330
1E
100
AcDbEntity
  8
DAMAN
100
AcDbLine
 10
34.0
 20
18.77950599999998
 30
0.0
 11
33.75
 21
18.77950599999998
 31
0.0
  0
LINE
  5
621
330
1E
100
AcDbEntity
  8
DAMAN
100
AcDbLine
 10
34.0
 20
18.99601299999998
 30
0.0
 11
33.730335
 21
18.99601299999998
 31
0.0
  0
LWPOLYLINE
  5
622
330
1E
100
AcDbEntity
  8
DAMAN
100
AcDbPolyline
 90
        6
 70
     1
 43
0.0
 10
32.8125
 20
18.77950599999998
 10
33.1875
 20
18.99601299999998
 10
33.5625
 20
18.77950599999998
 10
33.5625
 20
18.34649399999999
 10
33.1875
 20
18.12998699999998
 10
32.8125
 20
18.34649399999999
  0
CIRCLE
  5
623
330
1E
100
AcDbEntity
  8
DAMAN
100
AcDbCircle
 10
33.1875
 20
18.563
 30
0.0
 40
0.375
  0
LINE
  5
624
330
1E
100
AcDbEntity
  8
DAMAN
100
AcDbLine
 10
33.6875
 20
18.92182099999998
 30
0.0
 11
33.6875
 21
18.20417899999998
 31
0.0
  0
LWPOLYLINE
  5
625
330
1E
100
AcDbEntity
  8
DAMAN
100
AcDbPolyline
 90
        6
 70
     1
 43
0.0
 10
32.8125
 20
26.40450599999999
 10
33.1875
 20
26.62101299999999
 10
33.5625
 20
26.40450599999999
 10
33.5625
 20
25.971494
 10
33.1875
 20
25.754987
 10
32.8125
 20
25.971494
  0
LINE
  5
626
330
1E
100
AcDbEntity
  8
DAMAN
100
AcDbLine
 10
33.6875
 20
26.546821
 30
0.0
 11
33.6875
 21
25.82917899999999
 31
0.0
  0
CIRCLE
  5
627
330
1E
100
AcDbEntity
  8
DAMAN
100
AcDbCircle
 10
33.1875
 20
26.188
 30
0.0
 40
0.375
  0
LINE
  5
628
330
1E
100
AcDbEntity
  8
DAMAN
100
AcDbLine
 10
35.0
 20
26.40674999999999
 30
0.0
 11
35.0
 21
25.96925
 31
0.0
  0
LINE
  5
629
330
1E
100
AcDbEntity
  8
DAMAN
100
AcDbLine
 10
34.0
 20
26.71924999999999
 30
0.0
 11
34.0
 21
25.65675
 31
0.0
  0
CIRCLE
  5
62A
330
1E
100
AcDbEntity
  8
DAMAN
100
AcDbCircle
 10
33.1875
 20
26.188
 30
0.0
 40
0.53125
  0
INSERT
  5
62B
330
1E
100
AcDbEntity
  8
DAMAN
100
AcDbBlockReference
  2
100CROSS
 10
33.1875
 20
26.188
 30
0.0
 41
-0.8
 42
0.8000000000000007
  0
ARC
  5
62C
330
1E
100
AcDbEntity
  8
DAMAN
100
AcDbCircle
 10
34.09375
 20
26.188
 30
0.0
 40
0.40625
100
AcDbArc
 50
147.795772
 51
212.2042279999999
  0
ARC
  5
62D
330
1E
100
AcDbEntity
  8
DAMAN
100
AcDbCircle
 10
34.09375
 20
22.375
 30
0.0
 40
0.40625
100
AcDbArc
 50
147.795772
 51
212.2042279999999
  0
ARC
  5
62E
330
1E
100
AcDbEntity
  8
DAMAN
100
AcDbCircle
 10
33.8125
 20
22.05023999999999
 30
0.0
 40
0.125
100
AcDbArc
 50
119.9999999999999
 51
239.9999999999999
  0
ARC
  5
62F
330
1E
100
AcDbEntity
  8
DAMAN
100
AcDbCircle
 10
33.8125
 20
22.69976
 30
0.0
 40
0.125
100
AcDbArc
 50
119.9999999999999
 51
239.9999999999999
  0
LINE
  5
630
330
1E
100
AcDbEntity
  8
DAMAN
100
AcDbLine
 10
33.730335
 20
22.80801299999999
 30
0.0
 11
33.6875
 21
22.733821
 31
0.0
  0
LINE
  5
631
330
1E
100
AcDbEntity
  8
DAMAN
100
AcDbLine
 10
33.730335
 20
21.941987
 30
0.0
 11
33.6875
 21
22.016179
 31
0.0
  0
LINE
  5
632
330
1E
100
AcDbEntity
  8
DAMAN
100
AcDbLine
 10
33.5625
 20
22.375
 30
0.0
 11
35.09375
 21
22.375
 31
0.0
  0
CIRCLE
  5
633
330
1E
100
AcDbEntity
  8
DAMAN
100
AcDbCircle
 10
33.1875
 20
22.375
 30
0.0
 40
0.53125
  0
LINE
  5
634
330
1E
100
AcDbEntity
  8
DAMAN
100
AcDbLine
 10
33.730335
 20
25.754987
 30
0.0
 11
33.6875
 21
25.82917899999999
 31
0.0
  0
ARC
  5
635
330
1E
100
AcDbEntity
  8
DAMAN
100
AcDbCircle
 10
33.8125
 20
25.86323999999999
 30
0.0
 40
0.125
100
AcDbArc
 50
119.9999999999999
 51
239.9999999999999
  0
LINE
  5
636
330
1E
100
AcDbEntity
  8
DAMAN
100
AcDbLine
 10
34.0
 20
22.90624999999999
 30
0.0
 11
34.0
 21
21.84375
 31
0.0
  0
LINE
  5
637
330
1E
100
AcDbEntity
  8
DAMAN
100
AcDbLine
 10
34.25
 20
22.625
 30
0.0
 11
34.96875
 21
22.625
 31
0.0
  0
LINE
  5
638
330
1E
100
AcDbEntity
  8
DAMAN
100
AcDbLine
 10
34.25
 20
22.59374999999999
 30
0.0
 11
35.0
 21
22.59374999999999
 31
0.0
  0
LINE
  5
639
330
1E
100
AcDbEntity
  8
DAMAN
100
AcDbLine
 10
34.96875
 20
22.12499999999999
 30
0.0
 11
34.25
 21
22.12499999999999
 31
0.0
  0
LINE
  5
63A
330
1E
100
AcDbEntity
  8
DAMAN
100
AcDbLine
 10
34.25
 20
22.15625
 30
0.0
 11
35.0
 21
22.15625
 31
0.0
  0
LINE
  5
63B
330
1E
100
AcDbEntity
  8
DAMAN
100
AcDbLine
 10
35.0
 20
22.59374999999999
 30
0.0
 11
35.0
 21
22.15625
 31
0.0
  0
LINE
  5
63C
330
1E
100
AcDbEntity
  8
DAMAN
100
AcDbLine
 10
35.0
 20
22.15625
 30
0.0
 11
34.96875
 21
22.12499999999999
 31
0.0
  0
LINE
  5
63D
330
1E
100
AcDbEntity
  8
DAMAN
100
AcDbLine
 10
34.96875
 20
22.625
 30
0.0
 11
35.0
 21
22.59374999999999
 31
0.0
  0
LINE
  5
63E
330
1E
100
AcDbEntity
  8
DAMAN
100
AcDbLine
 10
34.0
 20
21.84375
 30
0.0
 11
34.0625
 21
21.84375
 31
0.0
  0
LINE
  5
63F
330
1E
100
AcDbEntity
  8
DAMAN
100
AcDbLine
 10
34.0
 20
22.158494
 30
0.0
 11
33.75
 21
22.158494
 31
0.0
  0
LINE
  5
640
330
1E
100
AcDbEntity
  8
DAMAN
100
AcDbLine
 10
33.730335
 20
21.941987
 30
0.0
 11
34.0
 21
21.941987
 31
0.0
  0
LINE
  5
641
330
1E
100
AcDbEntity
  8
DAMAN
100
AcDbLine
 10
34.0
 20
22.80801299999999
 30
0.0
 11
33.730335
 21
22.80801299999999
 31
0.0
  0
LINE
  5
642
330
1E
100
AcDbEntity
  8
DAMAN
100
AcDbLine
 10
34.0
 20
22.59150599999999
 30
0.0
 11
33.75
 21
22.59150599999999
 31
0.0
  0
LINE
  5
643
330
1E
100
AcDbEntity
  8
DAMAN
100
AcDbLine
 10
34.0625
 20
22.90624999999999
 30
0.0
 11
34.0
 21
22.90624999999999
 31
0.0
  0
LINE
  5
644
330
1E
100
AcDbEntity
  8
DAMAN
100
AcDbLine
 10
34.25
 20
25.96925
 30
0.0
 11
35.0
 21
25.96925
 31
0.0
  0
LINE
  5
645
330
1E
100
AcDbEntity
  8
DAMAN
100
AcDbLine
 10
34.96875
 20
25.93799999999999
 30
0.0
 11
34.25
 21
25.93799999999999
 31
0.0
  0
LINE
  5
646
330
1E
100
AcDbEntity
  8
DAMAN
100
AcDbLine
 10
35.0
 20
25.96925
 30
0.0
 11
34.96875
 21
25.93799999999999
 31
0.0
  0
LINE
  5
647
330
1E
100
AcDbEntity
  8
DAMAN
100
AcDbLine
 10
34.0
 20
25.65675
 30
0.0
 11
34.0625
 21
25.65675
 31
0.0
  0
LINE
  5
648
330
1E
100
AcDbEntity
  8
DAMAN
100
AcDbLine
 10
34.0
 20
25.971494
 30
0.0
 11
33.75
 21
25.971494
 31
0.0
  0
LINE
  5
649
330
1E
100
AcDbEntity
  8
DAMAN
100
AcDbLine
 10
33.730335
 20
25.754987
 30
0.0
 11
34.0
 21
25.754987
 31
0.0
  0
CIRCLE
  5
64A
330
1E
100
AcDbEntity
  8
DAMAN
100
AcDbCircle
 10
33.1875
 20
22.375
 30
0.0
 40
0.375
  0
LWPOLYLINE
  5
64B
330
1E
100
AcDbEntity
  8
DAMAN
100
AcDbPolyline
 90
        6
 70
     1
 43
0.0
 10
32.8125
 20
22.59150599999999
 10
33.1875
 20
22.80801299999999
 10
33.5625
 20
22.59150599999999
 10
33.5625
 20
22.158494
 10
33.1875
 20
21.941987
 10
32.8125
 20
22.158494
  0
LINE
  5
64C
330
1E
100
AcDbEntity
  8
DAMAN
100
AcDbLine
 10
33.6875
 20
22.733821
 30
0.0
 11
33.6875
 21
22.016179
 31
0.0
  0
LINE
  5
64D
330
1E
100
AcDbEntity
  8
DAMAN
100
AcDbLine
 10
33.730335
 20
26.62101299999999
 30
0.0
 11
33.6875
 21
26.546821
 31
0.0
  0
ARC
  5
64E
330
1E
100
AcDbEntity
  8
DAMAN
100
AcDbCircle
 10
33.8125
 20
26.51275999999999
 30
0.0
 40
0.125
100
AcDbArc
 50
119.9999999999999
 51
239.9999999999999
  0
LINE
  5
64F
330
1E
100
AcDbEntity
  8
DAMAN
100
AcDbLine
 10
34.25
 20
26.87549999999999
 30
0.0
 11
32.625
 21
26.87549999999999
 31
0.0
  0
LINE
  5
650
330
1E
100
AcDbEntity
  8
DAMAN
100
AcDbLine
 10
33.5625
 20
26.188
 30
0.0
 11
35.09375
 21
26.188
 31
0.0
  0
LINE
  5
651
330
1E
100
AcDbEntity
  8
DAMAN
100
AcDbLine
 10
34.25
 20
26.40674999999999
 30
0.0
 11
35.0
 21
26.40674999999999
 31
0.0
  0
LINE
  5
652
330
1E
100
AcDbEntity
  8
DAMAN
100
AcDbLine
 10
34.25
 20
26.438
 30
0.0
 11
34.96875
 21
26.438
 31
0.0
  0
LINE
  5
653
330
1E
100
AcDbEntity
  8
DAMAN
100
AcDbLine
 10
34.96875
 20
26.438
 30
0.0
 11
35.0
 21
26.40674999999999
 31
0.0
  0
LINE
  5
654
330
1E
100
AcDbEntity
  8
DAMAN
100
AcDbLine
 10
34.0
 20
26.40450599999999
 30
0.0
 11
33.75
 21
26.40450599999999
 31
0.0
  0
LINE
  5
655
330
1E
100
AcDbEntity
  8
DAMAN
100
AcDbLine
 10
34.0625
 20
26.71924999999999
 30
0.0
 11
34.0
 21
26.71924999999999
 31
0.0
  0
LINE
  5
656
330
1E
100
AcDbEntity
  8
DAMAN
100
AcDbLine
 10
34.0
 20
26.62101299999999
 30
0.0
 11
33.730335
 21
26.62101299999999
 31
0.0
  0
LINE
  5
726
330
1E
100
AcDbEntity
  8
DAMAN
100
AcDbLine
 10
13.6875
 20
26.875
 30
0.0
 11
13.6875
 21
17.875
 31
0.0
  0
LINE
  5
727
330
1E
100
AcDbEntity
  8
DAMAN
100
AcDbLine
 10
13.6875
 20
26.875
 30
0.0
 11
13.6875
 21
17.875
 31
0.0
  0
LINE
  5
728
330
1E
100
AcDbEntity
  8
DAMAN
100
AcDbLine
 10
13.6875
 20
17.875
 30
0.0
 11
12.0625
 21
17.875
 31
0.0
  0
LINE
  5
729
330
1E
100
AcDbEntity
  8
DAMAN
100
AcDbLine
 10
12.0625
 20
17.875
 30
0.0
 11
12.0625
 21
26.875
 31
0.0
  0
LINE
  5
72A
330
1E
100
AcDbEntity
  8
DAMAN
100
AcDbLine
 10
12.0625
 20
26.875
 30
0.0
 11
13.6875
 21
26.875
 31
0.0
  0
LINE
  5
72B
330
1E
100
AcDbEntity
  8
DAMAN
100
AcDbLine
 10
13.6875
 20
26.875
 30
0.0
 11
13.6875
 21
17.875
 31
0.0
  0
LINE
  5
72C
330
1E
100
AcDbEntity
  8
DAMAN
100
AcDbLine
 10
13.5
 20
26.875
 30
0.0
 11
13.5
 21
17.875
 31
0.0
  0
LINE
  5
72D
330
1E
100
AcDbEntity
  8
DAMAN
100
AcDbLine
 10
13.5
 20
25.65625
 30
0.0
 11
13.4375
 21
25.65625
 31
0.0
  0
LINE
  5
72E
330
1E
100
AcDbEntity
  8
DAMAN
100
AcDbLine
 10
13.4375
 20
25.65625
 30
0.0
 11
13.4375
 21
26.71875
 31
0.0
  0
LINE
  5
72F
330
1E
100
AcDbEntity
  8
DAMAN
100
AcDbLine
 10
13.4375
 20
26.71875
 30
0.0
 11
13.5
 21
26.71875
 31
0.0
  0
LINE
  5
730
330
1E
100
AcDbEntity
  8
DAMAN
100
AcDbLine
 10
13.4375
 20
25.754487
 30
0.0
 11
13.167835
 21
25.754487
 31
0.0
  0
LINE
  5
731
330
1E
100
AcDbEntity
  8
DAMAN
100
AcDbLine
 10
13.125
 20
25.828679
 30
0.0
 11
13.125
 21
26.546321
 31
0.0
  0
LINE
  5
732
330
1E
100
AcDbEntity
  8
DAMAN
100
AcDbLine
 10
13.167835
 20
26.62051299999999
 30
0.0
 11
13.4375
 21
26.62051299999999
 31
0.0
  0
LINE
  5
733
330
1E
100
AcDbEntity
  8
DAMAN
100
AcDbLine
 10
13.4375
 20
25.970994
 30
0.0
 11
13.1875
 21
25.970994
 31
0.0
  0
LINE
  5
734
330
1E
100
AcDbEntity
  8
DAMAN
100
AcDbLine
 10
13.4375
 20
26.40400599999999
 30
0.0
 11
13.1875
 21
26.40400599999999
 31
0.0
  0
ARC
  5
735
330
1E
100
AcDbEntity
  8
DAMAN
100
AcDbCircle
 10
13.53125
 20
26.1875
 30
0.0
 40
0.40625
100
AcDbArc
 50
147.795772
 51
212.2042279999999
  0
ARC
  5
736
330
1E
100
AcDbEntity
  8
DAMAN
100
AcDbCircle
 10
13.25
 20
26.51226
 30
0.0
 40
0.125
100
AcDbArc
 50
120.0
 51
239.9999999999999
  0
ARC
  5
737
330
1E
100
AcDbEntity
  8
DAMAN
100
AcDbCircle
 10
13.25
 20
25.86273999999999
 30
0.0
 40
0.125
100
AcDbArc
 50
120.0
 51
239.9999999999999
  0
LINE
  5
738
330
1E
100
AcDbEntity
  8
DAMAN
100
AcDbLine
 10
13.167835
 20
25.754487
 30
0.0
 11
13.125
 21
25.828679
 31
0.0
  0
LINE
  5
739
330
1E
100
AcDbEntity
  8
DAMAN
100
AcDbLine
 10
13.167835
 20
26.62051299999999
 30
0.0
 11
13.125
 21
26.546321
 31
0.0
  0
ARC
  5
73A
330
1E
100
AcDbEntity
  8
DAMAN
100
AcDbCircle
 10
13.53125
 20
18.5625
 30
0.0
 40
0.40625
100
AcDbArc
 50
147.795772
 51
212.2042279999999
  0
LINE
  5
73B
330
1E
100
AcDbEntity
  8
DAMAN
100
AcDbLine
 10
13.4375
 20
18.03125
 30
0.0
 11
13.4375
 21
19.09375
 31
0.0
  0
LINE
  5
73C
330
1E
100
AcDbEntity
  8
DAMAN
100
AcDbLine
 10
13.125
 20
18.203679
 30
0.0
 11
13.125
 21
18.92132099999999
 31
0.0
  0
ARC
  5
73D
330
1E
100
AcDbEntity
  8
DAMAN
100
AcDbCircle
 10
13.25
 20
18.23774
 30
0.0
 40
0.125
100
AcDbArc
 50
120.0
 51
239.9999999999999
  0
LINE
  5
73E
330
1E
100
AcDbEntity
  8
DAMAN
100
AcDbLine
 10
13.167835
 20
18.129487
 30
0.0
 11
13.125
 21
18.203679
 31
0.0
  0
LINE
  5
73F
330
1E
100
AcDbEntity
  8
DAMAN
100
AcDbLine
 10
13.4375
 20
18.129487
 30
0.0
 11
13.167835
 21
18.129487
 31
0.0
  0
LINE
  5
740
330
1E
100
AcDbEntity
  8
DAMAN
100
AcDbLine
 10
13.5
 20
18.03125
 30
0.0
 11
13.4375
 21
18.03125
 31
0.0
  0
LINE
  5
741
330
1E
100
AcDbEntity
  8
DAMAN
100
AcDbLine
 10
13.4375
 20
18.345994
 30
0.0
 11
13.1875
 21
18.345994
 31
0.0
  0
ARC
  5
742
330
1E
100
AcDbEntity
  8
DAMAN
100
AcDbCircle
 10
13.25
 20
18.88725999999999
 30
0.0
 40
0.125
100
AcDbArc
 50
120.0
 51
239.9999999999999
  0
LINE
  5
743
330
1E
100
AcDbEntity
  8
DAMAN
100
AcDbLine
 10
13.4375
 20
18.779006
 30
0.0
 11
13.1875
 21
18.779006
 31
0.0
  0
LINE
  5
744
330
1E
100
AcDbEntity
  8
DAMAN
100
AcDbLine
 10
13.167835
 20
18.99551299999999
 30
0.0
 11
13.4375
 21
18.99551299999999
 31
0.0
  0
LINE
  5
745
330
1E
100
AcDbEntity
  8
DAMAN
100
AcDbLine
 10
13.4375
 20
19.09375
 30
0.0
 11
13.5
 21
19.09375
 31
0.0
  0
LINE
  5
746
330
1E
100
AcDbEntity
  8
DAMAN
100
AcDbLine
 10
13.167835
 20
18.99551299999999
 30
0.0
 11
13.125
 21
18.92132099999999
 31
0.0
  0
CIRCLE
  5
747
330
1E
100
AcDbEntity
  8
DAMAN
100
AcDbCircle
 10
12.625
 20
18.5625
 30
0.0
 40
0.53125
  0
CIRCLE
  5
748
330
1E
100
AcDbEntity
  8
DAMAN
100
AcDbCircle
 10
12.625
 20
26.1875
 30
0.0
 40
0.53125
  0
LWPOLYLINE
  5
749
330
1E
100
AcDbEntity
  8
DAMAN
100
AcDbPolyline
 90
        6
 70
     1
 43
0.0
 10
12.25
 20
18.345994
 10
12.625
 20
18.129487
 10
13.0
 20
18.345994
 10
13.0
 20
18.779006
 10
12.625
 20
18.99551299999999
 10
12.25
 20
18.779006
  0
CIRCLE
  5
74A
330
1E
100
AcDbEntity
  8
DAMAN
100
AcDbCircle
 10
12.625
 20
18.5625
 30
0.0
 40
0.375
  0
CIRCLE
  5
74B
330
1E
100
AcDbEntity
  8
DAMAN
100
AcDbCircle
 10
12.625
 20
26.1875
 30
0.0
 40
0.375
  0
LWPOLYLINE
  5
74C
330
1E
100
AcDbEntity
  8
DAMAN
100
AcDbPolyline
 90
        6
 70
     1
 43
0.0
 10
12.25
 20
25.970994
 10
12.625
 20
25.754487
 10
13.0
 20
25.970994
 10
13.0
 20
26.40400599999999
 10
12.625
 20
26.62051299999999
 10
12.25
 20
26.40400599999999
  0
INSERT
  5
74D
330
1E
100
AcDbEntity
  8
DAMAN
100
AcDbBlockReference
  2
100CROSS
 10
12.625
 20
18.5625
 30
0.0
 41
0.8000000000000007
 42
0.8000000000000007
 50
180.0
  0
INSERT
  5
74E
330
1E
100
AcDbEntity
  8
DAMAN
100
AcDbBlockReference
  2
100CROSS
 10
12.625
 20
26.1875
 30
0.0
 41
0.8000000000000007
 42
0.8000000000000007
 50
180.0
  0
INSERT
  5
750
330
1E
100
AcDbEntity
  8
DAMAN
100
AcDbBlockReference
  2
100CROSS
 10
12.625
 20
22.37449999999999
 30
0.0
 41
0.8000000000000007
 42
0.8000000000000007
 50
180.0
  0
LWPOLYLINE
  5
751
330
1E
100
AcDbEntity
  8
DAMAN
100
AcDbPolyline
 90
        6
 70
     1
 43
0.0
 10
12.25
 20
22.15799399999999
 10
12.625
 20
21.94148699999999
 10
13.0
 20
22.15799399999999
 10
13.0
 20
22.59100599999999
 10
12.625
 20
22.80751299999999
 10
12.25
 20
22.59100599999999
  0
CIRCLE
  5
752
330
1E
100
AcDbEntity
  8
DAMAN
100
AcDbCircle
 10
12.625
 20
22.37449999999999
 30
0.0
 40
0.375
  0
CIRCLE
  5
753
330
1E
100
AcDbEntity
  8
DAMAN
100
AcDbCircle
 10
12.625
 20
22.37449999999999
 30
0.0
 40
0.53125
  0
ARC
  5
754
330
1E
100
AcDbEntity
  8
DAMAN
100
AcDbCircle
 10
13.53125
 20
22.37449999999999
 30
0.0
 40
0.40625
100
AcDbArc
 50
147.795772
 51
212.2042279999999
  0
LINE
  5
755
330
1E
100
AcDbEntity
  8
DAMAN
100
AcDbLine
 10
13.125
 20
22.015679
 30
0.0
 11
13.125
 21
22.73332099999999
 31
0.0
  0
LINE
  5
756
330
1E
100
AcDbEntity
  8
DAMAN
100
AcDbLine
 10
13.167835
 20
21.94148699999999
 30
0.0
 11
13.125
 21
22.015679
 31
0.0
  0
ARC
  5
757
330
1E
100
AcDbEntity
  8
DAMAN
100
AcDbCircle
 10
13.25
 20
22.04973999999999
 30
0.0
 40
0.125
100
AcDbArc
 50
120.0
 51
239.9999999999999
  0
LINE
  5
758
330
1E
100
AcDbEntity
  8
DAMAN
100
AcDbLine
 10
13.167835
 20
22.80751299999999
 30
0.0
 11
13.125
 21
22.73332099999999
 31
0.0
  0
ARC
  5
759
330
1E
100
AcDbEntity
  8
DAMAN
100
AcDbCircle
 10
13.25
 20
22.69925999999999
 30
0.0
 40
0.125
100
AcDbArc
 50
120.0
 51
239.9999999999999
  0
LINE
  5
75A
330
1E
100
AcDbEntity
  8
DAMAN
100
AcDbLine
 10
13.4375
 20
21.84324999999999
 30
0.0
 11
13.4375
 21
22.90575
 31
0.0
  0
LINE
  5
75B
330
1E
100
AcDbEntity
  8
DAMAN
100
AcDbLine
 10
13.4375
 20
22.15799399999999
 30
0.0
 11
13.1875
 21
22.15799399999999
 31
0.0
  0
LINE
  5
75C
330
1E
100
AcDbEntity
  8
DAMAN
100
AcDbLine
 10
13.4375
 20
21.94148699999999
 30
0.0
 11
13.167835
 21
21.94148699999999
 31
0.0
  0
LINE
  5
75D
330
1E
100
AcDbEntity
  8
DAMAN
100
AcDbLine
 10
13.5
 20
21.84324999999999
 30
0.0
 11
13.4375
 21
21.84324999999999
 31
0.0
  0
LINE
  5
75E
330
1E
100
AcDbEntity
  8
DAMAN
100
AcDbLine
 10
13.4375
 20
22.59100599999999
 30
0.0
 11
13.1875
 21
22.59100599999999
 31
0.0
  0
LINE
  5
75F
330
1E
100
AcDbEntity
  8
DAMAN
100
AcDbLine
 10
13.167835
 20
22.80751299999999
 30
0.0
 11
13.4375
 21
22.80751299999999
 31
0.0
  0
LINE
  5
760
330
1E
100
AcDbEntity
  8
DAMAN
100
AcDbLine
 10
13.4375
 20
22.90575
 30
0.0
 11
13.5
 21
22.90575
 31
0.0
  0
INSERT
  5
7DC
330
1E
100
AcDbEntity
  8
0
  6
HIDDEN
100
AcDbBlockReference
  2
A$C64CF391A
 10
25.78386089541615
 20
27.30337285673309
 30
0.0
 41
-1.0
  0
INSERT
  5
831
330
1E
100
AcDbEntity
  8
0
  6
HIDDEN
100
AcDbBlockReference
  2
A$C0A7625C0
 10
13.6875
 20
7.875
 30
0.0
  0
INSERT
  5
833
330
1E
100
AcDbEntity
  8
0
  6
HIDDEN
100
AcDbBlockReference
  2
A$C0A7625C0
 10
23.68751569857491
 20
7.874988948570705
 30
0.0
 41
-1.0
  0
ENDSEC
  0
SECTION
  2
OBJECTS
  0
DICTIONARY
  5
C
330
0
100
AcDbDictionary
  3
ACAD_GROUP
350
D
  3
ACAD_LAYOUT
350
19
  3
ACAD_MLINESTYLE
350
16
  3
ACAD_PLOTSETTINGS
350
18
  3
ACAD_PLOTSTYLENAME
350
E
  3
ACDBHEADERROUNDTRIPXREC
350
835
  0
DICTIONARY
  5
55C
330
1E
100
AcDbDictionary
280
     1
  3
ACAD_LAYOUTSELFREF
360
856
  0
DICTIONARY
  5
55A
330
1A
100
AcDbDictionary
280
     1
  3
ACAD_LAYOUTSELFREF
360
855
  0
DICTIONARY
  5
D
102
{ACAD_REACTORS
330
C
102
}
330
C
100
AcDbDictionary
  0
DICTIONARY
  5
19
102
{ACAD_REACTORS
330
C
102
}
330
C
100
AcDbDictionary
  0
DICTIONARY
  5
16
102
{ACAD_REACTORS
330
C
102
}
330
C
100
AcDbDictionary
  3
STANDARD
350
17
  0
DICTIONARY
  5
18
102
{ACAD_REACTORS
330
C
102
}
330
C
100
AcDbDictionary
  0
ACDBDICTIONARYWDFLT
  5
E
102
{ACAD_REACTORS
330
C
102
}
330
C
100
AcDbDictionary
281
     1
  3
Normal
350
F
100
AcDbDictionaryWithDefault
340
F
  0
DICTIONARY
  5
835
102
{ACAD_REACTORS
330
C
102
}
330
C
100
AcDbDictionary
  3
CEPSNTYPE
350
83F
  3
FINGERPRINTGUID
350
840
  3
HYPERLINKBASE
350
838
  3
INSUNITS
350
83E
  3
LAYOUTDICT
350
83A
  3
LWETCUNION
350
83D
  3
PLOTSETDICT
350
83B
  3
PLOTSTYLNAMDICT
350
83C
  3
PSVPSCALE
350
842
  3
PUCSBASE
350
845
  3
PUCSORGBACK
350
84B
  3
PUCSORGBOTTOM
350
847
  3
PUCSORGFRONT
350
84A
  3
PUCSORGLEFT
350
848
  3
PUCSORGRIGHT
350
849
  3
PUCSORGTOP
350
846
  3
PUCSORTHOREF
350
843
  3
PUCSORTHOVIEW
350
844
  3
STYLESHEET
350
839
  3
TSTACKALIGN
350
836
  3
TSTACKSIZE
350
837
  3
UCSBASE
350
84E
  3
UCSORGBACK
350
854
  3
UCSORGBOTTOM
350
850
  3
UCSORGFRONT
350
853
  3
UCSORGLEFT
350
851
  3
UCSORGRIGHT
350
852
  3
UCSORGTOP
350
84F
  3
UCSORTHOREF
350
84C
  3
UCSORTHOVIEW
350
84D
  3
VERSIONGUID
350
841
  0
XRECORD
  5
856
102
{ACAD_REACTORS
330
55C
102
}
330
55C
100
AcDbXrecord
340
1E
  0
XRECORD
  5
855
102
{ACAD_REACTORS
330
55A
102
}
330
55A
100
AcDbXrecord
340
1A
  0
MLINESTYLE
  5
17
102
{ACAD_REACTORS
330
16
102
}
330
16
100
AcDbMlineStyle
  2
STANDARD
 70
     0
  3

 62
   256
 51
90.0
 52
90.0
 71
     2
 49
0.5
 62
   256
  6
BYLAYER
 49
-0.5
 62
   256
  6
BYLAYER
  0
ACDBPLACEHOLDER
  5
F
102
{ACAD_REACTORS
330
E
102
}
330
E
100
AcDbPlaceHolder
280
     0
  0
XRECORD
  5
83F
102
{ACAD_REACTORS
330
835
102
}
330
835
100
AcDbXrecord
 90
        0
  0
XRECORD
  5
840
102
{ACAD_REACTORS
330
835
102
}
330
835
100
AcDbXrecord
  1
{E8EEB63A-56B0-4247-AFC0-AB39AB7884EF}
  0
XRECORD
  5
838
102
{ACAD_REACTORS
330
835
102
}
330
835
100
AcDbXrecord
  1

  0
XRECORD
  5
83E
102
{ACAD_REACTORS
330
835
102
}
330
835
100
AcDbXrecord
 90
        0
  0
XRECORD
  5
83A
102
{ACAD_REACTORS
330
835
102
}
330
835
100
AcDbXrecord
340
19
  0
XRECORD
  5
83D
102
{ACAD_REACTORS
330
835
102
}
330
835
100
AcDbXrecord
 90
    10781
  0
XRECORD
  5
83B
102
{ACAD_REACTORS
330
835
102
}
330
835
100
AcDbXrecord
340
18
  0
XRECORD
  5
83C
102
{ACAD_REACTORS
330
835
102
}
330
835
100
AcDbXrecord
340
E
  0
XRECORD
  5
842
102
{ACAD_REACTORS
330
835
102
}
330
835
100
AcDbXrecord
 40
0.0
  0
XRECORD
  5
845
102
{ACAD_REACTORS
330
835
102
}
330
835
100
AcDbXrecord
340
0
  0
XRECORD
  5
84B
102
{ACAD_REACTORS
330
835
102
}
330
835
100
AcDbXrecord
 10
0.0
 20
0.0
 30
0.0
  0
XRECORD
  5
847
102
{ACAD_REACTORS
330
835
102
}
330
835
100
AcDbXrecord
 10
0.0
 20
0.0
 30
0.0
  0
XRECORD
  5
84A
102
{ACAD_REACTORS
330
835
102
}
330
835
100
AcDbXrecord
 10
0.0
 20
0.0
 30
0.0
  0
XRECORD
  5
848
102
{ACAD_REACTORS
330
835
102
}
330
835
100
AcDbXrecord
 10
0.0
 20
0.0
 30
0.0
  0
XRECORD
  5
849
102
{ACAD_REACTORS
330
835
102
}
330
835
100
AcDbXrecord
 10
0.0
 20
0.0
 30
0.0
  0
XRECORD
  5
846
102
{ACAD_REACTORS
330
835
102
}
330
835
100
AcDbXrecord
 10
0.0
 20
0.0
 30
0.0
  0
XRECORD
  5
843
102
{ACAD_REACTORS
330
835
102
}
330
835
100
AcDbXrecord
340
0
  0
XRECORD
  5
844
102
{ACAD_REACTORS
330
835
102
}
330
835
100
AcDbXrecord
 70
     0
  0
XRECORD
  5
839
102
{ACAD_REACTORS
330
835
102
}
330
835
100
AcDbXrecord
  1

  0
XRECORD
  5
836
102
{ACAD_REACTORS
330
835
102
}
330
835
100
AcDbXrecord
 90
        1
  0
XRECORD
  5
837
102
{ACAD_REACTORS
330
835
102
}
330
835
100
AcDbXrecord
 90
       70
  0
XRECORD
  5
84E
102
{ACAD_REACTORS
330
835
102
}
330
835
100
AcDbXrecord
340
0
  0
XRECORD
  5
854
102
{ACAD_REACTORS
330
835
102
}
330
835
100
AcDbXrecord
 10
0.0
 20
0.0
 30
0.0
  0
XRECORD
  5
850
102
{ACAD_REACTORS
330
835
102
}
330
835
100
AcDbXrecord
 10
0.0
 20
0.0
 30
0.0
  0
XRECORD
  5
853
102
{ACAD_REACTORS
330
835
102
}
330
835
100
AcDbXrecord
 10
0.0
 20
0.0
 30
0.0
  0
XRECORD
  5
851
102
{ACAD_REACTORS
330
835
102
}
330
835
100
AcDbXrecord
 10
0.0
 20
0.0
 30
0.0
  0
XRECORD
  5
852
102
{ACAD_REACTORS
330
835
102
}
330
835
100
AcDbXrecord
 10
0.0
 20
0.0
 30
0.0
  0
XRECORD
  5
84F
102
{ACAD_REACTORS
330
835
102
}
330
835
100
AcDbXrecord
 10
0.0
 20
0.0
 30
0.0
  0
XRECORD
  5
84C
102
{ACAD_REACTORS
330
835
102
}
330
835
100
AcDbXrecord
340
0
  0
XRECORD
  5
84D
102
{ACAD_REACTORS
330
835
102
}
330
835
100
AcDbXrecord
 70
     0
  0
XRECORD
  5
841
102
{ACAD_REACTORS
330
835
102
}
330
835
100
AcDbXrecord
  1
{CC8DA208-6BB5-4632-8E55-B476C12A4799}
  0
ENDSEC
  0
EOF
