  0
SECTION
  2
HEADER
  9
$ACADVER
  1
AC1014
  9
$ACADMAINTVER
 70
     9
  9
$DWGCODEPAGE
  3
ANSI_1252
  9
$INSBASE
 10
0.0
 20
0.0
 30
0.0
  9
$EXTMIN
 10
1.529827356405242
 20
6.593412672573592
 30
-0.0015258207003583
  9
$EXTMAX
 10
12.03195022467489
 20
12.59401268408538
 30
0.0000000349246037
  9
$LIMMIN
 10
0.0
 20
0.0
  9
$LIMMAX
 10
12.0
 20
9.0
  9
$ORTHOMODE
 70
     1
  9
$REGENMODE
 70
     1
  9
$FILLMODE
 70
     1
  9
$QTEXTMODE
 70
     0
  9
$MIRRTEXT
 70
     1
  9
$DRAGMODE
 70
     2
  9
$LTSCALE
 40
1.0
  9
$OSMODE
 70
    37
  9
$ATTMODE
 70
     1
  9
$TEXTSIZE
 40
0.188
  9
$TRACEWID
 40
0.05
  9
$TEXTSTYLE
  7
STANDARD
  9
$CLAYER
  8
DAMAN
  9
$CELTYPE
  6
BYLAYER
  9
$CECOLOR
 62
   256
  9
$CELTSCALE
 40
1.0
  9
$DELOBJ
 70
     1
  9
$DISPSILH
 70
     0
  9
$DIMSCALE
 40
1.0
  9
$DIMASZ
 40
0.18
  9
$DIMEXO
 40
0.0625
  9
$DIMDLI
 40
0.38
  9
$DIMRND
 40
0.0
  9
$DIMDLE
 40
0.0
  9
$DIMEXE
 40
0.18
  9
$DIMTP
 40
0.0
  9
$DIMTM
 40
0.0
  9
$DIMTXT
 40
0.18
  9
$DIMCEN
 40
0.09
  9
$DIMTSZ
 40
0.0
  9
$DIMTOL
 70
     0
  9
$DIMLIM
 70
     0
  9
$DIMTIH
 70
     1
  9
$DIMTOH
 70
     1
  9
$DIMSE1
 70
     0
  9
$DIMSE2
 70
     0
  9
$DIMTAD
 70
     0
  9
$DIMZIN
 70
     0
  9
$DIMBLK
  1

  9
$DIMASO
 70
     1
  9
$DIMSHO
 70
     1
  9
$DIMPOST
  1

  9
$DIMAPOST
  1

  9
$DIMALT
 70
     0
  9
$DIMALTD
 70
     2
  9
$DIMALTF
 40
25.4
  9
$DIMLFAC
 40
1.0
  9
$DIMTOFL
 70
     0
  9
$DIMTVP
 40
0.0
  9
$DIMTIX
 70
     0
  9
$DIMSOXD
 70
     0
  9
$DIMSAH
 70
     0
  9
$DIMBLK1
  1

  9
$DIMBLK2
  1

  9
$DIMSTYLE
  2
STANDARD
  9
$DIMCLRD
 70
     0
  9
$DIMCLRE
 70
     0
  9
$DIMCLRT
 70
     0
  9
$DIMTFAC
 40
1.0
  9
$DIMGAP
 40
0.09
  9
$DIMJUST
 70
     0
  9
$DIMSD1
 70
     0
  9
$DIMSD2
 70
     0
  9
$DIMTOLJ
 70
     1
  9
$DIMTZIN
 70
     0
  9
$DIMALTZ
 70
     0
  9
$DIMALTTZ
 70
     0
  9
$DIMFIT
 70
     3
  9
$DIMUPT
 70
     0
  9
$DIMUNIT
 70
     2
  9
$DIMDEC
 70
     4
  9
$DIMTDEC
 70
     4
  9
$DIMALTU
 70
     2
  9
$DIMALTTD
 70
     2
  9
$DIMTXSTY
  7
STANDARD
  9
$DIMAUNIT
 70
     0
  9
$LUNITS
 70
     2
  9
$LUPREC
 70
     4
  9
$SKETCHINC
 40
0.1
  9
$FILLETRAD
 40
0.0
  9
$AUNITS
 70
     0
  9
$AUPREC
 70
     0
  9
$MENU
  1
tom
  9
$ELEVATION
 40
0.0
  9
$PELEVATION
 40
0.0
  9
$THICKNESS
 40
0.0
  9
$LIMCHECK
 70
     0
  9
$BLIPMODE
 70
     0
  9
$CHAMFERA
 40
0.0
  9
$CHAMFERB
 40
0.0
  9
$CHAMFERC
 40
0.0
  9
$CHAMFERD
 40
0.0
  9
$SKPOLY
 70
     0
  9
$TDCREATE
 40
2449738.574070092
  9
$TDUPDATE
 40
2453439.364552453
  9
$TDINDWG
 40
0.0031758218
  9
$TDUSRTIMER
 40
0.0031758218
  9
$USRTIMER
 70
     1
  9
$ANGBASE
 50
0.0
  9
$ANGDIR
 70
     0
  9
$PDMODE
 70
     0
  9
$PDSIZE
 40
0.0
  9
$PLINEWID
 40
0.0
  9
$COORDS
 70
     1
  9
$SPLFRAME
 70
     0
  9
$SPLINETYPE
 70
     6
  9
$SPLINESEGS
 70
     8
  9
$ATTDIA
 70
     0
  9
$ATTREQ
 70
     1
  9
$HANDLING
 70
-16383
  9
$HANDSEED
  5
177
  9
$SURFTAB1
 70
     6
  9
$SURFTAB2
 70
     6
  9
$SURFTYPE
 70
     6
  9
$SURFU
 70
     6
  9
$SURFV
 70
     6
  9
$UCSNAME
  2

  9
$UCSORG
 10
0.0
 20
0.0
 30
0.0
  9
$UCSXDIR
 10
1.0
 20
0.0
 30
0.0
  9
$UCSYDIR
 10
0.0
 20
1.0
 30
0.0
  9
$PUCSNAME
  2

  9
$PUCSORG
 10
0.0
 20
0.0
 30
0.0
  9
$PUCSXDIR
 10
1.0
 20
0.0
 30
0.0
  9
$PUCSYDIR
 10
0.0
 20
1.0
 30
0.0
  9
$USERI1
 70
     0
  9
$USERI2
 70
     0
  9
$USERI3
 70
     0
  9
$USERI4
 70
     0
  9
$USERI5
 70
     0
  9
$USERR1
 40
0.0
  9
$USERR2
 40
0.0
  9
$USERR3
 40
0.0
  9
$USERR4
 40
0.0
  9
$USERR5
 40
0.0
  9
$WORLDVIEW
 70
     1
  9
$SHADEDGE
 70
     3
  9
$SHADEDIF
 70
    70
  9
$TILEMODE
 70
     1
  9
$MAXACTVP
 70
    16
  9
$PINSBASE
 10
0.0
 20
0.0
 30
0.0
  9
$PLIMCHECK
 70
     0
  9
$PEXTMIN
 10
1.000000000000000E+20
 20
1.000000000000000E+20
 30
1.000000000000000E+20
  9
$PEXTMAX
 10
-1.000000000000000E+20
 20
-1.000000000000000E+20
 30
-1.000000000000000E+20
  9
$PLIMMIN
 10
0.0
 20
0.0
  9
$PLIMMAX
 10
12.0
 20
9.0
  9
$UNITMODE
 70
     0
  9
$VISRETAIN
 70
     0
  9
$PLINEGEN
 70
     0
  9
$PSLTSCALE
 70
     1
  9
$TREEDEPTH
 70
  3020
  9
$PICKSTYLE
 70
     1
  9
$CMLSTYLE
  2
STANDARD
  9
$CMLJUST
 70
     0
  9
$CMLSCALE
 40
1.0
  9
$PROXYGRAPHICS
 70
     1
  9
$MEASUREMENT
 70
     0
  0
ENDSEC
  0
SECTION
  2
CLASSES
  0
CLASS
  1
ACDBDICTIONARYWDFLT
  2
AcDbDictionaryWithDefault
  3
AutoCAD 2000
 90
        0
280
     0
281
     0
  0
CLASS
  1
ACDBPLACEHOLDER
  2
AcDbPlaceHolder
  3
AutoCAD 2000
 90
        0
280
     0
281
     0
  0
CLASS
  1
LAYOUT
  2
AcDbLayout
  3
AutoCAD 2000
 90
        0
280
     0
281
     0
  0
CLASS
  1
LONG_TRANSACTION
  2
AcDbLongTransaction
  3
AutoCAD 2000
 90
        0
280
     0
281
     0
  0
CLASS
  1
LWPOLYLINE
  2
AcDbPolyline
  3
AutoCAD 2000
 90
        0
280
     0
281
     1
  0
CLASS
  1
HATCH
  2
AcDbHatch
  3
AutoCAD 2000
 90
        0
280
     0
281
     1
  0
CLASS
  1
XRECORD
  2
AcDbXrecord
  3
AutoCAD 2000
 90
        0
280
     0
281
     0
  0
ENDSEC
  0
SECTION
  2
TABLES
  0
TABLE
  2
VPORT
  5
8
330
0
100
AcDbSymbolTable
 70
     2
  0
VPORT
  5
152
330
8
100
AcDbSymbolTableRecord
100
AcDbViewportTableRecord
  2
*ACTIVE
 70
     0
 10
0.0
 20
0.0
 11
1.0
 21
1.0
 12
6.780888788018526
 22
9.644125518777901
 13
0.0
 23
0.0
 14
0.03125
 24
0.03125
 15
0.0
 25
0.0
 16
0.0
 26
0.0
 36
1.0
 17
0.0
 27
0.0
 37
0.0
 40
7.049915183744921
 41
1.647569444444444
 42
50.0
 43
0.0
 44
0.0
 50
0.0
 51
0.0
 71
     0
 72
   100
 73
     1
 74
     1
 75
     1
 76
     0
 77
     0
 78
     0
  0
ENDTAB
  0
TABLE
  2
LTYPE
  5
5
330
0
100
AcDbSymbolTable
 70
     4
  0
LTYPE
  5
13
330
5
100
AcDbSymbolTableRecord
100
AcDbLinetypeTableRecord
  2
BYBLOCK
 70
     0
  3

 72
    65
 73
     0
 40
0.0
  0
LTYPE
  5
14
330
5
100
AcDbSymbolTableRecord
100
AcDbLinetypeTableRecord
  2
BYLAYER
 70
     0
  3

 72
    65
 73
     0
 40
0.0
  0
LTYPE
  5
15
330
5
100
AcDbSymbolTableRecord
100
AcDbLinetypeTableRecord
  2
CONTINUOUS
 70
     0
  3
Solid line
 72
    65
 73
     0
 40
0.0
  0
LTYPE
  5
24
330
5
100
AcDbSymbolTableRecord
100
AcDbLinetypeTableRecord
  2
HIDDEN
 70
     0
  3
_ _ _ _ _ _ _ _ _ _ _ _ _ _ _ _ _ _ _ _ _ _ _
 72
    65
 73
     2
 40
0.375
 49
0.25
 74
     0
 49
-0.125
 74
     0
  0
LTYPE
  5
25
330
5
100
AcDbSymbolTableRecord
100
AcDbLinetypeTableRecord
  2
CENTER
 70
     0
  3
____ _ ____ _ ____ _ ____ _ ____ _ ____ _ ____
 72
    65
 73
     4
 40
2.0
 49
1.25
 74
     0
 49
-0.25
 74
     0
 49
0.25
 74
     0
 49
-0.25
 74
     0
  0
LTYPE
  5
26
330
5
100
AcDbSymbolTableRecord
100
AcDbLinetypeTableRecord
  2
PHANTOM
 70
     0
  3
_____ _ _ _____ _ _ _____ _ _ _____ _ _ ____
 72
    65
 73
     6
 40
2.5
 49
1.25
 74
     0
 49
-0.25
 74
     0
 49
0.25
 74
     0
 49
-0.25
 74
     0
 49
0.25
 74
     0
 49
-0.25
 74
     0
  0
ENDTAB
  0
TABLE
  2
LAYER
  5
2
330
0
100
AcDbSymbolTable
 70
     8
  0
LAYER
  5
10
330
2
100
AcDbSymbolTableRecord
100
AcDbLayerTableRecord
  2
0
 70
     0
 62
     7
  6
CONTINUOUS
  0
LAYER
  5
22
330
2
100
AcDbSymbolTableRecord
100
AcDbLayerTableRecord
  2
DAMAN
 70
     0
 62
     5
  6
CONTINUOUS
  0
LAYER
  5
27
330
2
100
AcDbSymbolTableRecord
100
AcDbLayerTableRecord
  2
BORDER
 70
     0
 62
     7
  6
CONTINUOUS
  0
LAYER
  5
28
330
2
100
AcDbSymbolTableRecord
100
AcDbLayerTableRecord
  2
CSOLID
 70
     0
 62
     3
  6
CONTINUOUS
  0
LAYER
  5
29
330
2
100
AcDbSymbolTableRecord
100
AcDbLayerTableRecord
  2
CHIDDEN
 70
     0
 62
     3
  6
HIDDEN
  0
LAYER
  5
2A
330
2
100
AcDbSymbolTableRecord
100
AcDbLayerTableRecord
  2
CDIM
 70
     0
 62
     2
  6
CONTINUOUS
  0
LAYER
  5
2B
330
2
100
AcDbSymbolTableRecord
100
AcDbLayerTableRecord
  2
CCENTER
 70
     0
 62
     4
  6
CENTER
  0
LAYER
  5
2C
330
2
100
AcDbSymbolTableRecord
100
AcDbLayerTableRecord
  2
PHANTOM
 70
     0
 62
     1
  6
PHANTOM
  0
ENDTAB
  0
TABLE
  2
STYLE
  5
3
330
0
100
AcDbSymbolTable
 70
     2
  0
STYLE
  5
11
330
3
100
AcDbSymbolTableRecord
100
AcDbTextStyleTableRecord
  2
STANDARD
 70
     0
 40
0.0
 41
1.0
 50
0.0
 71
     0
 42
0.188
  3
txt
  4

  0
STYLE
  5
2D
330
3
100
AcDbSymbolTableRecord
100
AcDbTextStyleTableRecord
  2
STR
 70
     0
 40
0.0
 41
1.0
 50
0.0
 71
     0
 42
0.25
  3
SIMPLEX
  4

  0
ENDTAB
  0
TABLE
  2
VIEW
  5
6
330
0
100
AcDbSymbolTable
 70
     0
  0
ENDTAB
  0
TABLE
  2
UCS
  5
7
330
0
100
AcDbSymbolTable
 70
     0
  0
ENDTAB
  0
TABLE
  2
APPID
  5
9
330
0
100
AcDbSymbolTable
 70
     1
  0
APPID
  5
12
330
9
100
AcDbSymbolTableRecord
100
AcDbRegAppTableRecord
  2
ACAD
 70
     0
  0
ENDTAB
  0
TABLE
  2
DIMSTYLE
  5
A
330
0
100
AcDbSymbolTable
 70
     1
  0
DIMSTYLE
105
141
330
A
100
AcDbSymbolTableRecord
100
AcDbDimStyleTableRecord
  2
STANDARD
 70
     0
  3

  4

  5

  6

  7

 40
1.0
 41
0.18
 42
0.0625
 43
0.38
 44
0.18
 45
0.0
 46
0.0
 47
0.0
 48
0.0
140
0.18
141
0.09
142
0.0
143
25.4
144
1.0
145
0.0
146
1.0
147
0.09
 71
     0
 72
     0
 73
     1
 74
     1
 75
     0
 76
     0
 77
     0
 78
     0
170
     0
171
     2
172
     0
173
     0
174
     0
175
     0
176
     0
177
     0
178
     0
270
     2
271
     4
272
     4
273
     2
274
     2
340
11
275
     0
280
     0
281
     0
282
     0
283
     1
284
     0
285
     0
286
     0
287
     3
288
     0
  0
ENDTAB
  0
TABLE
  2
BLOCK_RECORD
  5
1
330
0
100
AcDbSymbolTable
 70
     7
  0
BLOCK_RECORD
  5
1E
102
{ACAD_XDICTIONARY
360
175
102
}
330
1
100
AcDbSymbolTableRecord
100
AcDbBlockTableRecord
  2
*MODEL_SPACE
  0
BLOCK_RECORD
  5
1A
102
{ACAD_XDICTIONARY
360
173
102
}
330
1
100
AcDbSymbolTableRecord
100
AcDbBlockTableRecord
  2
*PAPER_SPACE
  0
BLOCK_RECORD
  5
30
330
1
100
AcDbSymbolTableRecord
100
AcDbBlockTableRecord
  2
D08TPXY
  0
BLOCK_RECORD
  5
50
330
1
100
AcDbSymbolTableRecord
100
AcDbBlockTableRecord
  2
100CROSS
  0
BLOCK_RECORD
  5
6B
330
1
100
AcDbSymbolTableRecord
100
AcDbBlockTableRecord
  2
D06I
  0
BLOCK_RECORD
  5
6F
330
1
100
AcDbSymbolTableRecord
100
AcDbBlockTableRecord
  2
044SAET
  0
BLOCK_RECORD
  5
EF
330
1
100
AcDbSymbolTableRecord
100
AcDbBlockTableRecord
  2
050CROSS
  0
BLOCK_RECORD
  5
100
330
1
100
AcDbSymbolTableRecord
100
AcDbBlockTableRecord
  2
025NPTFT
  0
BLOCK_RECORD
  5
102
330
1
100
AcDbSymbolTableRecord
100
AcDbBlockTableRecord
  2
250NPTFT
  0
ENDTAB
  0
ENDSEC
  0
SECTION
  2
BLOCKS
  0
BLOCK
  5
1F
330
1E
100
AcDbEntity
  8
0
100
AcDbBlockBegin
  2
*MODEL_SPACE
 70
     0
 10
0.0
 20
0.0
 30
0.0
  3
*MODEL_SPACE
  1

  0
ENDBLK
  5
20
330
1E
100
AcDbEntity
  8
0
100
AcDbBlockEnd
  0
BLOCK
  5
1B
330
1A
100
AcDbEntity
 67
     1
  8
0
100
AcDbBlockBegin
  2
*PAPER_SPACE
 70
     0
 10
0.0
 20
0.0
 30
0.0
  3
*PAPER_SPACE
  1

  0
ENDBLK
  5
1C
330
1A
100
AcDbEntity
 67
     1
  8
0
100
AcDbBlockEnd
  0
BLOCK
  5
31
330
30
100
AcDbEntity
  8
0
100
AcDbBlockBegin
  2
D08TPXY
 70
     0
 10
0.0
 20
0.0
 30
0.0
  3
D08TPXY
  1

  0
LWPOLYLINE
  5
32
330
30
100
AcDbEntity
  8
BORDER
100
AcDbPolyline
 90
        4
 70
     1
 43
0.0
 10
10.0
 20
5.5
 10
10.0
 20
11.5
 10
11.0
 20
11.5
 10
11.0
 20
5.5
  0
LWPOLYLINE
  5
38
330
30
100
AcDbEntity
  8
BORDER
100
AcDbPolyline
 90
        4
 70
     1
 43
0.0
 10
3.5
 20
5.5
 10
3.5
 20
11.5
 10
8.0
 20
11.5
 10
8.0
 20
5.5
  0
LWPOLYLINE
  5
3E
330
30
100
AcDbEntity
  8
BORDER
100
AcDbPolyline
 90
        4
 70
     1
 43
0.0
 10
14.0
 20
5.5
 10
14.0
 20
11.5
 10
18.5
 20
11.5
 10
18.5
 20
5.5
  0
LWPOLYLINE
  5
44
330
30
100
AcDbEntity
  8
BORDER
100
AcDbPolyline
 90
        4
 70
     1
 43
0.0
 10
3.5
 20
14.5
 10
3.5
 20
13.5
 10
8.0
 20
13.5
 10
8.0
 20
14.5
  0
LWPOLYLINE
  5
4A
330
30
100
AcDbEntity
  8
BORDER
100
AcDbPolyline
 90
        4
 70
     1
 43
0.0
 10
3.5
 20
3.5
 10
3.5
 20
2.5
 10
8.0
 20
2.5
 10
8.0
 20
3.5
  0
INSERT
  5
51
330
30
100
AcDbEntity
  8
CCENTER
100
AcDbBlockReference
  2
100CROSS
 10
7.5625
 20
5.9375
 30
0.0
 41
0.6
 42
0.6
 43
0.6
  0
INSERT
  5
52
330
30
100
AcDbEntity
  8
CCENTER
100
AcDbBlockReference
  2
100CROSS
 10
7.5625
 20
8.96875
 30
0.0
 41
0.6
 42
0.6
 43
0.6
  0
INSERT
  5
53
330
30
100
AcDbEntity
  8
CCENTER
100
AcDbBlockReference
  2
100CROSS
 10
3.9375
 20
8.03125
 30
0.0
 41
0.6
 42
0.6
 43
0.6
  0
INSERT
  5
54
330
30
100
AcDbEntity
  8
CCENTER
100
AcDbBlockReference
  2
100CROSS
 10
7.5625
 20
11.06249999999999
 30
0.0
 41
0.6
 42
0.6
 43
0.6
  0
INSERT
  5
55
330
30
100
AcDbEntity
  8
CCENTER
100
AcDbBlockReference
  2
100CROSS
 10
3.9375
 20
5.9375
 30
0.0
 41
0.6
 42
0.6
 43
0.6
  0
INSERT
  5
56
330
30
100
AcDbEntity
  8
CCENTER
100
AcDbBlockReference
  2
100CROSS
 10
3.9375
 20
11.06249999999999
 30
0.0
 41
0.6
 42
0.6
 43
0.6
  0
INSERT
  5
57
330
30
100
AcDbEntity
  8
CCENTER
100
AcDbBlockReference
  2
100CROSS
 10
3.9375
 20
9.90625
 30
0.0
 41
0.25
 42
0.25
  0
INSERT
  5
58
330
30
100
AcDbEntity
  8
CCENTER
100
AcDbBlockReference
  2
100CROSS
 10
7.7495
 20
7.344249999999999
 30
0.0
 41
0.25
 42
0.25
  0
INSERT
  5
59
330
30
100
AcDbEntity
  8
CCENTER
100
AcDbBlockReference
  2
100CROSS
 10
4.625
 20
7.09375
 30
0.0
 41
1.03
 42
1.03
  0
INSERT
  5
5A
330
30
100
AcDbEntity
  8
CCENTER
100
AcDbBlockReference
  2
100CROSS
 10
6.875
 20
8.03125
 30
0.0
 41
1.03
 42
1.03
  0
INSERT
  5
5B
330
30
100
AcDbEntity
  8
CCENTER
100
AcDbBlockReference
  2
100CROSS
 10
6.875
 20
9.90625
 30
0.0
 41
1.03
 42
1.03
  0
INSERT
  5
5C
330
30
100
AcDbEntity
  8
CCENTER
100
AcDbBlockReference
  2
100CROSS
 10
4.625
 20
8.96875
 30
0.0
 41
1.03
 42
1.03
  0
CIRCLE
  5
5D
330
30
100
AcDbEntity
  8
CSOLID
100
AcDbCircle
 10
6.8125
 20
6.6245
 30
0.0
 40
0.2189999999999999
  0
CIRCLE
  5
5E
330
30
100
AcDbEntity
  8
CSOLID
100
AcDbCircle
 10
4.6875
 20
10.37449999999999
 30
0.0
 40
0.2189999999999999
  0
CIRCLE
  5
5F
330
30
100
AcDbEntity
  8
CSOLID
100
AcDbCircle
 10
7.7495
 20
7.344249999999999
 30
0.0
 40
0.1405
  0
CIRCLE
  5
60
330
30
100
AcDbEntity
  8
CSOLID
100
AcDbCircle
 10
3.9375
 20
9.90625
 30
0.0
 40
0.1405
  0
CIRCLE
  5
61
330
30
100
AcDbEntity
  8
CSOLID
100
AcDbCircle
 10
6.875499999999999
 20
9.906499999999999
 30
0.0
 40
0.453
  0
CIRCLE
  5
62
330
30
100
AcDbEntity
  8
CSOLID
100
AcDbCircle
 10
6.875499999999999
 20
8.031499999999999
 30
0.0
 40
0.453
  0
CIRCLE
  5
63
330
30
100
AcDbEntity
  8
CSOLID
100
AcDbCircle
 10
4.625499999999999
 20
8.968999999999999
 30
0.0
 40
0.453
  0
CIRCLE
  5
64
330
30
100
AcDbEntity
  8
CSOLID
100
AcDbCircle
 10
4.625499999999999
 20
7.093999999999999
 30
0.0
 40
0.453
  0
CIRCLE
  5
65
330
30
100
AcDbEntity
  8
CSOLID
100
AcDbCircle
 10
3.9375
 20
11.06249999999999
 30
0.0
 40
0.2655
  0
CIRCLE
  5
66
330
30
100
AcDbEntity
  8
CSOLID
100
AcDbCircle
 10
3.9375
 20
5.9375
 30
0.0
 40
0.2655
  0
CIRCLE
  5
67
330
30
100
AcDbEntity
  8
CSOLID
100
AcDbCircle
 10
7.5625
 20
11.06249999999999
 30
0.0
 40
0.2655
  0
CIRCLE
  5
68
330
30
100
AcDbEntity
  8
CSOLID
100
AcDbCircle
 10
7.5625
 20
5.9375
 30
0.0
 40
0.2655
  0
CIRCLE
  5
69
330
30
100
AcDbEntity
  8
CSOLID
100
AcDbCircle
 10
7.5625
 20
8.96875
 30
0.0
 40
0.2655
  0
CIRCLE
  5
6A
330
30
100
AcDbEntity
  8
CSOLID
100
AcDbCircle
 10
3.9375
 20
8.03125
 30
0.0
 40
0.2655
  0
INSERT
  5
6C
330
30
100
AcDbEntity
  8
CDIM
100
AcDbBlockReference
  2
D06I
 10
18.0625
 20
11.06249999999999
 30
0.0
 41
-1.0
  0
CIRCLE
  5
6D
330
30
100
AcDbEntity
  8
CSOLID
100
AcDbCircle
 10
5.75
 20
6.161908999999999
 30
0.0
 40
0.09845
  0
CIRCLE
  5
6E
330
30
100
AcDbEntity
  8
CSOLID
100
AcDbCircle
 10
5.75
 20
10.838091
 30
0.0
 40
0.09845
  0
INSERT
  5
70
330
30
100
AcDbEntity
  8
CDIM
100
AcDbBlockReference
  2
044SAET
 10
5.75
 20
3.0
 30
0.0
  0
INSERT
  5
71
330
30
100
AcDbEntity
  8
CDIM
100
AcDbBlockReference
  2
044SAET
 10
6.8125
 20
3.0
 30
0.0
  0
INSERT
  5
72
330
30
100
AcDbEntity
  8
CDIM
100
AcDbBlockReference
  2
044SAET
 10
4.6875
 20
14.0
 30
0.0
  0
INSERT
  5
73
330
30
100
AcDbEntity
  8
CDIM
100
AcDbBlockReference
  2
044SAET
 10
5.75
 20
14.0
 30
0.0
  0
CIRCLE
  5
74
330
30
100
AcDbEntity
  8
CSOLID
100
AcDbCircle
 10
15.1875
 20
6.625
 30
0.0
 40
0.25
  0
CIRCLE
  5
75
330
30
100
AcDbEntity
  8
CSOLID
100
AcDbCircle
 10
17.3125
 20
10.375
 30
0.0
 40
0.25
  0
INSERT
  5
76
330
30
100
AcDbEntity
  8
CCENTER
100
AcDbBlockReference
  2
100CROSS
 10
6.8125
 20
6.6245
 30
0.0
 41
0.4375
 42
0.4375
 43
0.4375
  0
INSERT
  5
77
330
30
100
AcDbEntity
  8
CCENTER
100
AcDbBlockReference
  2
100CROSS
 10
4.6875
 20
10.37449999999999
 30
0.0
 41
0.4375
 42
0.4375
 43
0.4375
  0
INSERT
  5
78
330
30
100
AcDbEntity
  8
CCENTER
100
AcDbBlockReference
  2
100CROSS
 10
5.75
 20
6.161908999999999
 30
0.0
 41
0.25
 42
0.25
 43
0.25
  0
INSERT
  5
79
330
30
100
AcDbEntity
  8
CCENTER
100
AcDbBlockReference
  2
100CROSS
 10
5.75
 20
10.838091
 30
0.0
 41
0.25
 42
0.25
 43
0.25
  0
TEXT
  5
7A
330
30
100
AcDbEntity
  8
CDIM
100
AcDbText
 10
4.84375
 20
3.1875
 30
0.0
 40
0.25
  1
C2
  7
STR
100
AcDbText
  0
TEXT
  5
7B
330
30
100
AcDbEntity
  8
CDIM
100
AcDbText
 10
7.375
 20
3.1875
 30
0.0
 40
0.25
  1
Y
  7
STR
100
AcDbText
  0
TEXT
  5
7C
330
30
100
AcDbEntity
  8
CDIM
100
AcDbText
 10
6.53125
 20
13.8125
 30
0.0
 40
0.25
  1
C1
 50
180.0
  7
STR
100
AcDbText
  0
TEXT
  5
7D
330
30
100
AcDbEntity
  8
CDIM
100
AcDbText
 10
4.15625
 20
13.8125
 30
0.0
 40
0.25
  1
X
 50
180.0
  7
STR
100
AcDbText
  0
LINE
  5
7E
330
30
100
AcDbEntity
  8
CDIM
100
AcDbLine
 10
18.5
 20
11.626694
 30
0.0
 11
18.5
 21
12.284638
 31
0.0
  0
LINE
  5
7F
330
30
100
AcDbEntity
  8
CDIM
100
AcDbLine
 10
15.1245
 20
10.48619399999999
 30
0.0
 11
15.1245
 21
12.284638
 31
0.0
  0
LINE
  5
80
330
30
100
AcDbEntity
  8
CDIM
100
AcDbLine
 10
18.24661299999999
 20
12.03125
 30
0.0
 11
17.49808599999999
 21
12.03125
 31
0.0
  0
LINE
  5
81
330
30
100
AcDbEntity
  8
CDIM
100
AcDbLine
 10
15.377888
 20
12.03125
 30
0.0
 11
16.12641499999999
 21
12.03125
 31
0.0
  0
SOLID
  5
82
330
30
100
AcDbEntity
  8
CDIM
100
AcDbTrace
 10
18.24661299999999
 20
11.989019
 30
0.0
 11
18.24661299999999
 21
12.07348099999999
 31
0.0
 12
18.5
 22
12.03125
 32
0.0
 13
18.5
 23
12.03125
 33
0.0
  0
SOLID
  5
83
330
30
100
AcDbEntity
  8
CDIM
100
AcDbTrace
 10
15.377888
 20
11.989019
 30
0.0
 11
15.377888
 21
12.07348099999999
 31
0.0
 12
15.1245
 22
12.03125
 32
0.0
 13
15.1245
 23
12.03125
 33
0.0
  0
TEXT
  5
84
330
30
100
AcDbEntity
  8
CDIM
100
AcDbText
 10
16.37980199999999
 20
11.889353
 30
0.0
 40
0.283794
  1
3.38
  7
STR
100
AcDbText
  0
LINE
  5
85
330
30
100
AcDbEntity
  8
CDIM
100
AcDbLine
 10
18.5
 20
11.626694
 30
0.0
 11
18.5
 21
13.0448
 31
0.0
  0
LINE
  5
86
330
30
100
AcDbEntity
  8
CDIM
100
AcDbLine
 10
14.0
 20
11.626694
 30
0.0
 11
14.0
 21
13.0448
 31
0.0
  0
LINE
  5
87
330
30
100
AcDbEntity
  8
CDIM
100
AcDbLine
 10
18.24661299999999
 20
12.791413
 30
0.0
 11
16.935836
 21
12.791413
 31
0.0
  0
LINE
  5
88
330
30
100
AcDbEntity
  8
CDIM
100
AcDbLine
 10
14.253388
 20
12.791413
 30
0.0
 11
15.564165
 21
12.791413
 31
0.0
  0
SOLID
  5
89
330
30
100
AcDbEntity
  8
CDIM
100
AcDbTrace
 10
18.24661299999999
 20
12.749181
 30
0.0
 11
18.24661299999999
 21
12.83364399999999
 31
0.0
 12
18.5
 22
12.791413
 32
0.0
 13
18.5
 23
12.791413
 33
0.0
  0
SOLID
  5
8A
330
30
100
AcDbEntity
  8
CDIM
100
AcDbTrace
 10
14.253388
 20
12.749181
 30
0.0
 11
14.253388
 21
12.83364399999999
 31
0.0
 12
14.0
 22
12.791413
 32
0.0
 13
14.0
 23
12.791413
 33
0.0
  0
TEXT
  5
8B
330
30
100
AcDbEntity
  8
CDIM
100
AcDbText
 10
15.81755199999999
 20
12.649516
 30
0.0
 40
0.283794
  1
4.50
  7
STR
100
AcDbText
  0
LINE
  5
8C
330
30
100
AcDbEntity
  8
CDIM
100
AcDbLine
 10
13.873306
 20
11.5
 30
0.0
 11
13.090363
 21
11.5
 31
0.0
  0
LINE
  5
8D
330
30
100
AcDbEntity
  8
CDIM
100
AcDbLine
 10
14.544806
 20
8.031499999999999
 30
0.0
 11
13.090363
 21
8.031499999999999
 31
0.0
  0
LINE
  5
8E
330
30
100
AcDbEntity
  8
CDIM
100
AcDbLine
 10
13.34375
 20
11.246613
 30
0.0
 11
13.34375
 21
10.16103399999999
 31
0.0
  0
LINE
  5
8F
330
30
100
AcDbEntity
  8
CDIM
100
AcDbLine
 10
13.34375
 20
8.284886999999999
 30
0.0
 11
13.34375
 21
9.370464999999999
 31
0.0
  0
SOLID
  5
90
330
30
100
AcDbEntity
  8
CDIM
100
AcDbTrace
 10
13.385981
 20
11.246613
 30
0.0
 11
13.301519
 21
11.246613
 31
0.0
 12
13.34375
 22
11.5
 32
0.0
 13
13.34375
 23
11.5
 33
0.0
  0
SOLID
  5
91
330
30
100
AcDbEntity
  8
CDIM
100
AcDbTrace
 10
13.385981
 20
8.284886999999999
 30
0.0
 11
13.301519
 21
8.284886999999999
 31
0.0
 12
13.34375
 22
8.031499999999999
 32
0.0
 13
13.34375
 23
8.031499999999999
 33
0.0
  0
TEXT
  5
92
330
30
100
AcDbEntity
  8
CDIM
100
AcDbText
 10
12.911302
 20
9.623853
 30
0.0
 40
0.283794
  1
3.47
  7
STR
100
AcDbText
  0
LINE
  5
93
330
30
100
AcDbEntity
  8
CDIM
100
AcDbLine
 10
13.873306
 20
11.5
 30
0.0
 11
12.3302
 21
11.5
 31
0.0
  0
LINE
  5
94
330
30
100
AcDbEntity
  8
CDIM
100
AcDbLine
 10
13.873306
 20
5.5
 30
0.0
 11
12.3302
 21
5.5
 31
0.0
  0
LINE
  5
95
330
30
100
AcDbEntity
  8
CDIM
100
AcDbLine
 10
12.583588
 20
11.246613
 30
0.0
 11
12.583588
 21
8.895284
 31
0.0
  0
LINE
  5
96
330
30
100
AcDbEntity
  8
CDIM
100
AcDbLine
 10
12.583588
 20
5.753388
 30
0.0
 11
12.583588
 21
8.104715999999999
 31
0.0
  0
SOLID
  5
97
330
30
100
AcDbEntity
  8
CDIM
100
AcDbTrace
 10
12.625819
 20
11.246613
 30
0.0
 11
12.541356
 21
11.246613
 31
0.0
 12
12.583588
 22
11.5
 32
0.0
 13
12.583588
 23
11.5
 33
0.0
  0
SOLID
  5
98
330
30
100
AcDbEntity
  8
CDIM
100
AcDbTrace
 10
12.625819
 20
5.753388
 30
0.0
 11
12.541356
 21
5.753388
 31
0.0
 12
12.583588
 22
5.5
 32
0.0
 13
12.583588
 23
5.5
 33
0.0
  0
TEXT
  5
99
330
30
100
AcDbEntity
  8
CDIM
100
AcDbText
 10
12.15114
 20
8.358102999999999
 30
0.0
 40
0.283794
  1
6.00
  7
STR
100
AcDbText
  0
LINE
  5
9A
330
30
100
AcDbEntity
  8
CDIM
100
AcDbLine
 10
10.0
 20
11.626694
 30
0.0
 11
10.0
 21
12.284638
 31
0.0
  0
LINE
  5
9B
330
30
100
AcDbEntity
  8
CDIM
100
AcDbLine
 10
11.0
 20
11.626694
 30
0.0
 11
11.0
 21
12.284638
 31
0.0
  0
LINE
  5
9C
330
30
100
AcDbEntity
  8
CDIM
100
AcDbLine
 10
11.253388
 20
12.03125
 30
0.0
 11
11.506775
 21
12.03125
 31
0.0
  0
LINE
  5
9D
330
30
100
AcDbEntity
  8
CDIM
100
AcDbLine
 10
9.746611999999998
 20
12.03125
 30
0.0
 11
9.493225
 21
12.03125
 31
0.0
  0
SOLID
  5
9E
330
30
100
AcDbEntity
  8
CDIM
100
AcDbTrace
 10
11.253388
 20
11.989019
 30
0.0
 11
11.253388
 21
12.07348099999999
 31
0.0
 12
11.0
 22
12.03125
 32
0.0
 13
11.0
 23
12.03125
 33
0.0
  0
SOLID
  5
9F
330
30
100
AcDbEntity
  8
CDIM
100
AcDbTrace
 10
9.746611999999998
 20
11.989019
 30
0.0
 11
9.746611999999998
 21
12.07348099999999
 31
0.0
 12
10.0
 22
12.03125
 32
0.0
 13
10.0
 23
12.03125
 33
0.0
  0
TEXT
  5
A0
330
30
100
AcDbEntity
  8
CDIM
100
AcDbText
 10
11.760163
 20
11.889353
 30
0.0
 40
0.283794
  1
1.00
  7
STR
100
AcDbText
  0
LINE
  5
A1
330
30
100
AcDbEntity
  8
CDIM
100
AcDbLine
 10
3.373305999999999
 20
2.5
 30
0.0
 11
2.590362999999999
 21
2.5
 31
0.0
  0
LINE
  5
A2
330
30
100
AcDbEntity
  8
CDIM
100
AcDbLine
 10
5.435805999999999
 20
3.0
 30
0.0
 11
2.590362999999999
 21
3.0
 31
0.0
  0
LINE
  5
A3
330
30
100
AcDbEntity
  8
CDIM
100
AcDbLine
 10
2.84375
 20
3.253388
 30
0.0
 11
2.84375
 21
3.506775
 31
0.0
  0
LINE
  5
A4
330
30
100
AcDbEntity
  8
CDIM
100
AcDbLine
 10
2.84375
 20
2.246612999999999
 30
0.0
 11
2.84375
 21
1.993224999999999
 31
0.0
  0
SOLID
  5
A5
330
30
100
AcDbEntity
  8
CDIM
100
AcDbTrace
 10
2.885981
 20
3.253388
 30
0.0
 11
2.801518999999999
 21
3.253388
 31
0.0
 12
2.84375
 22
3.0
 32
0.0
 13
2.84375
 23
3.0
 33
0.0
  0
SOLID
  5
A6
330
30
100
AcDbEntity
  8
CDIM
100
AcDbTrace
 10
2.885981
 20
2.246612999999999
 30
0.0
 11
2.801518999999999
 21
2.246612999999999
 31
0.0
 12
2.84375
 22
2.5
 32
0.0
 13
2.84375
 23
2.5
 33
0.0
  0
TEXT
  5
A7
330
30
100
AcDbEntity
  8
CDIM
100
AcDbText
 10
2.381775
 20
3.614878
 30
0.0
 40
0.283794
  1
0.50
  7
STR
100
AcDbText
  0
LINE
  5
A8
330
30
100
AcDbEntity
  8
CDIM
100
AcDbLine
 10
3.5
 20
3.626694
 30
0.0
 11
3.5
 21
4.284638
 31
0.0
  0
LINE
  5
A9
330
30
100
AcDbEntity
  8
CDIM
100
AcDbLine
 10
5.75
 20
3.314194
 30
0.0
 11
5.75
 21
4.284638
 31
0.0
  0
LINE
  5
AA
330
30
100
AcDbEntity
  8
CDIM
100
AcDbLine
 10
3.753387999999999
 20
4.03125
 30
0.0
 11
3.939165
 21
4.03125
 31
0.0
  0
LINE
  5
AB
330
30
100
AcDbEntity
  8
CDIM
100
AcDbLine
 10
5.496612999999999
 20
4.03125
 30
0.0
 11
5.310836
 21
4.03125
 31
0.0
  0
SOLID
  5
AC
330
30
100
AcDbEntity
  8
CDIM
100
AcDbTrace
 10
3.753387999999999
 20
3.989019
 30
0.0
 11
3.753387999999999
 21
4.073481
 31
0.0
 12
3.5
 22
4.03125
 32
0.0
 13
3.5
 23
4.03125
 33
0.0
  0
SOLID
  5
AD
330
30
100
AcDbEntity
  8
CDIM
100
AcDbTrace
 10
5.496612999999999
 20
3.989019
 30
0.0
 11
5.496612999999999
 21
4.073481
 31
0.0
 12
5.75
 22
4.03125
 32
0.0
 13
5.75
 23
4.03125
 33
0.0
  0
TEXT
  5
AE
330
30
100
AcDbEntity
  8
CDIM
100
AcDbText
 10
4.192552
 20
3.889352999999999
 30
0.0
 40
0.283794
  1
2.25
  7
STR
100
AcDbText
  0
LINE
  5
AF
330
30
100
AcDbEntity
  8
CDIM
100
AcDbLine
 10
3.5
 20
3.626694
 30
0.0
 11
3.5
 21
5.0448
 31
0.0
  0
LINE
  5
B0
330
30
100
AcDbEntity
  8
CDIM
100
AcDbLine
 10
6.8125
 20
3.351694
 30
0.0
 11
6.8125
 21
5.0448
 31
0.0
  0
LINE
  5
B1
330
30
100
AcDbEntity
  8
CDIM
100
AcDbLine
 10
3.753387999999999
 20
4.791412999999999
 30
0.0
 11
4.531227999999999
 21
4.791412999999999
 31
0.0
  0
LINE
  5
B2
330
30
100
AcDbEntity
  8
CDIM
100
AcDbLine
 10
6.559113
 20
4.791412999999999
 30
0.0
 11
5.781273
 21
4.791412999999999
 31
0.0
  0
SOLID
  5
B3
330
30
100
AcDbEntity
  8
CDIM
100
AcDbTrace
 10
3.753387999999999
 20
4.749181
 30
0.0
 11
3.753387999999999
 21
4.833644
 31
0.0
 12
3.5
 22
4.791412999999999
 32
0.0
 13
3.5
 23
4.791412999999999
 33
0.0
  0
SOLID
  5
B4
330
30
100
AcDbEntity
  8
CDIM
100
AcDbTrace
 10
6.559113
 20
4.749181
 30
0.0
 11
6.559113
 21
4.833644
 31
0.0
 12
6.8125
 22
4.791412999999999
 32
0.0
 13
6.8125
 23
4.791412999999999
 33
0.0
  0
TEXT
  5
B5
330
30
100
AcDbEntity
  8
CDIM
100
AcDbText
 10
4.784615
 20
4.649516
 30
0.0
 40
0.283794
  1
3.31
  7
STR
100
AcDbText
  0
LINE
  5
B6
330
30
100
AcDbEntity
  8
CDIM
100
AcDbLine
 10
3.5
 20
13.373306
 30
0.0
 11
3.5
 21
12.715363
 31
0.0
  0
LINE
  5
B7
330
30
100
AcDbEntity
  8
CDIM
100
AcDbLine
 10
4.6875
 20
13.685806
 30
0.0
 11
4.6875
 21
12.715363
 31
0.0
  0
LINE
  5
B8
330
30
100
AcDbEntity
  8
CDIM
100
AcDbLine
 10
4.940888
 20
12.96875
 30
0.0
 11
5.194275
 21
12.96875
 31
0.0
  0
LINE
  5
B9
330
30
100
AcDbEntity
  8
CDIM
100
AcDbLine
 10
3.246612999999999
 20
12.96875
 30
0.0
 11
2.993224999999999
 21
12.96875
 31
0.0
  0
SOLID
  5
BA
330
30
100
AcDbEntity
  8
CDIM
100
AcDbTrace
 10
4.940888
 20
12.926519
 30
0.0
 11
4.940888
 21
13.01098099999999
 31
0.0
 12
4.6875
 22
12.96875
 32
0.0
 13
4.6875
 23
12.96875
 33
0.0
  0
SOLID
  5
BB
330
30
100
AcDbEntity
  8
CDIM
100
AcDbTrace
 10
3.246612999999999
 20
12.926519
 30
0.0
 11
3.246612999999999
 21
13.01098099999999
 31
0.0
 12
3.5
 22
12.96875
 32
0.0
 13
3.5
 23
12.96875
 33
0.0
  0
TEXT
  5
BC
330
30
100
AcDbEntity
  8
CDIM
100
AcDbText
 10
3.728912999999999
 20
12.826853
 30
0.0
 40
0.283794
  1
1.19
  7
STR
100
AcDbText
  0
LINE
  5
BD
330
30
100
AcDbEntity
  8
CDIM
100
AcDbLine
 10
3.5
 20
13.373306
 30
0.0
 11
3.5
 21
11.95519999999999
 31
0.0
  0
LINE
  5
BE
330
30
100
AcDbEntity
  8
CDIM
100
AcDbLine
 10
5.75
 20
13.65455599999999
 30
0.0
 11
5.75
 21
11.95519999999999
 31
0.0
  0
LINE
  5
BF
330
30
100
AcDbEntity
  8
CDIM
100
AcDbLine
 10
3.753387999999999
 20
12.208588
 30
0.0
 11
3.939163999999999
 21
12.208588
 31
0.0
  0
LINE
  5
C0
330
30
100
AcDbEntity
  8
CDIM
100
AcDbLine
 10
5.496611999999999
 20
12.208588
 30
0.0
 11
5.310834999999999
 21
12.208588
 31
0.0
  0
SOLID
  5
C1
330
30
100
AcDbEntity
  8
CDIM
100
AcDbTrace
 10
3.753387999999999
 20
12.166356
 30
0.0
 11
3.753387999999999
 21
12.250819
 31
0.0
 12
3.5
 22
12.208588
 32
0.0
 13
3.5
 23
12.208588
 33
0.0
  0
SOLID
  5
C2
330
30
100
AcDbEntity
  8
CDIM
100
AcDbTrace
 10
5.496611999999999
 20
12.166356
 30
0.0
 11
5.496611999999999
 21
12.250819
 31
0.0
 12
5.75
 22
12.208588
 32
0.0
 13
5.75
 23
12.208588
 33
0.0
  0
TEXT
  5
C3
330
30
100
AcDbEntity
  8
CDIM
100
AcDbText
 10
4.192552
 20
12.066691
 30
0.0
 40
0.283794
  1
2.25
  7
STR
100
AcDbText
  0
LINE
  5
C4
330
30
100
AcDbEntity
  8
CDIM
100
AcDbLine
 10
3.373305999999999
 20
14.5
 30
0.0
 11
2.590362999999999
 21
14.5
 31
0.0
  0
LINE
  5
C5
330
30
100
AcDbEntity
  8
CDIM
100
AcDbLine
 10
4.342055999999999
 20
14.0
 30
0.0
 11
2.590362999999999
 21
14.0
 31
0.0
  0
LINE
  5
C6
330
30
100
AcDbEntity
  8
CDIM
100
AcDbLine
 10
2.84375
 20
13.746612
 30
0.0
 11
2.84375
 21
13.493225
 31
0.0
  0
LINE
  5
C7
330
30
100
AcDbEntity
  8
CDIM
100
AcDbLine
 10
2.84375
 20
14.753388
 30
0.0
 11
2.84375
 21
15.006775
 31
0.0
  0
SOLID
  5
C8
330
30
100
AcDbEntity
  8
CDIM
100
AcDbTrace
 10
2.885981
 20
13.746612
 30
0.0
 11
2.801518999999999
 21
13.746612
 31
0.0
 12
2.84375
 22
14.0
 32
0.0
 13
2.84375
 23
14.0
 33
0.0
  0
SOLID
  5
C9
330
30
100
AcDbEntity
  8
CDIM
100
AcDbTrace
 10
2.885981
 20
14.753388
 30
0.0
 11
2.801518999999999
 21
14.753388
 31
0.0
 12
2.84375
 22
14.5
 32
0.0
 13
2.84375
 23
14.5
 33
0.0
  0
TEXT
  5
CA
330
30
100
AcDbEntity
  8
CDIM
100
AcDbText
 10
2.378328999999999
 20
14.132578
 30
0.0
 40
0.283794
  1
0.50
  7
STR
100
AcDbText
  0
ENDBLK
  5
CB
330
30
100
AcDbEntity
  8
0
100
AcDbBlockEnd
  0
BLOCK
  5
EE
330
50
100
AcDbEntity
  8
0
100
AcDbBlockBegin
  2
100CROSS
 70
     0
 10
5.625
 20
4.59375
 30
0.0
  3
100CROSS
  1

  0
INSERT
  5
F0
330
50
100
AcDbEntity
  8
0
100
AcDbBlockReference
  2
050CROSS
 10
5.625
 20
4.59375
 30
0.0
  0
ENDBLK
  5
F1
330
50
100
AcDbEntity
  8
0
100
AcDbBlockEnd
  0
BLOCK
  5
CC
330
6B
100
AcDbEntity
  8
0
100
AcDbBlockBegin
  2
D06I
 70
     0
 10
18.28125
 20
11.06249999999999
 30
0.0
  3
D06I
  1

  0
INSERT
  5
CD
330
6B
100
AcDbEntity
  8
CCENTER
100
AcDbBlockReference
  2
100CROSS
 10
21.90625
 20
5.9375
 30
0.0
 41
0.8
 42
0.8
 43
0.8
  0
INSERT
  5
CE
330
6B
100
AcDbEntity
  8
CCENTER
100
AcDbBlockReference
  2
100CROSS
 10
21.90625
 20
8.96875
 30
0.0
 41
0.8
 42
0.8
 43
0.8
  0
INSERT
  5
CF
330
6B
100
AcDbEntity
  8
CCENTER
100
AcDbBlockReference
  2
100CROSS
 10
18.28125
 20
8.03125
 30
0.0
 41
0.8
 42
0.8
 43
0.8
  0
INSERT
  5
D0
330
6B
100
AcDbEntity
  8
CCENTER
100
AcDbBlockReference
  2
100CROSS
 10
21.90625
 20
11.06249999999999
 30
0.0
 41
0.8
 42
0.8
 43
0.8
  0
INSERT
  5
D1
330
6B
100
AcDbEntity
  8
CCENTER
100
AcDbBlockReference
  2
100CROSS
 10
18.28125
 20
5.9375
 30
0.0
 41
0.8
 42
0.8
 43
0.8
  0
INSERT
  5
D2
330
6B
100
AcDbEntity
  8
CCENTER
100
AcDbBlockReference
  2
100CROSS
 10
18.28125
 20
11.06249999999999
 30
0.0
 41
0.8
 42
0.8
 43
0.8
  0
INSERT
  5
D3
330
6B
100
AcDbEntity
  8
CCENTER
100
AcDbBlockReference
  2
100CROSS
 10
18.28125
 20
9.90625
 30
0.0
 41
0.25
 42
0.25
  0
INSERT
  5
D4
330
6B
100
AcDbEntity
  8
CCENTER
100
AcDbBlockReference
  2
100CROSS
 10
22.09325
 20
7.344249999999999
 30
0.0
 41
0.25
 42
0.25
  0
INSERT
  5
D5
330
6B
100
AcDbEntity
  8
CCENTER
100
AcDbBlockReference
  2
100CROSS
 10
18.96875
 20
7.09375
 30
0.0
 41
1.03
 42
1.03
  0
INSERT
  5
D6
330
6B
100
AcDbEntity
  8
CCENTER
100
AcDbBlockReference
  2
100CROSS
 10
21.15625
 20
6.625
 30
0.0
 41
0.875
 42
0.875
  0
INSERT
  5
D7
330
6B
100
AcDbEntity
  8
CCENTER
100
AcDbBlockReference
  2
100CROSS
 10
21.21875
 20
8.03125
 30
0.0
 41
1.03
 42
1.03
  0
INSERT
  5
D8
330
6B
100
AcDbEntity
  8
CCENTER
100
AcDbBlockReference
  2
100CROSS
 10
21.21875
 20
9.90625
 30
0.0
 41
1.03
 42
1.03
  0
INSERT
  5
D9
330
6B
100
AcDbEntity
  8
CCENTER
100
AcDbBlockReference
  2
100CROSS
 10
18.96875
 20
8.96875
 30
0.0
 41
1.03
 42
1.03
  0
INSERT
  5
DA
330
6B
100
AcDbEntity
  8
CCENTER
100
AcDbBlockReference
  2
100CROSS
 10
19.03125
 20
10.375
 30
0.0
 41
0.875
 42
0.875
  0
CIRCLE
  5
DB
330
6B
100
AcDbEntity
  8
CSOLID
100
AcDbCircle
 10
22.09325
 20
7.344249999999999
 30
0.0
 40
0.1405
  0
CIRCLE
  5
DC
330
6B
100
AcDbEntity
  8
CSOLID
100
AcDbCircle
 10
18.28125
 20
9.90625
 30
0.0
 40
0.1405
  0
CIRCLE
  5
DD
330
6B
100
AcDbEntity
  8
CSOLID
100
AcDbCircle
 10
21.21925
 20
9.906499999999999
 30
0.0
 40
0.453
  0
CIRCLE
  5
DE
330
6B
100
AcDbEntity
  8
CSOLID
100
AcDbCircle
 10
21.21925
 20
8.031499999999999
 30
0.0
 40
0.453
  0
CIRCLE
  5
DF
330
6B
100
AcDbEntity
  8
CSOLID
100
AcDbCircle
 10
18.96924999999999
 20
8.968999999999999
 30
0.0
 40
0.453
  0
CIRCLE
  5
E0
330
6B
100
AcDbEntity
  8
CSOLID
100
AcDbCircle
 10
18.96924999999999
 20
7.093999999999999
 30
0.0
 40
0.453
  0
CIRCLE
  5
E1
330
6B
100
AcDbEntity
  8
CSOLID
100
AcDbCircle
 10
18.28125
 20
11.06249999999999
 30
0.0
 40
0.2655
  0
CIRCLE
  5
E2
330
6B
100
AcDbEntity
  8
CSOLID
100
AcDbCircle
 10
18.28125
 20
5.9375
 30
0.0
 40
0.2655
  0
CIRCLE
  5
E3
330
6B
100
AcDbEntity
  8
CSOLID
100
AcDbCircle
 10
21.90625
 20
11.06249999999999
 30
0.0
 40
0.2655
  0
CIRCLE
  5
E4
330
6B
100
AcDbEntity
  8
CSOLID
100
AcDbCircle
 10
21.90625
 20
5.9375
 30
0.0
 40
0.2655
  0
CIRCLE
  5
E5
330
6B
100
AcDbEntity
  8
CSOLID
100
AcDbCircle
 10
21.90625
 20
8.96875
 30
0.0
 40
0.2655
  0
CIRCLE
  5
E6
330
6B
100
AcDbEntity
  8
CSOLID
100
AcDbCircle
 10
18.28125
 20
8.03125
 30
0.0
 40
0.2655
  0
CIRCLE
  5
E7
330
6B
100
AcDbEntity
  8
CSOLID
100
AcDbCircle
 10
19.03125
 20
10.375
 30
0.0
 40
0.5
  0
CIRCLE
  5
E8
330
6B
100
AcDbEntity
  8
CSOLID
100
AcDbCircle
 10
21.15625
 20
6.625
 30
0.0
 40
0.5
  0
CIRCLE
  5
E9
330
6B
100
AcDbEntity
  8
CSOLID
100
AcDbCircle
 10
18.96875
 20
7.09375
 30
0.0
 40
0.6559999999999999
  0
CIRCLE
  5
EA
330
6B
100
AcDbEntity
  8
CSOLID
100
AcDbCircle
 10
21.21875
 20
8.03125
 30
0.0
 40
0.6559999999999999
  0
CIRCLE
  5
EB
330
6B
100
AcDbEntity
  8
CSOLID
100
AcDbCircle
 10
21.21875
 20
9.90625
 30
0.0
 40
0.6559999999999999
  0
CIRCLE
  5
EC
330
6B
100
AcDbEntity
  8
CSOLID
100
AcDbCircle
 10
18.96875
 20
8.96875
 30
0.0
 40
0.6559999999999999
  0
ENDBLK
  5
ED
330
6B
100
AcDbEntity
  8
0
100
AcDbBlockEnd
  0
BLOCK
  5
FA
330
6F
100
AcDbEntity
  8
0
100
AcDbBlockBegin
  2
044SAET
 70
     0
 10
6.375
 20
2.1875
 30
0.0
  3
044SAET
  1

  0
CIRCLE
  5
FB
330
6F
100
AcDbEntity
  8
CHIDDEN
100
AcDbCircle
 10
6.375
 20
2.1875
 30
0.0
 40
0.21875
  0
INSERT
  5
FC
330
6F
100
AcDbEntity
  8
CCENTER
100
AcDbBlockReference
  2
100CROSS
 10
6.375
 20
2.1875
 30
0.0
 41
0.8
 42
0.8
  0
CIRCLE
  5
FD
330
6F
100
AcDbEntity
  8
CSOLID
100
AcDbCircle
 10
6.375
 20
2.1875
 30
0.0
 40
0.1875
  0
CIRCLE
  5
FE
330
6F
100
AcDbEntity
  8
CSOLID
100
AcDbCircle
 10
6.375
 20
2.1875
 30
0.0
 40
0.4375
  0
ENDBLK
  5
FF
330
6F
100
AcDbEntity
  8
0
100
AcDbBlockEnd
  0
BLOCK
  5
F2
330
EF
100
AcDbEntity
  8
0
100
AcDbBlockBegin
  2
050CROSS
 70
     0
 10
5.0
 20
5.0
 30
0.0
  3
050CROSS
  1

  0
LINE
  5
F3
330
EF
100
AcDbEntity
  8
0
100
AcDbLine
 10
5.0
 20
5.28125
 30
0.0
 11
5.0
 21
5.78125
 31
0.0
  0
LINE
  5
F4
330
EF
100
AcDbEntity
  8
0
100
AcDbLine
 10
5.0
 20
4.875
 30
0.0
 11
5.0
 21
5.125
 31
0.0
  0
LINE
  5
F5
330
EF
100
AcDbEntity
  8
0
100
AcDbLine
 10
5.0
 20
4.15625
 30
0.0
 11
5.0
 21
4.71875
 31
0.0
  0
LINE
  5
F6
330
EF
100
AcDbEntity
  8
0
100
AcDbLine
 10
5.25
 20
5.0
 30
0.0
 11
5.8125
 21
5.0
 31
0.0
  0
LINE
  5
F7
330
EF
100
AcDbEntity
  8
0
100
AcDbLine
 10
4.90625
 20
5.0
 30
0.0
 11
5.09375
 21
5.0
 31
0.0
  0
LINE
  5
F8
330
EF
100
AcDbEntity
  8
0
100
AcDbLine
 10
4.1875
 20
5.0
 30
0.0
 11
4.75
 21
5.0
 31
0.0
  0
ENDBLK
  5
F9
330
EF
100
AcDbEntity
  8
0
100
AcDbBlockEnd
  0
BLOCK
  5
101
330
100
100
AcDbEntity
  8
0
100
AcDbBlockBegin
  2
025NPTFT
 70
     0
 10
0.0
 20
0.0
 30
0.0
  3
025NPTFT
  1

  0
INSERT
  5
103
330
100
100
AcDbEntity
  8
DAMAN
100
AcDbBlockReference
  2
250NPTFT
 10
0.0
 20
0.0
 30
0.0
  0
ENDBLK
  5
104
330
100
100
AcDbEntity
  8
0
100
AcDbBlockEnd
  0
BLOCK
  5
105
330
102
100
AcDbEntity
  8
0
100
AcDbBlockBegin
  2
250NPTFT
 70
     0
 10
0.0
 20
0.0
 30
0.0
  3
250NPTFT
  1

  0
CIRCLE
  5
106
330
102
100
AcDbEntity
  8
DAMAN
100
AcDbCircle
 10
0.0
 20
0.0
 30
0.0
 40
0.273
  0
CIRCLE
  5
107
330
102
100
AcDbEntity
  8
DAMAN
100
AcDbCircle
 10
0.0
 20
0.0
 30
0.0
 40
0.211
  0
INSERT
  5
108
330
102
100
AcDbEntity
  8
DAMAN
100
AcDbBlockReference
  2
100CROSS
 10
0.0
 20
0.0
 30
0.0
 41
0.4220000000000001
 42
0.4220000000000001
  0
CIRCLE
  5
109
330
102
100
AcDbEntity
  8
DAMAN
100
AcDbCircle
 10
0.0
 20
0.0
 30
0.0
 40
0.242251
  0
POINT
  5
10A
330
102
100
AcDbEntity
  8
CHIDDEN
100
AcDbPoint
 10
-0.087928
 20
0.191806
 30
0.0
  0
POINT
  5
10B
330
102
100
AcDbEntity
  8
CHIDDEN
100
AcDbPoint
 10
-0.137717
 20
-0.15986
 30
0.0
  0
POINT
  5
10C
330
102
100
AcDbEntity
  8
CHIDDEN
100
AcDbPoint
 10
0.202707
 20
-0.058572
 30
0.0
  0
ENDBLK
  5
10D
330
102
100
AcDbEntity
  8
0
100
AcDbBlockEnd
  0
ENDSEC
  0
SECTION
  2
ENTITIES
  0
LWPOLYLINE
  5
10E
330
1E
100
AcDbEntity
  8
DAMAN
100
AcDbPolyline
 90
        4
 70
     1
 43
0.0
 10
11.03125
 20
6.59375
 10
11.03125
 20
12.59375
 10
12.03125
 20
12.59375
 10
12.03125
 20
6.59375
  0
LWPOLYLINE
  5
114
330
1E
100
AcDbEntity
  8
DAMAN
100
AcDbPolyline
 90
        4
 70
     1
 43
0.0
 10
4.53125
 20
6.59375
 10
4.53125
 20
12.59375
 10
9.03125
 20
12.59375
 10
9.03125
 20
6.59375
  0
INSERT
  5
120
330
1E
100
AcDbEntity
  8
DAMAN
100
AcDbBlockReference
  2
100CROSS
 10
4.96875
 20
11.0
 30
0.0
 41
0.25
 42
0.25
  0
INSERT
  5
121
330
1E
100
AcDbEntity
  8
DAMAN
100
AcDbBlockReference
  2
100CROSS
 10
8.780749999999999
 20
8.437999999999998
 30
0.0
 41
0.25
 42
0.25
  0
INSERT
  5
125
330
1E
100
AcDbEntity
  8
DAMAN
100
AcDbBlockReference
  2
100CROSS
 10
5.65625
 20
10.0625
 30
0.0
 41
0.5150000000000001
 42
0.5150000000000001
 43
0.5
  0
CIRCLE
  5
128
330
1E
100
AcDbEntity
  8
DAMAN
100
AcDbCircle
 10
8.780749999999999
 20
8.437999999999998
 30
0.0
 40
0.1405
  0
CIRCLE
  5
129
330
1E
100
AcDbEntity
  8
DAMAN
100
AcDbCircle
 10
4.96875
 20
11.0
 30
0.0
 40
0.1405
  0
CIRCLE
  5
12E
330
1E
100
AcDbEntity
  8
DAMAN
100
AcDbCircle
 10
4.96875
 20
12.15625
 30
0.0
 40
0.2655
  0
CIRCLE
  5
12F
330
1E
100
AcDbEntity
  8
DAMAN
100
AcDbCircle
 10
4.96875
 20
7.03125
 30
0.0
 40
0.2655
  0
CIRCLE
  5
130
330
1E
100
AcDbEntity
  8
DAMAN
100
AcDbCircle
 10
8.59375
 20
12.15625
 30
0.0
 40
0.2655
  0
CIRCLE
  5
131
330
1E
100
AcDbEntity
  8
DAMAN
100
AcDbCircle
 10
8.59375
 20
7.03125
 30
0.0
 40
0.2655
  0
CIRCLE
  5
132
330
1E
100
AcDbEntity
  8
DAMAN
100
AcDbCircle
 10
8.59375
 20
10.0625
 30
0.0
 40
0.2655
  0
CIRCLE
  5
133
330
1E
100
AcDbEntity
  8
DAMAN
100
AcDbCircle
 10
4.96875
 20
9.125
 30
0.0
 40
0.2655
  0
INSERT
  5
137
330
1E
100
AcDbEntity
  8
DAMAN
100
AcDbBlockReference
  2
100CROSS
 10
5.71875
 20
11.46824999999999
 30
0.0
 41
0.328125
 42
0.328125
 43
0.328125
  0
LWPOLYLINE
  5
13A
330
1E
100
AcDbEntity
  8
DAMAN
100
AcDbPolyline
 90
        4
 70
     1
 43
0.0
 10
2.53125
 20
6.59375
 10
2.53125
 20
12.59375
 10
1.53125
 20
12.59375
 10
1.53125
 20
6.59375
  0
TEXT
  5
140
330
1E
100
AcDbEntity
  8
DAMAN
100
AcDbText
 10
11.37499999999999
 20
8.03125
 30
0.0
 40
0.188
  1
DAMAN ****
 50
90.0
100
AcDbText
  0
CIRCLE
  5
142
330
1E
100
AcDbEntity
  8
DAMAN
100
AcDbCircle
 10
5.65625
 20
10.0625
 30
0.0
 40
0.25
  0
CIRCLE
  5
143
330
1E
100
AcDbEntity
  8
DAMAN
100
AcDbCircle
 10
5.71875
 20
11.46824999999999
 30
0.0
 40
0.1875
  0
INSERT
  5
144
330
1E
100
AcDbEntity
  8
DAMAN
100
AcDbBlockReference
  2
100CROSS
 10
4.96875
 20
12.15625
 30
0.0
 41
0.5150000000000001
 42
0.5150000000000001
 43
0.5
  0
INSERT
  5
145
330
1E
100
AcDbEntity
  8
DAMAN
100
AcDbBlockReference
  2
100CROSS
 10
8.59375
 20
12.15625
 30
0.0
 41
0.5150000000000001
 42
0.5150000000000001
 43
0.5
  0
INSERT
  5
146
330
1E
100
AcDbEntity
  8
DAMAN
100
AcDbBlockReference
  2
100CROSS
 10
8.59375
 20
10.0625
 30
0.0
 41
0.5150000000000001
 42
0.5150000000000001
 43
0.5
  0
INSERT
  5
147
330
1E
100
AcDbEntity
  8
DAMAN
100
AcDbBlockReference
  2
100CROSS
 10
4.96875
 20
9.125
 30
0.0
 41
0.5150000000000001
 42
0.5150000000000001
 43
0.5
  0
INSERT
  5
148
330
1E
100
AcDbEntity
  8
DAMAN
100
AcDbBlockReference
  2
100CROSS
 10
4.96875
 20
7.03125
 30
0.0
 41
0.5150000000000001
 42
0.5150000000000001
 43
0.5
  0
INSERT
  5
149
330
1E
100
AcDbEntity
  8
DAMAN
100
AcDbBlockReference
  2
100CROSS
 10
8.59375
 20
7.03125
 30
0.0
 41
0.5150000000000001
 42
0.5150000000000001
 43
0.5
  0
INSERT
  5
14A
330
1E
100
AcDbEntity
  8
DAMAN
100
AcDbBlockReference
  2
100CROSS
 10
7.84375
 20
7.71825
 30
0.0
 41
0.328125
 42
0.328125
 43
0.328125
  0
CIRCLE
  5
14B
330
1E
100
AcDbEntity
  8
DAMAN
100
AcDbCircle
 10
7.84375
 20
7.71825
 30
0.0
 40
0.1875
  0
INSERT
  5
14C
330
1E
100
AcDbEntity
  8
DAMAN
100
AcDbBlockReference
  2
100CROSS
 10
5.656749999999999
 20
8.187749999999999
 30
0.0
 41
0.5150000000000001
 42
0.5150000000000001
 43
0.5
  0
CIRCLE
  5
14D
330
1E
100
AcDbEntity
  8
DAMAN
100
AcDbCircle
 10
5.656749999999999
 20
8.187749999999999
 30
0.0
 40
0.25
  0
INSERT
  5
14E
330
1E
100
AcDbEntity
  8
DAMAN
100
AcDbBlockReference
  2
100CROSS
 10
7.906749999999999
 20
9.125249999999999
 30
0.0
 41
0.5150000000000001
 42
0.5150000000000001
 43
0.5
  0
CIRCLE
  5
14F
330
1E
100
AcDbEntity
  8
DAMAN
100
AcDbCircle
 10
7.906749999999999
 20
9.125249999999999
 30
0.0
 40
0.25
  0
INSERT
  5
150
330
1E
100
AcDbEntity
  8
DAMAN
100
AcDbBlockReference
  2
100CROSS
 10
7.906749999999999
 20
11.00025
 30
0.0
 41
0.5150000000000001
 42
0.5150000000000001
 43
0.5
  0
CIRCLE
  5
151
330
1E
100
AcDbEntity
  8
DAMAN
100
AcDbCircle
 10
7.906749999999999
 20
11.00025
 30
0.0
 40
0.25
  0
ENDSEC
  0
SECTION
  2
OBJECTS
  0
DICTIONARY
  5
C
330
0
100
AcDbDictionary
  3
ACAD_GROUP
350
D
  3
ACAD_LAYOUT
350
19
  3
ACAD_MLINESTYLE
350
16
  3
ACAD_PLOTSETTINGS
350
18
  3
ACAD_PLOTSTYLENAME
350
E
  3
ACDBHEADERROUNDTRIPXREC
350
153
  0
DICTIONARY
  5
175
330
1E
100
AcDbDictionary
280
     1
  3
ACAD_LAYOUTSELFREF
360
176
  0
DICTIONARY
  5
173
330
1A
100
AcDbDictionary
280
     1
  3
ACAD_LAYOUTSELFREF
360
174
  0
DICTIONARY
  5
D
102
{ACAD_REACTORS
330
C
102
}
330
C
100
AcDbDictionary
  0
DICTIONARY
  5
19
102
{ACAD_REACTORS
330
C
102
}
330
C
100
AcDbDictionary
  0
DICTIONARY
  5
16
102
{ACAD_REACTORS
330
C
102
}
330
C
100
AcDbDictionary
  3
STANDARD
350
17
  0
DICTIONARY
  5
18
102
{ACAD_REACTORS
330
C
102
}
330
C
100
AcDbDictionary
  0
ACDBDICTIONARYWDFLT
  5
E
102
{ACAD_REACTORS
330
C
102
}
330
C
100
AcDbDictionary
281
     1
  3
Normal
350
F
100
AcDbDictionaryWithDefault
340
F
  0
DICTIONARY
  5
153
102
{ACAD_REACTORS
330
C
102
}
330
C
100
AcDbDictionary
  3
CEPSNTYPE
350
15D
  3
FINGERPRINTGUID
350
15E
  3
HYPERLINKBASE
350
156
  3
INSUNITS
350
15C
  3
LAYOUTDICT
350
158
  3
LWETCUNION
350
15B
  3
PLOTSETDICT
350
159
  3
PLOTSTYLNAMDICT
350
15A
  3
PSVPSCALE
350
160
  3
PUCSBASE
350
163
  3
PUCSORGBACK
350
169
  3
PUCSORGBOTTOM
350
165
  3
PUCSORGFRONT
350
168
  3
PUCSORGLEFT
350
166
  3
PUCSORGRIGHT
350
167
  3
PUCSORGTOP
350
164
  3
PUCSORTHOREF
350
161
  3
PUCSORTHOVIEW
350
162
  3
STYLESHEET
350
157
  3
TSTACKALIGN
350
154
  3
TSTACKSIZE
350
155
  3
UCSBASE
350
16C
  3
UCSORGBACK
350
172
  3
UCSORGBOTTOM
350
16E
  3
UCSORGFRONT
350
171
  3
UCSORGLEFT
350
16F
  3
UCSORGRIGHT
350
170
  3
UCSORGTOP
350
16D
  3
UCSORTHOREF
350
16A
  3
UCSORTHOVIEW
350
16B
  3
VERSIONGUID
350
15F
  0
XRECORD
  5
176
102
{ACAD_REACTORS
330
175
102
}
330
175
100
AcDbXrecord
340
1E
  0
XRECORD
  5
174
102
{ACAD_REACTORS
330
173
102
}
330
173
100
AcDbXrecord
340
1A
  0
MLINESTYLE
  5
17
102
{ACAD_REACTORS
330
16
102
}
330
16
100
AcDbMlineStyle
  2
STANDARD
 70
     0
  3

 62
   256
 51
90.0
 52
90.0
 71
     2
 49
0.5
 62
   256
  6
BYLAYER
 49
-0.5
 62
   256
  6
BYLAYER
  0
ACDBPLACEHOLDER
  5
F
102
{ACAD_REACTORS
330
E
102
}
330
E
100
AcDbPlaceHolder
280
     0
  0
XRECORD
  5
15D
102
{ACAD_REACTORS
330
153
102
}
330
153
100
AcDbXrecord
 90
        0
  0
XRECORD
  5
15E
102
{ACAD_REACTORS
330
153
102
}
330
153
100
AcDbXrecord
  1
{E38447B9-F616-4080-9627-B7311BA90A72}
  0
XRECORD
  5
156
102
{ACAD_REACTORS
330
153
102
}
330
153
100
AcDbXrecord
  1

  0
XRECORD
  5
15C
102
{ACAD_REACTORS
330
153
102
}
330
153
100
AcDbXrecord
 90
        0
  0
XRECORD
  5
158
102
{ACAD_REACTORS
330
153
102
}
330
153
100
AcDbXrecord
340
19
  0
XRECORD
  5
15B
102
{ACAD_REACTORS
330
153
102
}
330
153
100
AcDbXrecord
 90
    10781
  0
XRECORD
  5
159
102
{ACAD_REACTORS
330
153
102
}
330
153
100
AcDbXrecord
340
18
  0
XRECORD
  5
15A
102
{ACAD_REACTORS
330
153
102
}
330
153
100
AcDbXrecord
340
E
  0
XRECORD
  5
160
102
{ACAD_REACTORS
330
153
102
}
330
153
100
AcDbXrecord
 40
0.0
  0
XRECORD
  5
163
102
{ACAD_REACTORS
330
153
102
}
330
153
100
AcDbXrecord
340
0
  0
XRECORD
  5
169
102
{ACAD_REACTORS
330
153
102
}
330
153
100
AcDbXrecord
 10
0.0
 20
0.0
 30
0.0
  0
XRECORD
  5
165
102
{ACAD_REACTORS
330
153
102
}
330
153
100
AcDbXrecord
 10
0.0
 20
0.0
 30
0.0
  0
XRECORD
  5
168
102
{ACAD_REACTORS
330
153
102
}
330
153
100
AcDbXrecord
 10
0.0
 20
0.0
 30
0.0
  0
XRECORD
  5
166
102
{ACAD_REACTORS
330
153
102
}
330
153
100
AcDbXrecord
 10
0.0
 20
0.0
 30
0.0
  0
XRECORD
  5
167
102
{ACAD_REACTORS
330
153
102
}
330
153
100
AcDbXrecord
 10
0.0
 20
0.0
 30
0.0
  0
XRECORD
  5
164
102
{ACAD_REACTORS
330
153
102
}
330
153
100
AcDbXrecord
 10
0.0
 20
0.0
 30
0.0
  0
XRECORD
  5
161
102
{ACAD_REACTORS
330
153
102
}
330
153
100
AcDbXrecord
340
0
  0
XRECORD
  5
162
102
{ACAD_REACTORS
330
153
102
}
330
153
100
AcDbXrecord
 70
     0
  0
XRECORD
  5
157
102
{ACAD_REACTORS
330
153
102
}
330
153
100
AcDbXrecord
  1

  0
XRECORD
  5
154
102
{ACAD_REACTORS
330
153
102
}
330
153
100
AcDbXrecord
 90
        1
  0
XRECORD
  5
155
102
{ACAD_REACTORS
330
153
102
}
330
153
100
AcDbXrecord
 90
       70
  0
XRECORD
  5
16C
102
{ACAD_REACTORS
330
153
102
}
330
153
100
AcDbXrecord
340
0
  0
XRECORD
  5
172
102
{ACAD_REACTORS
330
153
102
}
330
153
100
AcDbXrecord
 10
0.0
 20
0.0
 30
0.0
  0
XRECORD
  5
16E
102
{ACAD_REACTORS
330
153
102
}
330
153
100
AcDbXrecord
 10
0.0
 20
0.0
 30
0.0
  0
XRECORD
  5
171
102
{ACAD_REACTORS
330
153
102
}
330
153
100
AcDbXrecord
 10
0.0
 20
0.0
 30
0.0
  0
XRECORD
  5
16F
102
{ACAD_REACTORS
330
153
102
}
330
153
100
AcDbXrecord
 10
0.0
 20
0.0
 30
0.0
  0
XRECORD
  5
170
102
{ACAD_REACTORS
330
153
102
}
330
153
100
AcDbXrecord
 10
0.0
 20
0.0
 30
0.0
  0
XRECORD
  5
16D
102
{ACAD_REACTORS
330
153
102
}
330
153
100
AcDbXrecord
 10
0.0
 20
0.0
 30
0.0
  0
XRECORD
  5
16A
102
{ACAD_REACTORS
330
153
102
}
330
153
100
AcDbXrecord
340
0
  0
XRECORD
  5
16B
102
{ACAD_REACTORS
330
153
102
}
330
153
100
AcDbXrecord
 70
     0
  0
XRECORD
  5
15F
102
{ACAD_REACTORS
330
153
102
}
330
153
100
AcDbXrecord
  1
{FD169DB3-B9FE-4144-B5DE-343C31A94080}
  0
ENDSEC
  0
EOF
