  0
SECTION
  2
HEADER
  9
$ACADVER
  1
AC1009
  9
$INSBASE
 10
0.0
 20
0.0
 30
0.0
  9
$EXTMIN
 10
4.40625
 20
4.180725
 30
0.0
  9
$EXTMAX
 10
21.74375
 20
16.194275
 30
0.0
  9
$LIMMIN
 10
0.0
 20
0.0
  9
$LIMMAX
 10
12.0
 20
9.0
  9
$ORTHOMODE
 70
     1
  9
$REGENMODE
 70
     1
  9
$FILLMODE
 70
     1
  9
$QTEXTMODE
 70
     0
  9
$MIRRTEXT
 70
     1
  9
$DRAGMODE
 70
     2
  9
$LTSCALE
 40
1.0
  9
$OSMODE
 70
     0
  9
$ATTMODE
 70
     1
  9
$TEXTSIZE
 40
0.188
  9
$TRACEWID
 40
0.05
  9
$TEXTSTYLE
  7
STANDARD
  9
$CLAYER
  8
DAMAN
  9
$CELTYPE
  6
BYLAYER
  9
$CECOLOR
 62
   256
  9
$DIMSCALE
 40
1.0
  9
$DIMASZ
 40
0.18
  9
$DIMEXO
 40
0.0625
  9
$DIMDLI
 40
0.38
  9
$DIMRND
 40
0.0
  9
$DIMDLE
 40
0.0
  9
$DIMEXE
 40
0.18
  9
$DIMTP
 40
0.0
  9
$DIMTM
 40
0.0
  9
$DIMTXT
 40
0.18
  9
$DIMCEN
 40
0.09
  9
$DIMTSZ
 40
0.0
  9
$DIMTOL
 70
     0
  9
$DIMLIM
 70
     0
  9
$DIMTIH
 70
     1
  9
$DIMTOH
 70
     1
  9
$DIMSE1
 70
     0
  9
$DIMSE2
 70
     0
  9
$DIMTAD
 70
     0
  9
$DIMZIN
 70
     0
  9
$DIMBLK
  1

  9
$DIMASO
 70
     1
  9
$DIMSHO
 70
     1
  9
$DIMPOST
  1

  9
$DIMAPOST
  1

  9
$DIMALT
 70
     0
  9
$DIMALTD
 70
     2
  9
$DIMALTF
 40
25.4
  9
$DIMLFAC
 40
1.0
  9
$DIMTOFL
 70
     0
  9
$DIMTVP
 40
0.0
  9
$DIMTIX
 70
     0
  9
$DIMSOXD
 70
     0
  9
$DIMSAH
 70
     0
  9
$DIMBLK1
  1

  9
$DIMBLK2
  1

  9
$DIMSTYLE
  2
*UNNAMED
  9
$DIMCLRD
 70
     0
  9
$DIMCLRE
 70
     0
  9
$DIMCLRT
 70
     0
  9
$DIMTFAC
 40
1.0
  9
$DIMGAP
 40
0.09
  9
$LUNITS
 70
     2
  9
$LUPREC
 70
     4
  9
$SKETCHINC
 40
0.1
  9
$FILLETRAD
 40
0.0
  9
$AUNITS
 70
     0
  9
$AUPREC
 70
     0
  9
$MENU
  1
tom
  9
$ELEVATION
 40
0.0
  9
$PELEVATION
 40
0.0
  9
$THICKNESS
 40
0.0
  9
$LIMCHECK
 70
     0
  9
$BLIPMODE
 70
     1
  9
$CHAMFERA
 40
0.0
  9
$CHAMFERB
 40
0.0
  9
$SKPOLY
 70
     0
  9
$TDCREATE
 40
2449738.544535208
  9
$TDUPDATE
 40
2449738.544535208
  9
$TDINDWG
 40
0.0000000000
  9
$TDUSRTIMER
 40
0.0000000000
  9
$USRTIMER
 70
     1
  9
$ANGBASE
 50
0.0
  9
$ANGDIR
 70
     0
  9
$PDMODE
 70
     0
  9
$PDSIZE
 40
0.0
  9
$PLINEWID
 40
0.0
  9
$COORDS
 70
     1
  9
$SPLFRAME
 70
     0
  9
$SPLINETYPE
 70
     6
  9
$SPLINESEGS
 70
     8
  9
$ATTDIA
 70
     0
  9
$ATTREQ
 70
     1
  9
$HANDLING
 70
     0
  9
$HANDSEED
  5
0
  9
$SURFTAB1
 70
     6
  9
$SURFTAB2
 70
     6
  9
$SURFTYPE
 70
     6
  9
$SURFU
 70
     6
  9
$SURFV
 70
     6
  9
$UCSNAME
  2

  9
$UCSORG
 10
0.0
 20
0.0
 30
0.0
  9
$UCSXDIR
 10
1.0
 20
0.0
 30
0.0
  9
$UCSYDIR
 10
0.0
 20
1.0
 30
0.0
  9
$PUCSNAME
  2

  9
$PUCSORG
 10
0.0
 20
0.0
 30
0.0
  9
$PUCSXDIR
 10
1.0
 20
0.0
 30
0.0
  9
$PUCSYDIR
 10
0.0
 20
1.0
 30
0.0
  9
$USERI1
 70
     0
  9
$USERI2
 70
     0
  9
$USERI3
 70
     0
  9
$USERI4
 70
     0
  9
$USERI5
 70
     0
  9
$USERR1
 40
0.0
  9
$USERR2
 40
0.0
  9
$USERR3
 40
0.0
  9
$USERR4
 40
0.0
  9
$USERR5
 40
0.0
  9
$WORLDVIEW
 70
     1
  9
$SHADEDGE
 70
     3
  9
$SHADEDIF
 70
    70
  9
$TILEMODE
 70
     1
  9
$MAXACTVP
 70
    16
  9
$PINSBASE
 10
0.0
 20
0.0
 30
0.0
  9
$PLIMCHECK
 70
     0
  9
$PEXTMIN
 10
1.000000E+20
 20
1.000000E+20
 30
1.000000E+20
  9
$PEXTMAX
 10
-1.000000E+20
 20
-1.000000E+20
 30
-1.000000E+20
  9
$PLIMMIN
 10
0.0
 20
0.0
  9
$PLIMMAX
 10
12.0
 20
9.0
  9
$UNITMODE
 70
     0
  9
$VISRETAIN
 70
     0
  9
$PLINEGEN
 70
     0
  9
$PSLTSCALE
 70
     1
  9
$TREEDEPTH
 70
  3020
  9
$DWGCODEPAGE
  3
ascii
  0
ENDSEC
  0
SECTION
  2
TABLES
  0
TABLE
  2
VPORT
 70
     2
  0
VPORT
  2
*ACTIVE
 70
     0
 10
0.0
 20
0.0
 11
1.0
 21
1.0
 12
9.34375
 22
10.21875
 13
0.0
 23
0.0
 14
0.03125
 24
0.03125
 15
0.0
 25
0.0
 16
0.0
 26
0.0
 36
1.0
 17
0.0
 27
0.0
 37
0.0
 40
16.194275
 41
1.365662
 42
50.0
 43
0.0
 44
0.0
 50
0.0
 51
0.0
 71
     0
 72
   100
 73
     1
 74
     1
 75
     1
 76
     0
 77
     0
 78
     0
  0
ENDTAB
  0
TABLE
  2
LTYPE
 70
     3
  0
LTYPE
  2
CONTINUOUS
 70
    64
  3
Solid line
 72
    65
 73
     0
 40
0.0
  0
LTYPE
  2
HIDDEN
 70
    64
  3
_ _ _ _ _ _ _ _ _ _ _ _ _ _ _ _ _ _ _ _ _ _ _
 72
    65
 73
     2
 40
0.375
 49
0.25
 49
-0.125
  0
LTYPE
  2
CENTER
 70
    64
  3
____ _ ____ _ ____ _ ____ _ ____ _ ____ _ ____
 72
    65
 73
     4
 40
2.0
 49
1.25
 49
-0.25
 49
0.25
 49
-0.25
  0
ENDTAB
  0
TABLE
  2
LAYER
 70
     8
  0
LAYER
  2
0
 70
     0
 62
     7
  6
CONTINUOUS
  0
LAYER
  2
DAMAN
 70
     0
 62
     5
  6
CONTINUOUS
  0
LAYER
  2
BORDER
 70
    64
 62
     7
  6
CONTINUOUS
  0
LAYER
  2
CSOLID
 70
    64
 62
     3
  6
CONTINUOUS
  0
LAYER
  2
CHIDDEN
 70
    64
 62
     3
  6
HIDDEN
  0
LAYER
  2
CDIM
 70
    64
 62
     2
  6
CONTINUOUS
  0
LAYER
  2
CENTER
 70
    64
 62
     4
  6
CENTER
  0
LAYER
  2
CCENTER
 70
    64
 62
     4
  6
CENTER
  0
ENDTAB
  0
TABLE
  2
STYLE
 70
     2
  0
STYLE
  2
STANDARD
 70
    64
 40
0.0
 41
1.0
 50
0.0
 71
     0
 42
0.188
  3
txt
  4

  0
STYLE
  2
STR
 70
    64
 40
0.0
 41
1.0
 50
0.0
 71
     0
 42
0.25
  3
SIMPLEX
  4

  0
ENDTAB
  0
TABLE
  2
VIEW
 70
     0
  0
ENDTAB
  0
TABLE
  2
UCS
 70
     0
  0
ENDTAB
  0
TABLE
  2
APPID
 70
     1
  0
APPID
  2
ACAD
 70
    64
  0
ENDTAB
  0
TABLE
  2
DIMSTYLE
 70
     0
  0
ENDTAB
  0
ENDSEC
  0
SECTION
  2
BLOCKS
  0
BLOCK
  8
0
  2
D08TPPT
 70
    64
 10
0.0
 20
0.0
 30
0.0
  3
D08TPPT
  0
POLYLINE
  8
BORDER
 66
     1
 10
0.0
 20
0.0
 30
0.0
 70
     1
  0
VERTEX
  8
BORDER
 10
11.625
 20
5.5
 30
0.0
  0
VERTEX
  8
BORDER
 10
11.625
 20
11.5
 30
0.0
  0
VERTEX
  8
BORDER
 10
12.625
 20
11.5
 30
0.0
  0
VERTEX
  8
BORDER
 10
12.625
 20
5.5
 30
0.0
  0
SEQEND
  8
BORDER
  0
POLYLINE
  8
BORDER
 66
     1
 10
0.0
 20
0.0
 30
0.0
 70
     1
  0
VERTEX
  8
BORDER
 10
5.5
 20
5.5
 30
0.0
  0
VERTEX
  8
BORDER
 10
5.5
 20
11.5
 30
0.0
  0
VERTEX
  8
BORDER
 10
10.0
 20
11.5
 30
0.0
  0
VERTEX
  8
BORDER
 10
10.0
 20
5.5
 30
0.0
  0
SEQEND
  8
BORDER
  0
POLYLINE
  8
BORDER
 66
     1
 10
0.0
 20
0.0
 30
0.0
 70
     1
  0
VERTEX
  8
BORDER
 10
15.5
 20
5.5
 30
0.0
  0
VERTEX
  8
BORDER
 10
15.5
 20
11.5
 30
0.0
  0
VERTEX
  8
BORDER
 10
20.0
 20
11.5
 30
0.0
  0
VERTEX
  8
BORDER
 10
20.0
 20
5.5
 30
0.0
  0
SEQEND
  8
BORDER
  0
POLYLINE
  8
BORDER
 66
     1
 10
0.0
 20
0.0
 30
0.0
 70
     1
  0
VERTEX
  8
BORDER
 10
5.5
 20
3.0
 30
0.0
  0
VERTEX
  8
BORDER
 10
5.5
 20
4.0
 30
0.0
  0
VERTEX
  8
BORDER
 10
10.0
 20
4.0
 30
0.0
  0
VERTEX
  8
BORDER
 10
10.0
 20
3.0
 30
0.0
  0
SEQEND
  8
BORDER
  0
POLYLINE
  8
BORDER
 66
     1
 10
0.0
 20
0.0
 30
0.0
 70
     1
  0
VERTEX
  8
BORDER
 10
5.5
 20
13.0
 30
0.0
  0
VERTEX
  8
BORDER
 10
5.5
 20
14.0
 30
0.0
  0
VERTEX
  8
BORDER
 10
10.0
 20
14.0
 30
0.0
  0
VERTEX
  8
BORDER
 10
10.0
 20
13.0
 30
0.0
  0
SEQEND
  8
BORDER
  0
INSERT
  8
BORDER
  2
D06SFACE
 10
19.5625
 20
11.0625
 30
0.0
  0
INSERT
  8
CCENTER
  2
100CROSS
 10
9.5625
 20
5.9375
 30
0.0
 41
0.6
 42
0.6
 43
0.6
  0
INSERT
  8
CCENTER
  2
100CROSS
 10
9.5625
 20
8.96875
 30
0.0
 41
0.6
 42
0.6
 43
0.6
  0
INSERT
  8
CCENTER
  2
100CROSS
 10
5.9375
 20
8.03125
 30
0.0
 41
0.6
 42
0.6
 43
0.6
  0
INSERT
  8
CCENTER
  2
100CROSS
 10
9.5625
 20
11.0625
 30
0.0
 41
0.6
 42
0.6
 43
0.6
  0
INSERT
  8
CCENTER
  2
100CROSS
 10
5.9375
 20
5.9375
 30
0.0
 41
0.6
 42
0.6
 43
0.6
  0
INSERT
  8
CCENTER
  2
100CROSS
 10
5.9375
 20
11.0625
 30
0.0
 41
0.6
 42
0.6
 43
0.6
  0
INSERT
  8
CCENTER
  2
100CROSS
 10
5.9375
 20
9.90625
 30
0.0
 41
0.25
 42
0.25
 43
0.0
  0
INSERT
  8
CCENTER
  2
100CROSS
 10
9.7495
 20
7.34425
 30
0.0
 41
0.25
 42
0.25
 43
0.0
  0
INSERT
  8
CCENTER
  2
100CROSS
 10
6.625
 20
7.09375
 30
0.0
 41
0.824
 42
0.824
 43
0.0
  0
INSERT
  8
CCENTER
  2
100CROSS
 10
8.8125
 20
6.625
 30
0.0
 41
0.525
 42
0.525
 43
0.0
  0
INSERT
  8
CCENTER
  2
100CROSS
 10
8.875
 20
9.90625
 30
0.0
 41
0.824
 42
0.824
 43
0.0
  0
INSERT
  8
CCENTER
  2
100CROSS
 10
6.625
 20
8.96875
 30
0.0
 41
0.824
 42
0.824
 43
0.0
  0
INSERT
  8
CCENTER
  2
100CROSS
 10
6.6875
 20
10.375
 30
0.0
 41
0.525
 42
0.525
 43
0.0
  0
CIRCLE
  8
CSOLID
 10
8.8125
 20
6.6245
 30
0.0
 40
0.219
  0
CIRCLE
  8
CSOLID
 10
6.6875
 20
10.3745
 30
0.0
 40
0.219
  0
CIRCLE
  8
CSOLID
 10
9.7495
 20
7.34425
 30
0.0
 40
0.1405
  0
CIRCLE
  8
CSOLID
 10
5.9375
 20
9.90625
 30
0.0
 40
0.1405
  0
CIRCLE
  8
CSOLID
 10
8.8755
 20
9.9065
 30
0.0
 40
0.453
  0
CIRCLE
  8
CSOLID
 10
8.8755
 20
8.0315
 30
0.0
 40
0.453
  0
CIRCLE
  8
CSOLID
 10
6.6255
 20
8.969
 30
0.0
 40
0.453
  0
CIRCLE
  8
CSOLID
 10
6.6255
 20
7.094
 30
0.0
 40
0.453
  0
CIRCLE
  8
CSOLID
 10
5.9375
 20
11.0625
 30
0.0
 40
0.2655
  0
CIRCLE
  8
CSOLID
 10
5.9375
 20
5.9375
 30
0.0
 40
0.2655
  0
CIRCLE
  8
CSOLID
 10
9.5625
 20
11.0625
 30
0.0
 40
0.2655
  0
CIRCLE
  8
CSOLID
 10
9.5625
 20
5.9375
 30
0.0
 40
0.2655
  0
CIRCLE
  8
CSOLID
 10
9.5625
 20
8.96875
 30
0.0
 40
0.2655
  0
CIRCLE
  8
CSOLID
 10
5.9375
 20
8.03125
 30
0.0
 40
0.2655
  0
INSERT
  8
CENTER
  2
044SAET
 10
7.75
 20
3.5
 30
0.0
  0
INSERT
  8
CENTER
  2
044SAET
 10
8.875
 20
13.5
 30
0.0
  0
INSERT
  8
CCENTER
  2
100CROSS
 10
8.875
 20
8.03125
 30
0.0
 41
0.824
 42
0.824
 43
0.0
  0
TEXT
  8
CDIM
 10
8.3125
 20
3.6875
 30
0.0
 40
0.25
  1
P
  7
STR
  0
TEXT
  8
CDIM
 10
8.34375
 20
13.375
 30
0.0
 40
0.25
  1
T
 50
180.0
  7
STR
  0
LINE
  8
CDIM
 10
5.5
 20
12.873306
 30
0.0
 11
5.5
 21
12.215363
 31
0.0
  0
LINE
  8
CDIM
 10
8.875
 20
13.185806
 30
0.0
 11
8.875
 21
12.215363
 31
0.0
  0
LINE
  8
CDIM
 10
5.753388
 20
12.46875
 30
0.0
 11
6.501665
 21
12.46875
 31
0.0
  0
LINE
  8
CDIM
 10
8.621612
 20
12.46875
 30
0.0
 11
7.873336
 21
12.46875
 31
0.0
  0
SOLID
  8
CDIM
 10
5.753388
 20
12.426519
 30
0.0
 11
5.753388
 21
12.510981
 31
0.0
 12
5.5
 22
12.46875
 32
0.0
 13
5.5
 23
12.46875
 33
0.0
  0
SOLID
  8
CDIM
 10
8.621612
 20
12.426519
 30
0.0
 11
8.621612
 21
12.510981
 31
0.0
 12
8.875
 22
12.46875
 32
0.0
 13
8.875
 23
12.46875
 33
0.0
  0
TEXT
  8
CDIM
 10
6.755052
 20
12.326853
 30
0.0
 40
0.283794
  1
3.38
  7
STR
  0
LINE
  8
CDIM
 10
5.373306
 20
14.0
 30
0.0
 11
4.621613
 21
14.0
 31
0.0
  0
LINE
  8
CDIM
 10
8.529556
 20
13.5
 30
0.0
 11
4.621613
 21
13.5
 31
0.0
  0
LINE
  8
CDIM
 10
4.875
 20
13.246612
 30
0.0
 11
4.875
 21
12.993225
 31
0.0
  0
LINE
  8
CDIM
 10
4.875
 20
14.253388
 30
0.0
 11
4.875
 21
14.506775
 31
0.0
  0
SOLID
  8
CDIM
 10
4.917231
 20
13.246612
 30
0.0
 11
4.832769
 21
13.246612
 31
0.0
 12
4.875
 22
13.5
 32
0.0
 13
4.875
 23
13.5
 33
0.0
  0
SOLID
  8
CDIM
 10
4.917231
 20
14.253388
 30
0.0
 11
4.832769
 21
14.253388
 31
0.0
 12
4.875
 22
14.0
 32
0.0
 13
4.875
 23
14.0
 33
0.0
  0
TEXT
  8
CDIM
 10
4.409579
 20
12.632578
 30
0.0
 40
0.283794
  1
0.50
  7
STR
  0
LINE
  8
CDIM
 10
5.5
 20
4.126694
 30
0.0
 11
5.5
 21
4.784638
 31
0.0
  0
LINE
  8
CDIM
 10
7.75
 20
3.845444
 30
0.0
 11
7.75
 21
4.784638
 31
0.0
  0
LINE
  8
CDIM
 10
5.753388
 20
4.53125
 30
0.0
 11
5.939164
 21
4.53125
 31
0.0
  0
LINE
  8
CDIM
 10
7.496612
 20
4.53125
 30
0.0
 11
7.310835
 21
4.53125
 31
0.0
  0
SOLID
  8
CDIM
 10
5.753388
 20
4.489019
 30
0.0
 11
5.753388
 21
4.573481
 31
0.0
 12
5.5
 22
4.53125
 32
0.0
 13
5.5
 23
4.53125
 33
0.0
  0
SOLID
  8
CDIM
 10
7.496612
 20
4.489019
 30
0.0
 11
7.496612
 21
4.573481
 31
0.0
 12
7.75
 22
4.53125
 32
0.0
 13
7.75
 23
4.53125
 33
0.0
  0
TEXT
  8
CDIM
 10
6.192552
 20
4.389353
 30
0.0
 40
0.283794
  1
2.25
  7
STR
  0
LINE
  8
CDIM
 10
5.373306
 20
3.0
 30
0.0
 11
4.621613
 21
3.0
 31
0.0
  0
LINE
  8
CDIM
 10
7.404556
 20
3.5
 30
0.0
 11
4.621613
 21
3.5
 31
0.0
  0
LINE
  8
CDIM
 10
4.875
 20
3.753387
 30
0.0
 11
4.875
 21
4.006775
 31
0.0
  0
LINE
  8
CDIM
 10
4.875
 20
2.746613
 30
0.0
 11
4.875
 21
2.493225
 31
0.0
  0
SOLID
  8
CDIM
 10
4.917231
 20
3.753387
 30
0.0
 11
4.832769
 21
3.753387
 31
0.0
 12
4.875
 22
3.5
 32
0.0
 13
4.875
 23
3.5
 33
0.0
  0
SOLID
  8
CDIM
 10
4.917231
 20
2.746613
 30
0.0
 11
4.832769
 21
2.746613
 31
0.0
 12
4.875
 22
3.0
 32
0.0
 13
4.875
 23
3.0
 33
0.0
  0
TEXT
  8
CDIM
 10
4.444275
 20
4.146128
 30
0.0
 40
0.283794
  1
0.50
  7
STR
  0
LINE
  8
CDIM
 10
11.625
 20
11.626694
 30
0.0
 11
11.625
 21
12.284638
 31
0.0
  0
LINE
  8
CDIM
 10
12.625
 20
11.626694
 30
0.0
 11
12.625
 21
12.284638
 31
0.0
  0
LINE
  8
CDIM
 10
12.878388
 20
12.03125
 30
0.0
 11
13.131775
 21
12.03125
 31
0.0
  0
LINE
  8
CDIM
 10
11.371613
 20
12.03125
 30
0.0
 11
11.118225
 21
12.03125
 31
0.0
  0
SOLID
  8
CDIM
 10
12.878388
 20
11.989019
 30
0.0
 11
12.878388
 21
12.073481
 31
0.0
 12
12.625
 22
12.03125
 32
0.0
 13
12.625
 23
12.03125
 33
0.0
  0
SOLID
  8
CDIM
 10
11.371613
 20
11.989019
 30
0.0
 11
11.371613
 21
12.073481
 31
0.0
 12
11.625
 22
12.03125
 32
0.0
 13
11.625
 23
12.03125
 33
0.0
  0
TEXT
  8
CDIM
 10
13.385163
 20
11.889353
 30
0.0
 40
0.283794
  1
1.00
  7
STR
  0
LINE
  8
CDIM
 10
20.0
 20
11.626694
 30
0.0
 11
20.0
 21
12.284638
 31
0.0
  0
LINE
  8
CDIM
 10
16.6245
 20
10.486194
 30
0.0
 11
16.6245
 21
12.284638
 31
0.0
  0
LINE
  8
CDIM
 10
19.746613
 20
12.03125
 30
0.0
 11
18.998086
 21
12.03125
 31
0.0
  0
LINE
  8
CDIM
 10
16.877888
 20
12.03125
 30
0.0
 11
17.626415
 21
12.03125
 31
0.0
  0
SOLID
  8
CDIM
 10
19.746613
 20
11.989019
 30
0.0
 11
19.746613
 21
12.073481
 31
0.0
 12
20.0
 22
12.03125
 32
0.0
 13
20.0
 23
12.03125
 33
0.0
  0
SOLID
  8
CDIM
 10
16.877888
 20
11.989019
 30
0.0
 11
16.877888
 21
12.073481
 31
0.0
 12
16.6245
 22
12.03125
 32
0.0
 13
16.6245
 23
12.03125
 33
0.0
  0
TEXT
  8
CDIM
 10
17.879802
 20
11.889353
 30
0.0
 40
0.283794
  1
3.38
  7
STR
  0
LINE
  8
CDIM
 10
20.0
 20
11.626694
 30
0.0
 11
20.0
 21
13.0448
 31
0.0
  0
LINE
  8
CDIM
 10
15.5
 20
11.626694
 30
0.0
 11
15.5
 21
13.0448
 31
0.0
  0
LINE
  8
CDIM
 10
19.746613
 20
12.791413
 30
0.0
 11
18.435836
 21
12.791413
 31
0.0
  0
LINE
  8
CDIM
 10
15.753388
 20
12.791413
 30
0.0
 11
17.064165
 21
12.791413
 31
0.0
  0
SOLID
  8
CDIM
 10
19.746613
 20
12.749181
 30
0.0
 11
19.746613
 21
12.833644
 31
0.0
 12
20.0
 22
12.791413
 32
0.0
 13
20.0
 23
12.791413
 33
0.0
  0
SOLID
  8
CDIM
 10
15.753388
 20
12.749181
 30
0.0
 11
15.753388
 21
12.833644
 31
0.0
 12
15.5
 22
12.791413
 32
0.0
 13
15.5
 23
12.791413
 33
0.0
  0
TEXT
  8
CDIM
 10
17.317552
 20
12.649516
 30
0.0
 40
0.283794
  1
4.50
  7
STR
  0
LINE
  8
CDIM
 10
15.373306
 20
11.5
 30
0.0
 11
14.621613
 21
11.5
 31
0.0
  0
LINE
  8
CDIM
 10
16.044806
 20
8.0315
 30
0.0
 11
14.621613
 21
8.0315
 31
0.0
  0
LINE
  8
CDIM
 10
14.875
 20
11.246613
 30
0.0
 11
14.875
 21
10.161034
 31
0.0
  0
LINE
  8
CDIM
 10
14.875
 20
8.284887
 30
0.0
 11
14.875
 21
9.370465
 31
0.0
  0
SOLID
  8
CDIM
 10
14.917231
 20
11.246613
 30
0.0
 11
14.832769
 21
11.246613
 31
0.0
 12
14.875
 22
11.5
 32
0.0
 13
14.875
 23
11.5
 33
0.0
  0
SOLID
  8
CDIM
 10
14.917231
 20
8.284887
 30
0.0
 11
14.832769
 21
8.284887
 31
0.0
 12
14.875
 22
8.0315
 32
0.0
 13
14.875
 23
8.0315
 33
0.0
  0
TEXT
  8
CDIM
 10
14.442552
 20
9.623853
 30
0.0
 40
0.283794
  1
3.47
  7
STR
  0
LINE
  8
CDIM
 10
15.373306
 20
11.5
 30
0.0
 11
13.86145
 21
11.5
 31
0.0
  0
LINE
  8
CDIM
 10
15.373306
 20
5.5
 30
0.0
 11
13.86145
 21
5.5
 31
0.0
  0
LINE
  8
CDIM
 10
14.114838
 20
11.246613
 30
0.0
 11
14.114838
 21
8.895285
 31
0.0
  0
LINE
  8
CDIM
 10
14.114838
 20
5.753388
 30
0.0
 11
14.114838
 21
8.104716
 31
0.0
  0
SOLID
  8
CDIM
 10
14.157069
 20
11.246613
 30
0.0
 11
14.072606
 21
11.246613
 31
0.0
 12
14.114838
 22
11.5
 32
0.0
 13
14.114838
 23
11.5
 33
0.0
  0
SOLID
  8
CDIM
 10
14.157069
 20
5.753388
 30
0.0
 11
14.072606
 21
5.753388
 31
0.0
 12
14.114838
 22
5.5
 32
0.0
 13
14.114838
 23
5.5
 33
0.0
  0
TEXT
  8
CDIM
 10
13.68239
 20
8.358103
 30
0.0
 40
0.283794
  1
6.00
  7
STR
  0
ENDBLK
  8
0
  0
BLOCK
  8
BORDER
  2
D06SFACE
 70
    64
 10
10.875
 20
6.0
 30
0.0
  0
INSERT
  8
CSOLID
  2
D06I
 10
10.875
 20
6.0
 30
0.0
 41
-1.0
 43
0.0
  0
ENDBLK
  8
BORDER
  0
BLOCK
  8
BORDER
  2
D06I
 70
    64
 10
5.9375
 20
11.0625
 30
0.0
  0
CIRCLE
  8
CSOLID
 10
6.625
 20
8.96875
 30
0.0
 40
0.656
  0
CIRCLE
  8
CSOLID
 10
8.875
 20
9.90625
 30
0.0
 40
0.656
  0
CIRCLE
  8
CSOLID
 10
8.875
 20
8.03125
 30
0.0
 40
0.656
  0
CIRCLE
  8
CSOLID
 10
6.625
 20
7.09375
 30
0.0
 40
0.656
  0
CIRCLE
  8
CSOLID
 10
8.8125
 20
6.625
 30
0.0
 40
0.5
  0
CIRCLE
  8
CSOLID
 10
6.6875
 20
10.375
 30
0.0
 40
0.5
  0
CIRCLE
  8
CSOLID
 10
5.9375
 20
8.03125
 30
0.0
 40
0.2655
  0
CIRCLE
  8
CSOLID
 10
9.5625
 20
8.96875
 30
0.0
 40
0.2655
  0
CIRCLE
  8
CSOLID
 10
9.5625
 20
5.9375
 30
0.0
 40
0.2655
  0
CIRCLE
  8
CSOLID
 10
9.5625
 20
11.0625
 30
0.0
 40
0.2655
  0
CIRCLE
  8
CSOLID
 10
5.9375
 20
5.9375
 30
0.0
 40
0.2655
  0
CIRCLE
  8
CSOLID
 10
5.9375
 20
11.0625
 30
0.0
 40
0.2655
  0
CIRCLE
  8
CSOLID
 10
6.6255
 20
7.094
 30
0.0
 40
0.453
  0
CIRCLE
  8
CSOLID
 10
6.6255
 20
8.969
 30
0.0
 40
0.453
  0
CIRCLE
  8
CSOLID
 10
8.8755
 20
8.0315
 30
0.0
 40
0.453
  0
CIRCLE
  8
CSOLID
 10
8.8755
 20
9.9065
 30
0.0
 40
0.453
  0
CIRCLE
  8
CSOLID
 10
5.9375
 20
9.90625
 30
0.0
 40
0.1405
  0
CIRCLE
  8
CSOLID
 10
9.7495
 20
7.34425
 30
0.0
 40
0.1405
  0
CIRCLE
  8
CSOLID
 10
6.6875
 20
10.3745
 30
0.0
 40
0.219
  0
CIRCLE
  8
CSOLID
 10
8.8125
 20
6.6245
 30
0.0
 40
0.219
  0
INSERT
  8
CCENTER
  2
100CROSS
 10
6.6875
 20
10.375
 30
0.0
 41
0.875
 42
0.875
 43
0.0
  0
INSERT
  8
CCENTER
  2
100CROSS
 10
6.625
 20
8.96875
 30
0.0
 41
1.03
 42
1.03
 43
0.0
  0
INSERT
  8
CCENTER
  2
100CROSS
 10
8.875
 20
9.90625
 30
0.0
 41
1.03
 42
1.03
 43
0.0
  0
INSERT
  8
CCENTER
  2
100CROSS
 10
8.875
 20
8.03125
 30
0.0
 41
1.03
 42
1.03
 43
0.0
  0
INSERT
  8
CCENTER
  2
100CROSS
 10
8.8125
 20
6.625
 30
0.0
 41
0.875
 42
0.875
 43
0.0
  0
INSERT
  8
CCENTER
  2
100CROSS
 10
6.625
 20
7.09375
 30
0.0
 41
1.03
 42
1.03
 43
0.0
  0
INSERT
  8
CCENTER
  2
100CROSS
 10
9.7495
 20
7.34425
 30
0.0
 41
0.25
 42
0.25
 43
0.0
  0
INSERT
  8
CCENTER
  2
100CROSS
 10
5.9375
 20
9.90625
 30
0.0
 41
0.25
 42
0.25
 43
0.0
  0
INSERT
  8
CCENTER
  2
100CROSS
 10
5.9375
 20
11.0625
 30
0.0
 41
0.8
 42
0.8
 43
0.8
  0
INSERT
  8
CCENTER
  2
100CROSS
 10
5.9375
 20
5.9375
 30
0.0
 41
0.8
 42
0.8
 43
0.8
  0
INSERT
  8
CCENTER
  2
100CROSS
 10
9.5625
 20
11.0625
 30
0.0
 41
0.8
 42
0.8
 43
0.8
  0
INSERT
  8
CCENTER
  2
100CROSS
 10
5.9375
 20
8.03125
 30
0.0
 41
0.8
 42
0.8
 43
0.8
  0
INSERT
  8
CCENTER
  2
100CROSS
 10
9.5625
 20
8.96875
 30
0.0
 41
0.8
 42
0.8
 43
0.8
  0
INSERT
  8
CCENTER
  2
100CROSS
 10
9.5625
 20
5.9375
 30
0.0
 41
0.8
 42
0.8
 43
0.8
  0
ENDBLK
  8
BORDER
  0
BLOCK
  8
CSOLID
  2
100CROSS
 70
    64
 10
5.625
 20
4.59375
 30
0.0
  0
INSERT
  8
0
  2
050CROSS
 10
5.625
 20
4.59375
 30
0.0
 43
0.0
  0
ENDBLK
  8
0
  0
BLOCK
  8
0
  2
050CROSS
 70
    64
 10
5.0
 20
5.0
 30
0.0
  0
LINE
  8
0
 10
5.0
 20
5.28125
 30
0.0
 11
5.0
 21
5.78125
 31
0.0
  0
LINE
  8
0
 10
5.0
 20
4.875
 30
0.0
 11
5.0
 21
5.125
 31
0.0
  0
LINE
  8
0
 10
5.0
 20
4.15625
 30
0.0
 11
5.0
 21
4.71875
 31
0.0
  0
LINE
  8
0
 10
5.25
 20
5.0
 30
0.0
 11
5.8125
 21
5.0
 31
0.0
  0
LINE
  8
0
 10
4.90625
 20
5.0
 30
0.0
 11
5.09375
 21
5.0
 31
0.0
  0
LINE
  8
0
 10
4.1875
 20
5.0
 30
0.0
 11
4.75
 21
5.0
 31
0.0
  0
ENDBLK
  8
0
  0
BLOCK
  8
CENTER
  2
044SAET
 70
    64
 10
6.375
 20
2.1875
 30
0.0
  0
CIRCLE
  8
CHIDDEN
 10
6.375
 20
2.1875
 30
0.0
 40
0.21875
  0
INSERT
  8
CCENTER
  2
100CROSS
 10
6.375
 20
2.1875
 30
0.0
 41
0.8
 42
0.8
 43
0.0
  0
CIRCLE
  8
CSOLID
 10
6.375
 20
2.1875
 30
0.0
 40
0.1875
  0
CIRCLE
  8
CSOLID
 10
6.375
 20
2.1875
 30
0.0
 40
0.4375
  0
ENDBLK
  8
CENTER
  0
ENDSEC
  0
SECTION
  2
ENTITIES
  0
POLYLINE
  8
DAMAN
 66
     1
 10
0.0
 20
0.0
 30
0.0
 70
     1
  0
VERTEX
  8
DAMAN
 10
13.15625
 20
7.1875
 30
0.0
  0
VERTEX
  8
DAMAN
 10
13.15625
 20
13.1875
 30
0.0
  0
VERTEX
  8
DAMAN
 10
14.15625
 20
13.1875
 30
0.0
  0
VERTEX
  8
DAMAN
 10
14.15625
 20
7.1875
 30
0.0
  0
SEQEND
  8
DAMAN
  0
POLYLINE
  8
DAMAN
 66
     1
 10
0.0
 20
0.0
 30
0.0
 70
     1
  0
VERTEX
  8
DAMAN
 10
7.03125
 20
7.1875
 30
0.0
  0
VERTEX
  8
DAMAN
 10
7.03125
 20
13.1875
 30
0.0
  0
VERTEX
  8
DAMAN
 10
11.53125
 20
13.1875
 30
0.0
  0
VERTEX
  8
DAMAN
 10
11.53125
 20
7.1875
 30
0.0
  0
SEQEND
  8
DAMAN
  0
POLYLINE
  8
DAMAN
 66
     1
 10
0.0
 20
0.0
 30
0.0
 70
     1
  0
VERTEX
  8
DAMAN
 10
7.03125
 20
4.6875
 30
0.0
  0
VERTEX
  8
DAMAN
 10
7.03125
 20
5.6875
 30
0.0
  0
VERTEX
  8
DAMAN
 10
11.53125
 20
5.6875
 30
0.0
  0
VERTEX
  8
DAMAN
 10
11.53125
 20
4.6875
 30
0.0
  0
SEQEND
  8
DAMAN
  0
POLYLINE
  8
DAMAN
 66
     1
 10
0.0
 20
0.0
 30
0.0
 70
     1
  0
VERTEX
  8
DAMAN
 10
7.03125
 20
14.6875
 30
0.0
  0
VERTEX
  8
DAMAN
 10
7.03125
 20
15.6875
 30
0.0
  0
VERTEX
  8
DAMAN
 10
11.53125
 20
15.6875
 30
0.0
  0
VERTEX
  8
DAMAN
 10
11.53125
 20
14.6875
 30
0.0
  0
SEQEND
  8
DAMAN
  0
INSERT
  8
DAMAN
  2
100CROSS
 10
11.09375
 20
7.625
 30
0.0
 41
0.6
 42
0.6
 43
0.6
  0
INSERT
  8
DAMAN
  2
100CROSS
 10
11.09375
 20
10.65625
 30
0.0
 41
0.6
 42
0.6
 43
0.6
  0
INSERT
  8
DAMAN
  2
100CROSS
 10
7.46875
 20
9.71875
 30
0.0
 41
0.6
 42
0.6
 43
0.6
  0
INSERT
  8
DAMAN
  2
100CROSS
 10
11.09375
 20
12.75
 30
0.0
 41
0.6
 42
0.6
 43
0.6
  0
INSERT
  8
DAMAN
  2
100CROSS
 10
7.46875
 20
7.625
 30
0.0
 41
0.6
 42
0.6
 43
0.6
  0
INSERT
  8
DAMAN
  2
100CROSS
 10
7.46875
 20
12.75
 30
0.0
 41
0.6
 42
0.6
 43
0.6
  0
INSERT
  8
DAMAN
  2
100CROSS
 10
7.46875
 20
11.59375
 30
0.0
 41
0.25
 42
0.25
 43
0.0
  0
INSERT
  8
DAMAN
  2
100CROSS
 10
11.28075
 20
9.03175
 30
0.0
 41
0.25
 42
0.25
 43
0.0
  0
INSERT
  8
DAMAN
  2
100CROSS
 10
8.15625
 20
8.78125
 30
0.0
 41
0.824
 42
0.824
 43
0.0
  0
INSERT
  8
DAMAN
  2
100CROSS
 10
10.34375
 20
8.3125
 30
0.0
 41
0.525
 42
0.525
 43
0.0
  0
INSERT
  8
DAMAN
  2
100CROSS
 10
10.40625
 20
11.59375
 30
0.0
 41
0.824
 42
0.824
 43
0.0
  0
INSERT
  8
DAMAN
  2
100CROSS
 10
8.15625
 20
10.65625
 30
0.0
 41
0.824
 42
0.824
 43
0.0
  0
INSERT
  8
DAMAN
  2
100CROSS
 10
8.21875
 20
12.0625
 30
0.0
 41
0.525
 42
0.525
 43
0.0
  0
CIRCLE
  8
DAMAN
 10
10.34375
 20
8.312
 30
0.0
 40
0.219
  0
CIRCLE
  8
DAMAN
 10
8.21875
 20
12.062
 30
0.0
 40
0.219
  0
CIRCLE
  8
DAMAN
 10
11.28075
 20
9.03175
 30
0.0
 40
0.1405
  0
CIRCLE
  8
DAMAN
 10
7.46875
 20
11.59375
 30
0.0
 40
0.1405
  0
CIRCLE
  8
DAMAN
 10
10.40675
 20
11.594
 30
0.0
 40
0.453
  0
CIRCLE
  8
DAMAN
 10
10.40675
 20
9.719
 30
0.0
 40
0.453
  0
CIRCLE
  8
DAMAN
 10
8.15675
 20
10.6565
 30
0.0
 40
0.453
  0
CIRCLE
  8
DAMAN
 10
8.15675
 20
8.7815
 30
0.0
 40
0.453
  0
CIRCLE
  8
DAMAN
 10
7.46875
 20
12.75
 30
0.0
 40
0.2655
  0
CIRCLE
  8
DAMAN
 10
7.46875
 20
7.625
 30
0.0
 40
0.2655
  0
CIRCLE
  8
DAMAN
 10
11.09375
 20
12.75
 30
0.0
 40
0.2655
  0
CIRCLE
  8
DAMAN
 10
11.09375
 20
7.625
 30
0.0
 40
0.2655
  0
CIRCLE
  8
DAMAN
 10
11.09375
 20
10.65625
 30
0.0
 40
0.2655
  0
CIRCLE
  8
DAMAN
 10
7.46875
 20
9.71875
 30
0.0
 40
0.2655
  0
INSERT
  8
DAMAN
  2
100CROSS
 10
10.40625
 20
9.71875
 30
0.0
 41
0.824
 42
0.824
 43
0.0
  0
TEXT
  8
DAMAN
 10
9.84375
 20
5.375
 30
0.0
 40
0.25
  1
P
  7
STR
  0
TEXT
  8
DAMAN
 10
9.875
 20
15.0625
 30
0.0
 40
0.25
  1
T
 50
180.0
  7
STR
  0
CIRCLE
  8
DAMAN
 10
9.28125
 20
5.1875
 30
0.0
 40
0.21875
  0
INSERT
  8
DAMAN
  2
100CROSS
 10
9.28125
 20
5.1875
 30
0.0
 41
0.8
 42
0.8
 43
0.0
  0
CIRCLE
  8
DAMAN
 10
9.28125
 20
5.1875
 30
0.0
 40
0.1875
  0
CIRCLE
  8
DAMAN
 10
9.28125
 20
5.1875
 30
0.0
 40
0.4375
  0
CIRCLE
  8
DAMAN
 10
10.40625
 20
15.1875
 30
0.0
 40
0.21875
  0
INSERT
  8
DAMAN
  2
100CROSS
 10
10.40625
 20
15.1875
 30
0.0
 41
0.8
 42
0.8
 43
0.0
  0
CIRCLE
  8
DAMAN
 10
10.40625
 20
15.1875
 30
0.0
 40
0.1875
  0
CIRCLE
  8
DAMAN
 10
10.40625
 20
15.1875
 30
0.0
 40
0.4375
  0
POLYLINE
  8
DAMAN
 66
     1
 10
0.0
 20
0.0
 30
0.0
 70
     1
  0
VERTEX
  8
DAMAN
 10
5.40625
 20
7.1875
 30
0.0
  0
VERTEX
  8
DAMAN
 10
5.40625
 20
13.1875
 30
0.0
  0
VERTEX
  8
DAMAN
 10
4.40625
 20
13.1875
 30
0.0
  0
VERTEX
  8
DAMAN
 10
4.40625
 20
7.1875
 30
0.0
  0
SEQEND
  8
DAMAN
  0
TEXT
  8
DAMAN
 10
13.375
 20
9.09375
 30
0.0
 40
0.188
  1
DAMAN ****
 50
90.0
  0
ENDSEC
  0
EOF
