  0
SECTION
  2
HEADER
  9
$ACADVER
  1
AC1009
  9
$INSBASE
 10
0.0
 20
0.0
 30
0.0
  9
$EXTMIN
 10
6.46875
 20
2.8125
 30
0.0
  9
$EXTMAX
 10
27.46875
 20
17.8125
 30
0.0
  9
$LIMMIN
 10
0.0
 20
0.0
  9
$LIMMAX
 10
12.0
 20
9.0
  9
$ORTHOMODE
 70
     1
  9
$REGENMODE
 70
     1
  9
$FILLMODE
 70
     1
  9
$QTEXTMODE
 70
     0
  9
$MIRRTEXT
 70
     1
  9
$DRAGMODE
 70
     2
  9
$LTSCALE
 40
1.0
  9
$OSMODE
 70
     0
  9
$ATTMODE
 70
     1
  9
$TEXTSIZE
 40
0.188
  9
$TRACEWID
 40
0.05
  9
$TEXTSTYLE
  7
STANDARD
  9
$CLAYER
  8
DAMAN
  9
$CELTYPE
  6
BYLAYER
  9
$CECOLOR
 62
   256
  9
$DIMSCALE
 40
1.0
  9
$DIMASZ
 40
0.18
  9
$DIMEXO
 40
0.0625
  9
$DIMDLI
 40
0.38
  9
$DIMRND
 40
0.0
  9
$DIMDLE
 40
0.0
  9
$DIMEXE
 40
0.18
  9
$DIMTP
 40
0.0
  9
$DIMTM
 40
0.0
  9
$DIMTXT
 40
0.18
  9
$DIMCEN
 40
0.09
  9
$DIMTSZ
 40
0.0
  9
$DIMTOL
 70
     0
  9
$DIMLIM
 70
     0
  9
$DIMTIH
 70
     1
  9
$DIMTOH
 70
     1
  9
$DIMSE1
 70
     0
  9
$DIMSE2
 70
     0
  9
$DIMTAD
 70
     0
  9
$DIMZIN
 70
     0
  9
$DIMBLK
  1

  9
$DIMASO
 70
     1
  9
$DIMSHO
 70
     1
  9
$DIMPOST
  1

  9
$DIMAPOST
  1

  9
$DIMALT
 70
     0
  9
$DIMALTD
 70
     2
  9
$DIMALTF
 40
25.4
  9
$DIMLFAC
 40
1.0
  9
$DIMTOFL
 70
     0
  9
$DIMTVP
 40
0.0
  9
$DIMTIX
 70
     0
  9
$DIMSOXD
 70
     0
  9
$DIMSAH
 70
     0
  9
$DIMBLK1
  1

  9
$DIMBLK2
  1

  9
$DIMSTYLE
  2
*UNNAMED
  9
$DIMCLRD
 70
     0
  9
$DIMCLRE
 70
     0
  9
$DIMCLRT
 70
     0
  9
$DIMTFAC
 40
1.0
  9
$DIMGAP
 40
0.09
  9
$LUNITS
 70
     2
  9
$LUPREC
 70
     4
  9
$SKETCHINC
 40
0.1
  9
$FILLETRAD
 40
0.0
  9
$AUNITS
 70
     0
  9
$AUPREC
 70
     0
  9
$MENU
  1
tom
  9
$ELEVATION
 40
0.0
  9
$PELEVATION
 40
0.0
  9
$THICKNESS
 40
0.0
  9
$LIMCHECK
 70
     0
  9
$BLIPMODE
 70
     1
  9
$CHAMFERA
 40
0.0
  9
$CHAMFERB
 40
0.0
  9
$SKPOLY
 70
     0
  9
$TDCREATE
 40
2449746.472285949
  9
$TDUPDATE
 40
2449746.472285949
  9
$TDINDWG
 40
0.0000000000
  9
$TDUSRTIMER
 40
0.0000000000
  9
$USRTIMER
 70
     1
  9
$ANGBASE
 50
0.0
  9
$ANGDIR
 70
     0
  9
$PDMODE
 70
     0
  9
$PDSIZE
 40
0.0
  9
$PLINEWID
 40
0.0
  9
$COORDS
 70
     1
  9
$SPLFRAME
 70
     0
  9
$SPLINETYPE
 70
     6
  9
$SPLINESEGS
 70
     8
  9
$ATTDIA
 70
     0
  9
$ATTREQ
 70
     1
  9
$HANDLING
 70
     0
  9
$HANDSEED
  5
0
  9
$SURFTAB1
 70
     6
  9
$SURFTAB2
 70
     6
  9
$SURFTYPE
 70
     6
  9
$SURFU
 70
     6
  9
$SURFV
 70
     6
  9
$UCSNAME
  2

  9
$UCSORG
 10
0.0
 20
0.0
 30
0.0
  9
$UCSXDIR
 10
1.0
 20
0.0
 30
0.0
  9
$UCSYDIR
 10
0.0
 20
1.0
 30
0.0
  9
$PUCSNAME
  2

  9
$PUCSORG
 10
0.0
 20
0.0
 30
0.0
  9
$PUCSXDIR
 10
1.0
 20
0.0
 30
0.0
  9
$PUCSYDIR
 10
0.0
 20
1.0
 30
0.0
  9
$USERI1
 70
     0
  9
$USERI2
 70
     0
  9
$USERI3
 70
     0
  9
$USERI4
 70
     0
  9
$USERI5
 70
     0
  9
$USERR1
 40
0.0
  9
$USERR2
 40
0.0
  9
$USERR3
 40
0.0
  9
$USERR4
 40
0.0
  9
$USERR5
 40
0.0
  9
$WORLDVIEW
 70
     1
  9
$SHADEDGE
 70
     3
  9
$SHADEDIF
 70
    70
  9
$TILEMODE
 70
     1
  9
$MAXACTVP
 70
    16
  9
$PINSBASE
 10
0.0
 20
0.0
 30
0.0
  9
$PLIMCHECK
 70
     0
  9
$PEXTMIN
 10
1.000000E+20
 20
1.000000E+20
 30
1.000000E+20
  9
$PEXTMAX
 10
-1.000000E+20
 20
-1.000000E+20
 30
-1.000000E+20
  9
$PLIMMIN
 10
0.0
 20
0.0
  9
$PLIMMAX
 10
12.0
 20
9.0
  9
$UNITMODE
 70
     0
  9
$VISRETAIN
 70
     0
  9
$PLINEGEN
 70
     0
  9
$PSLTSCALE
 70
     1
  9
$TREEDEPTH
 70
  3020
  9
$DWGCODEPAGE
  3
ascii
  0
ENDSEC
  0
SECTION
  2
TABLES
  0
TABLE
  2
VPORT
 70
     2
  0
VPORT
  2
*ACTIVE
 70
     0
 10
0.0
 20
0.0
 11
1.0
 21
1.0
 12
16.65625
 22
10.40625
 13
0.0
 23
0.0
 14
0.03125
 24
0.03125
 15
0.0
 25
0.0
 16
0.0
 26
0.0
 36
1.0
 17
0.0
 27
0.0
 37
0.0
 40
23.222866
 41
1.365662
 42
50.0
 43
0.0
 44
0.0
 50
0.0
 51
0.0
 71
     0
 72
   100
 73
     1
 74
     1
 75
     1
 76
     0
 77
     0
 78
     0
  0
ENDTAB
  0
TABLE
  2
LTYPE
 70
     4
  0
LTYPE
  2
CONTINUOUS
 70
    64
  3
Solid line
 72
    65
 73
     0
 40
0.0
  0
LTYPE
  2
HIDDEN
 70
    64
  3
_ _ _ _ _ _ _ _ _ _ _ _ _ _ _ _ _ _ _ _ _ _ _
 72
    65
 73
     2
 40
0.375
 49
0.25
 49
-0.125
  0
LTYPE
  2
CENTER
 70
    64
  3
____ _ ____ _ ____ _ ____ _ ____ _ ____ _ ____
 72
    65
 73
     4
 40
2.0
 49
1.25
 49
-0.25
 49
0.25
 49
-0.25
  0
LTYPE
  2
PHANTOM
 70
    64
  3
_____ _ _ _____ _ _ _____ _ _ _____ _ _ ____
 72
    65
 73
     6
 40
2.5
 49
1.25
 49
-0.25
 49
0.25
 49
-0.25
 49
0.25
 49
-0.25
  0
ENDTAB
  0
TABLE
  2
LAYER
 70
    12
  0
LAYER
  2
0
 70
     0
 62
     7
  6
CONTINUOUS
  0
LAYER
  2
DAMAN
 70
     0
 62
     5
  6
CONTINUOUS
  0
LAYER
  2
BORDER
 70
    64
 62
     7
  6
CONTINUOUS
  0
LAYER
  2
SOLID
 70
    64
 62
     4
  6
CONTINUOUS
  0
LAYER
  2
CSOLID
 70
    64
 62
     3
  6
CONTINUOUS
  0
LAYER
  2
CDIM
 70
    64
 62
     2
  6
CONTINUOUS
  0
LAYER
  2
DIM
 70
    64
 62
     5
  6
CONTINUOUS
  0
LAYER
  2
HEX
 70
     0
 62
     5
  6
CONTINUOUS
  0
LAYER
  2
100
 70
     0
 62
   100
  6
CONTINUOUS
  0
LAYER
  2
CHIDDEN
 70
    64
 62
     3
  6
HIDDEN
  0
LAYER
  2
CCENTER
 70
    64
 62
     4
  6
CENTER
  0
LAYER
  2
PHANTOM
 70
     0
 62
     1
  6
PHANTOM
  0
ENDTAB
  0
TABLE
  2
STYLE
 70
     2
  0
STYLE
  2
STANDARD
 70
    64
 40
0.0
 41
1.0
 50
0.0
 71
     0
 42
0.188
  3
txt
  4

  0
STYLE
  2
STR
 70
    64
 40
0.0
 41
1.0
 50
0.0
 71
     0
 42
0.25
  3
SIMPLEX
  4

  0
ENDTAB
  0
TABLE
  2
VIEW
 70
     0
  0
ENDTAB
  0
TABLE
  2
UCS
 70
     0
  0
ENDTAB
  0
TABLE
  2
APPID
 70
     1
  0
APPID
  2
ACAD
 70
    64
  0
ENDTAB
  0
TABLE
  2
DIMSTYLE
 70
     0
  0
ENDTAB
  0
ENDSEC
  0
SECTION
  2
BLOCKS
  0
BLOCK
  8
0
  2
D08SPRV
 70
    64
 10
0.0
 20
0.0
 30
0.0
  3
D08SPRV
  0
INSERT
  8
SOLID
  2
131SAET
 10
4.875
 20
7.46875
 30
0.0
 43
0.0
  0
INSERT
  8
SOLID
  2
131SAET
 10
4.875
 20
9.59375
 30
0.0
 43
0.0
  0
INSERT
  8
SOLID
  2
056SAET
 10
4.25
 20
11.09375
 30
0.0
 43
0.0
  0
INSERT
  8
DIM
  2
056SAET
 10
20.75
 20
6.90625
 30
0.0
 43
0.0
  0
INSERT
  8
DIM
  2
131SAET
 10
26.5
 20
8.40625
 30
0.0
 43
0.0
  0
INSERT
  8
DIM
  2
131SAET
 10
26.5
 20
10.53125
 30
0.0
 43
0.0
  0
INSERT
  8
CCENTER
  2
100CROSS
 10
28.1875
 20
11.5625
 30
0.0
 41
0.62
 42
0.62
 43
0.0
  0
CIRCLE
  8
CSOLID
 10
28.1875
 20
11.5625
 30
0.0
 40
0.203
  0
CIRCLE
  8
CSOLID
 10
27.3125
 20
6.4375
 30
0.0
 40
0.203
  0
INSERT
  8
CCENTER
  2
100CROSS
 10
27.3125
 20
6.4375
 30
0.0
 41
0.62
 42
0.62
 43
0.0
  0
CIRCLE
  8
CHIDDEN
 10
12.3125
 20
17.125
 30
0.0
 40
0.5
  0
CIRCLE
  8
CSOLID
 10
12.3125
 20
17.125
 30
0.0
 40
0.65625
  0
CIRCLE
  8
CSOLID
 10
12.3125
 20
17.125
 30
0.0
 40
0.54
  0
CIRCLE
  8
CSOLID
 10
12.3125
 20
17.125
 30
0.0
 40
0.5155
  0
CIRCLE
  8
CSOLID
 10
12.3125
 20
17.125
 30
0.0
 40
0.469
  0
CIRCLE
  8
CSOLID
 10
12.3125
 20
17.125
 30
0.0
 40
0.4375
  0
CIRCLE
  8
CSOLID
 10
12.3125
 20
17.125
 30
0.0
 40
0.344
  0
INSERT
  8
CCENTER
  2
100CROSS
 10
12.3125
 20
17.125
 30
0.0
 41
1.3
 42
1.3
 43
0.0
  0
INSERT
  8
CCENTER
  2
100CROSS
 10
11.3125
 20
11.5625
 30
0.0
 41
0.625
 42
0.625
 43
0.0
  0
CIRCLE
  8
CSOLID
 10
11.3125
 20
11.5625
 30
0.0
 40
0.203
  0
CIRCLE
  8
CSOLID
 10
11.3125
 20
11.5625
 30
0.0
 40
0.3125
  0
CIRCLE
  8
CSOLID
 10
12.1875
 20
6.4375
 30
0.0
 40
0.3125
  0
CIRCLE
  8
CSOLID
 10
12.1875
 20
6.4375
 30
0.0
 40
0.203
  0
INSERT
  8
CCENTER
  2
100CROSS
 10
12.1875
 20
6.4375
 30
0.0
 41
0.625
 42
0.625
 43
0.0
  0
INSERT
  8
CCENTER
  2
100CROSS
 10
12.8125
 20
7.1245
 30
0.0
 41
0.438
 42
0.438
 43
0.0
  0
CIRCLE
  8
CSOLID
 10
12.8125
 20
7.1245
 30
0.0
 40
0.219
  0
CIRCLE
  8
CSOLID
 10
10.6875
 20
10.8745
 30
0.0
 40
0.219
  0
INSERT
  8
CCENTER
  2
100CROSS
 10
10.6875
 20
10.8745
 30
0.0
 41
0.438
 42
0.438
 43
0.0
  0
INSERT
  8
CCENTER
  2
100CROSS
 10
13.7495
 20
7.84425
 30
0.0
 41
0.25
 42
0.25
 43
0.0
  0
CIRCLE
  8
CSOLID
 10
13.7495
 20
7.84425
 30
0.0
 40
0.1405
  0
CIRCLE
  8
CSOLID
 10
9.9375
 20
10.40625
 30
0.0
 40
0.1405
  0
INSERT
  8
CCENTER
  2
100CROSS
 10
9.9375
 20
10.40625
 30
0.0
 41
0.25
 42
0.25
 43
0.0
  0
CIRCLE
  8
CSOLID
 10
12.8755
 20
10.4065
 30
0.0
 40
0.453
  0
INSERT
  8
CCENTER
  2
100CROSS
 10
12.8755
 20
10.4065
 30
0.0
 41
0.844
 42
0.844
 43
0.0
  0
INSERT
  8
CCENTER
  2
100CROSS
 10
12.8755
 20
8.5315
 30
0.0
 41
0.844
 42
0.844
 43
0.0
  0
CIRCLE
  8
CSOLID
 10
12.8755
 20
8.5315
 30
0.0
 40
0.453
  0
INSERT
  8
CCENTER
  2
100CROSS
 10
10.6255
 20
9.469
 30
0.0
 41
0.844
 42
0.844
 43
0.0
  0
CIRCLE
  8
CSOLID
 10
10.6255
 20
9.469
 30
0.0
 40
0.453
  0
CIRCLE
  8
CSOLID
 10
10.6255
 20
7.594
 30
0.0
 40
0.453
  0
INSERT
  8
CCENTER
  2
100CROSS
 10
10.6255
 20
7.594
 30
0.0
 41
0.844
 42
0.844
 43
0.0
  0
CIRCLE
  8
CSOLID
 10
13.5625
 20
9.4685
 30
0.0
 40
0.21875
  0
INSERT
  8
CCENTER
  2
100CROSS
 10
13.5625
 20
9.4685
 30
0.0
 41
0.5
 42
0.5
 43
0.0
  0
INSERT
  8
CCENTER
  2
100CROSS
 10
9.9375
 20
8.5315
 30
0.0
 41
0.5
 42
0.5
 43
0.0
  0
CIRCLE
  8
CSOLID
 10
9.9375
 20
8.5315
 30
0.0
 40
0.21875
  0
INSERT
  8
CCENTER
  2
100CROSS
 10
13.5625
 20
6.4375
 30
0.0
 41
0.5
 42
0.5
 43
0.0
  0
CIRCLE
  8
CSOLID
 10
13.5625
 20
6.4375
 30
0.0
 40
0.21875
  0
INSERT
  8
CCENTER
  2
100CROSS
 10
13.5625
 20
11.5625
 30
0.0
 41
0.5
 42
0.5
 43
0.0
  0
CIRCLE
  8
CSOLID
 10
13.5625
 20
11.5625
 30
0.0
 40
0.21875
  0
INSERT
  8
CCENTER
  2
100CROSS
 10
9.9375
 20
6.4375
 30
0.0
 41
0.5
 42
0.5
 43
0.0
  0
CIRCLE
  8
CSOLID
 10
9.9375
 20
6.4375
 30
0.0
 40
0.21875
  0
CIRCLE
  8
CSOLID
 10
9.9375
 20
11.5625
 30
0.0
 40
0.21875
  0
INSERT
  8
CCENTER
  2
100CROSS
 10
9.9375
 20
11.5625
 30
0.0
 41
0.5
 42
0.5
 43
0.0
  0
CIRCLE
  8
CHIDDEN
 10
9.9375
 20
6.4375
 30
0.0
 40
0.25
  0
CIRCLE
  8
CHIDDEN
 10
9.9375
 20
11.5625
 30
0.0
 40
0.25
  0
CIRCLE
  8
CHIDDEN
 10
13.5625
 20
6.4375
 30
0.0
 40
0.25
  0
CIRCLE
  8
CHIDDEN
 10
13.5625
 20
11.5625
 30
0.0
 40
0.25
  0
CIRCLE
  8
CHIDDEN
 10
9.9375
 20
8.53125
 30
0.0
 40
0.25
  0
CIRCLE
  8
CHIDDEN
 10
13.5625
 20
9.4685
 30
0.0
 40
0.25
  0
CIRCLE
  8
CSOLID
 10
20.0625
 20
10.53125
 30
0.0
 40
0.6125
  0
CIRCLE
  8
CSOLID
 10
20.0625
 20
10.53125
 30
0.0
 40
0.562
  0
CIRCLE
  8
CSOLID
 10
20.0625
 20
10.53125
 30
0.0
 40
1.0
  0
INSERT
  8
CCENTER
  2
100CROSS
 10
20.0625
 20
10.53125
 30
0.0
 41
1.6
 42
1.6
 43
0.0
  0
CIRCLE
  8
CHIDDEN
 10
20.0625
 20
10.53125
 30
0.0
 40
0.65625
  0
CIRCLE
  8
CSOLID
 10
20.0625
 20
8.40625
 30
0.0
 40
0.6125
  0
CIRCLE
  8
CSOLID
 10
20.0625
 20
8.40625
 30
0.0
 40
0.562
  0
CIRCLE
  8
CSOLID
 10
20.0625
 20
8.40625
 30
0.0
 40
1.0
  0
INSERT
  8
CCENTER
  2
100CROSS
 10
20.0625
 20
8.40625
 30
0.0
 41
1.6
 42
1.6
 43
0.0
  0
CIRCLE
  8
CHIDDEN
 10
20.0625
 20
8.40625
 30
0.0
 40
0.65625
  0
TEXT
  8
CDIM
 10
4.65625
 20
11.75
 30
0.0
 40
0.25
  1
X
 50
270.0
  7
STR
  0
TEXT
  8
CDIM
 10
5.5625
 20
10.71875
 30
0.0
 40
0.25
  1
A
 50
270.0
  7
STR
  0
TEXT
  8
CDIM
 10
5.53125
 20
6.5625
 30
0.0
 40
0.25
  1
B
 50
270.0
  7
STR
  0
TEXT
  8
CDIM
 10
20.3125
 20
6.21875
 30
0.0
 40
0.25
  1
Y
 50
90.0
  7
STR
  0
TEXT
  8
CDIM
 10
19.40625
 20
7.34375
 30
0.0
 40
0.25
  1
P
 50
90.0
  7
STR
  0
TEXT
  8
CDIM
 10
19.375
 20
11.40625
 30
0.0
 40
0.25
  1
T
 50
90.0
  7
STR
  0
TEXT
  8
CDIM
 10
27.5625
 20
9.65625
 30
0.0
 40
0.25
  1
T
  7
STR
  0
TEXT
  8
CDIM
 10
27.46875
 20
7.46875
 30
0.0
 40
0.25
  1
P
  7
STR
  0
LINE
  8
CDIM
 10
3.0
 20
12.230213
 30
0.0
 11
3.0
 21
13.269006
 31
0.0
  0
LINE
  8
CDIM
 10
4.25
 20
11.605213
 30
0.0
 11
4.25
 21
13.269006
 31
0.0
  0
LINE
  8
CDIM
 10
4.692008
 20
12.9375
 30
0.0
 11
5.134016
 21
12.9375
 31
0.0
  0
LINE
  8
CDIM
 10
2.557992
 20
12.9375
 30
0.0
 11
2.115984
 21
12.9375
 31
0.0
  0
SOLID
  8
CDIM
 10
4.692008
 20
12.863832
 30
0.0
 11
4.692008
 21
13.011168
 31
0.0
 12
4.25
 22
12.9375
 32
0.0
 13
4.25
 23
12.9375
 33
0.0
  0
SOLID
  8
CDIM
 10
2.557992
 20
12.863832
 30
0.0
 11
2.557992
 21
13.011168
 31
0.0
 12
3.0
 22
12.9375
 32
0.0
 13
3.0
 23
12.9375
 33
0.0
  0
TEXT
  8
CDIM
 10
5.576024
 20
12.679662
 30
0.0
 40
0.515676
  1
1.25
  7
STR
  0
LINE
  8
CDIM
 10
3.0
 20
12.230213
 30
0.0
 11
3.0
 21
14.374026
 31
0.0
  0
LINE
  8
CDIM
 10
4.875
 20
10.480213
 30
0.0
 11
4.875
 21
14.374026
 31
0.0
  0
LINE
  8
CDIM
 10
5.317008
 20
14.04252
 30
0.0
 11
5.759016
 21
14.04252
 31
0.0
  0
LINE
  8
CDIM
 10
2.557992
 20
14.04252
 30
0.0
 11
2.115984
 21
14.04252
 31
0.0
  0
SOLID
  8
CDIM
 10
5.317008
 20
13.968852
 30
0.0
 11
5.317008
 21
14.116188
 31
0.0
 12
4.875
 22
14.04252
 32
0.0
 13
4.875
 23
14.04252
 33
0.0
  0
SOLID
  8
CDIM
 10
2.557992
 20
13.968852
 30
0.0
 11
2.557992
 21
14.116188
 31
0.0
 12
3.0
 22
14.04252
 32
0.0
 13
3.0
 23
14.04252
 33
0.0
  0
TEXT
  8
CDIM
 10
6.201024
 20
13.784682
 30
0.0
 40
0.515676
  1
1.87
  7
STR
  0
LINE
  8
CDIM
 10
3.0
 20
12.230213
 30
0.0
 11
3.0
 21
15.479046
 31
0.0
  0
LINE
  8
CDIM
 10
6.0
 20
12.230213
 30
0.0
 11
6.0
 21
12.5
 31
0.0
  0
LINE
  8
CDIM
 10
6.442008
 20
15.14754
 30
0.0
 11
6.884016
 21
15.14754
 31
0.0
  0
LINE
  8
CDIM
 10
2.557992
 20
15.14754
 30
0.0
 11
2.115984
 21
15.14754
 31
0.0
  0
SOLID
  8
CDIM
 10
6.442008
 20
15.073872
 30
0.0
 11
6.442008
 21
15.221208
 31
0.0
 12
6.0
 22
15.14754
 32
0.0
 13
6.0
 23
15.14754
 33
0.0
  0
SOLID
  8
CDIM
 10
2.557992
 20
15.073872
 30
0.0
 11
2.557992
 21
15.221208
 31
0.0
 12
3.0
 22
15.14754
 32
0.0
 13
3.0
 23
15.14754
 33
0.0
  0
TEXT
  8
CDIM
 10
3.701024
 20
14.889702
 30
0.0
 40
0.515676
  1
3.00
  7
STR
  0
LINE
  8
CDIM
 10
2.769788
 20
12.0
 30
0.0
 11
1.543494
 21
12.0
 31
0.0
  0
LINE
  8
CDIM
 10
3.738538
 20
11.09375
 30
0.0
 11
1.543494
 21
11.09375
 31
0.0
  0
LINE
  8
CDIM
 10
1.875
 20
10.651742
 30
0.0
 11
1.875
 21
10.209734
 31
0.0
  0
LINE
  8
CDIM
 10
1.875
 20
12.442008
 30
0.0
 11
1.875
 21
12.884016
 31
0.0
  0
SOLID
  8
CDIM
 10
1.948668
 20
10.651742
 30
0.0
 11
1.801332
 21
10.651742
 31
0.0
 12
1.875
 22
11.09375
 32
0.0
 13
1.875
 23
11.09375
 33
0.0
  0
SOLID
  8
CDIM
 10
1.948668
 20
12.442008
 30
0.0
 11
1.801332
 21
12.442008
 31
0.0
 12
1.875
 22
12.0
 32
0.0
 13
1.875
 23
12.0
 33
0.0
  0
TEXT
  8
CDIM
 10
1.234154
 20
11.295646
 30
0.0
 40
0.515676
  1
0.91
  7
STR
  0
LINE
  8
CDIM
 10
2.769788
 20
12.0
 30
0.0
 11
0.094724
 21
12.0
 31
0.0
  0
LINE
  8
CDIM
 10
4.032288
 20
9.59375
 30
0.0
 11
0.094724
 21
9.59375
 31
0.0
  0
LINE
  8
CDIM
 10
0.42623
 20
11.557992
 30
0.0
 11
0.42623
 21
11.496721
 31
0.0
  0
LINE
  8
CDIM
 10
0.42623
 20
10.035758
 30
0.0
 11
0.42623
 21
10.097029
 31
0.0
  0
SOLID
  8
CDIM
 10
0.499898
 20
11.557992
 30
0.0
 11
0.352562
 21
11.557992
 31
0.0
 12
0.42623
 22
12.0
 32
0.0
 13
0.42623
 23
12.0
 33
0.0
  0
SOLID
  8
CDIM
 10
0.499898
 20
10.035758
 30
0.0
 11
0.352562
 21
10.035758
 31
0.0
 12
0.42623
 22
9.59375
 32
0.0
 13
0.42623
 23
9.59375
 33
0.0
  0
TEXT
  8
CDIM
 10
-0.24906
 20
10.539037
 30
0.0
 40
0.515676
  1
2.41
  7
STR
  0
LINE
  8
CDIM
 10
2.769788
 20
12.0
 30
0.0
 11
-1.260296
 21
12.0
 31
0.0
  0
LINE
  8
CDIM
 10
4.082788
 20
7.46875
 30
0.0
 11
-1.260296
 21
7.46875
 31
0.0
  0
LINE
  8
CDIM
 10
-0.92879
 20
11.557992
 30
0.0
 11
-0.92879
 21
9.777971
 31
0.0
  0
LINE
  8
CDIM
 10
-0.92879
 20
7.910758
 30
0.0
 11
-0.92879
 21
8.378279
 31
0.0
  0
SOLID
  8
CDIM
 10
-0.855122
 20
11.557992
 30
0.0
 11
-1.002458
 21
11.557992
 31
0.0
 12
-0.92879
 22
12.0
 32
0.0
 13
-0.92879
 23
12.0
 33
0.0
  0
SOLID
  8
CDIM
 10
-0.855122
 20
7.910758
 30
0.0
 11
-1.002458
 21
7.910758
 31
0.0
 12
-0.92879
 22
7.46875
 32
0.0
 13
-0.92879
 23
7.46875
 33
0.0
  0
TEXT
  8
CDIM
 10
-1.714582
 20
8.820287
 30
0.0
 40
0.515676
  1
4.53
  7
STR
  0
LINE
  8
CDIM
 10
9.269788
 20
12.0
 30
0.0
 11
8.043494
 21
12.0
 31
0.0
  0
LINE
  8
CDIM
 10
12.192288
 20
8.5315
 30
0.0
 11
8.043494
 21
8.5315
 31
0.0
  0
LINE
  8
CDIM
 10
8.375
 20
11.557992
 30
0.0
 11
8.375
 21
10.965596
 31
0.0
  0
LINE
  8
CDIM
 10
8.375
 20
8.973508
 30
0.0
 11
8.375
 21
9.565904
 31
0.0
  0
SOLID
  8
CDIM
 10
8.448668
 20
11.557992
 30
0.0
 11
8.301332
 21
11.557992
 31
0.0
 12
8.375
 22
12.0
 32
0.0
 13
8.375
 23
12.0
 33
0.0
  0
SOLID
  8
CDIM
 10
8.448668
 20
8.973508
 30
0.0
 11
8.301332
 21
8.973508
 31
0.0
 12
8.375
 22
8.5315
 32
0.0
 13
8.375
 23
8.5315
 33
0.0
  0
TEXT
  8
CDIM
 10
7.589208
 20
10.007912
 30
0.0
 40
0.515676
  1
3.47
  7
STR
  0
LINE
  8
CDIM
 10
9.269788
 20
12.0
 30
0.0
 11
6.938474
 21
12.0
 31
0.0
  0
LINE
  8
CDIM
 10
9.269788
 20
6.0
 30
0.0
 11
6.938474
 21
6.0
 31
0.0
  0
LINE
  8
CDIM
 10
7.26998
 20
11.557992
 30
0.0
 11
7.26998
 21
9.699846
 31
0.0
  0
LINE
  8
CDIM
 10
7.26998
 20
6.442008
 30
0.0
 11
7.26998
 21
8.300154
 31
0.0
  0
SOLID
  8
CDIM
 10
7.343648
 20
11.557992
 30
0.0
 11
7.196312
 21
11.557992
 31
0.0
 12
7.26998
 22
12.0
 32
0.0
 13
7.26998
 23
12.0
 33
0.0
  0
SOLID
  8
CDIM
 10
7.343648
 20
6.442008
 30
0.0
 11
7.196312
 21
6.442008
 31
0.0
 12
7.26998
 22
6.0
 32
0.0
 13
7.26998
 23
6.0
 33
0.0
  0
TEXT
  8
CDIM
 10
6.484188
 20
8.742162
 30
0.0
 40
0.515676
  1
6.00
  7
STR
  0
LINE
  8
CDIM
 10
9.5
 20
12.230213
 30
0.0
 11
9.5
 21
13.269006
 31
0.0
  0
LINE
  8
CDIM
 10
12.8755
 20
11.089713
 30
0.0
 11
12.8755
 21
13.269006
 31
0.0
  0
LINE
  8
CDIM
 10
13.317508
 20
12.9375
 30
0.0
 11
13.759516
 21
12.9375
 31
0.0
  0
LINE
  8
CDIM
 10
9.057992
 20
12.9375
 30
0.0
 11
8.615984
 21
12.9375
 31
0.0
  0
SOLID
  8
CDIM
 10
13.317508
 20
12.863832
 30
0.0
 11
13.317508
 21
13.011168
 31
0.0
 12
12.8755
 22
12.9375
 32
0.0
 13
12.8755
 23
12.9375
 33
0.0
  0
SOLID
  8
CDIM
 10
9.057992
 20
12.863832
 30
0.0
 11
9.057992
 21
13.011168
 31
0.0
 12
9.5
 22
12.9375
 32
0.0
 13
9.5
 23
12.9375
 33
0.0
  0
TEXT
  8
CDIM
 10
10.420274
 20
12.679662
 30
0.0
 40
0.515676
  1
3.38
  7
STR
  0
LINE
  8
CDIM
 10
9.5
 20
12.230213
 30
0.0
 11
9.5
 21
14.374026
 31
0.0
  0
LINE
  8
CDIM
 10
14.0
 20
12.230213
 30
0.0
 11
14.0
 21
14.374026
 31
0.0
  0
LINE
  8
CDIM
 10
9.942008
 20
14.04252
 30
0.0
 11
10.5222
 21
14.04252
 31
0.0
  0
LINE
  8
CDIM
 10
13.557992
 20
14.04252
 30
0.0
 11
12.9778
 21
14.04252
 31
0.0
  0
SOLID
  8
CDIM
 10
9.942008
 20
13.968852
 30
0.0
 11
9.942008
 21
14.116188
 31
0.0
 12
9.5
 22
14.04252
 32
0.0
 13
9.5
 23
14.04252
 33
0.0
  0
SOLID
  8
CDIM
 10
13.557992
 20
13.968852
 30
0.0
 11
13.557992
 21
14.116188
 31
0.0
 12
14.0
 22
14.04252
 32
0.0
 13
14.0
 23
14.04252
 33
0.0
  0
TEXT
  8
CDIM
 10
10.964208
 20
13.784682
 30
0.0
 40
0.515676
  1
4.50
  7
STR
  0
LINE
  8
CDIM
 10
9.5
 20
5.769788
 30
0.0
 11
9.5
 21
4.730994
 31
0.0
  0
LINE
  8
CDIM
 10
11.3125
 20
11.019788
 30
0.0
 11
11.3125
 21
4.730994
 31
0.0
  0
LINE
  8
CDIM
 10
11.754508
 20
5.0625
 30
0.0
 11
12.196516
 21
5.0625
 31
0.0
  0
LINE
  8
CDIM
 10
9.057992
 20
5.0625
 30
0.0
 11
8.615984
 21
5.0625
 31
0.0
  0
SOLID
  8
CDIM
 10
11.754508
 20
4.988832
 30
0.0
 11
11.754508
 21
5.136168
 31
0.0
 12
11.3125
 22
5.0625
 32
0.0
 13
11.3125
 23
5.0625
 33
0.0
  0
SOLID
  8
CDIM
 10
9.057992
 20
4.988832
 30
0.0
 11
9.057992
 21
5.136168
 31
0.0
 12
9.5
 22
5.0625
 32
0.0
 13
9.5
 23
5.0625
 33
0.0
  0
TEXT
  8
CDIM
 10
9.763524
 20
4.804662
 30
0.0
 40
0.515676
  1
1.68
  7
STR
  0
LINE
  8
CDIM
 10
9.5
 20
5.769788
 30
0.0
 11
9.5
 21
3.625974
 31
0.0
  0
LINE
  8
CDIM
 10
12.1875
 20
5.894788
 30
0.0
 11
12.1875
 21
3.625974
 31
0.0
  0
LINE
  8
CDIM
 10
12.629508
 20
3.95748
 30
0.0
 11
13.071516
 21
3.95748
 31
0.0
  0
LINE
  8
CDIM
 10
9.057992
 20
3.95748
 30
0.0
 11
8.615984
 21
3.95748
 31
0.0
  0
SOLID
  8
CDIM
 10
12.629508
 20
3.883812
 30
0.0
 11
12.629508
 21
4.031148
 31
0.0
 12
12.1875
 22
3.95748
 32
0.0
 13
12.1875
 23
3.95748
 33
0.0
  0
SOLID
  8
CDIM
 10
9.057992
 20
3.883812
 30
0.0
 11
9.057992
 21
4.031148
 31
0.0
 12
9.5
 22
3.95748
 32
0.0
 13
9.5
 23
3.95748
 33
0.0
  0
TEXT
  8
CDIM
 10
10.107274
 20
3.699642
 30
0.0
 40
0.515676
  1
2.56
  7
STR
  0
LINE
  8
CDIM
 10
14.230213
 20
12.0
 30
0.0
 11
15.269006
 21
12.0
 31
0.0
  0
LINE
  8
CDIM
 10
11.855213
 20
11.5625
 30
0.0
 11
15.269006
 21
11.5625
 31
0.0
  0
LINE
  8
CDIM
 10
14.9375
 20
11.120492
 30
0.0
 11
14.9375
 21
10.678484
 31
0.0
  0
LINE
  8
CDIM
 10
14.9375
 20
12.442008
 30
0.0
 11
14.9375
 21
12.884016
 31
0.0
  0
SOLID
  8
CDIM
 10
15.011168
 20
11.120492
 30
0.0
 11
14.863832
 21
11.120492
 31
0.0
 12
14.9375
 22
11.5625
 32
0.0
 13
14.9375
 23
11.5625
 33
0.0
  0
SOLID
  8
CDIM
 10
15.011168
 20
12.442008
 30
0.0
 11
14.863832
 21
12.442008
 31
0.0
 12
14.9375
 22
12.0
 32
0.0
 13
14.9375
 23
12.0
 33
0.0
  0
TEXT
  8
CDIM
 10
14.176094
 20
10.045646
 30
0.0
 40
0.515676
  1
0.44
  7
STR
  0
LINE
  8
CDIM
 10
14.230213
 20
12.0
 30
0.0
 11
16.374026
 21
12.0
 31
0.0
  0
LINE
  8
CDIM
 10
12.620713
 20
6.4375
 30
0.0
 11
16.374026
 21
6.4375
 31
0.0
  0
LINE
  8
CDIM
 10
16.04252
 20
11.557992
 30
0.0
 11
16.04252
 21
9.918596
 31
0.0
  0
LINE
  8
CDIM
 10
16.04252
 20
6.879508
 30
0.0
 11
16.04252
 21
8.518904
 31
0.0
  0
SOLID
  8
CDIM
 10
16.116188
 20
11.557992
 30
0.0
 11
15.968852
 21
11.557992
 31
0.0
 12
16.04252
 22
12.0
 32
0.0
 13
16.04252
 23
12.0
 33
0.0
  0
SOLID
  8
CDIM
 10
16.116188
 20
6.879508
 30
0.0
 11
15.968852
 21
6.879508
 31
0.0
 12
16.04252
 22
6.4375
 32
0.0
 13
16.04252
 23
6.4375
 33
0.0
  0
TEXT
  8
CDIM
 10
15.269006
 20
8.960912
 30
0.0
 40
0.515676
  1
5.56
  7
STR
  0
LINE
  8
CDIM
 10
22.230213
 20
12.0
 30
0.0
 11
23.269006
 21
12.0
 31
0.0
  0
LINE
  8
CDIM
 10
20.905213
 20
10.53125
 30
0.0
 11
23.46875
 21
10.53125
 31
0.0
  0
LINE
  8
CDIM
 10
22.9375
 20
10.089242
 30
0.0
 11
22.9375
 21
9.647234
 31
0.0
  0
LINE
  8
CDIM
 10
22.9375
 20
12.442008
 30
0.0
 11
22.9375
 21
12.884016
 31
0.0
  0
SOLID
  8
CDIM
 10
23.011168
 20
10.089242
 30
0.0
 11
22.863832
 21
10.089242
 31
0.0
 12
22.9375
 22
10.53125
 32
0.0
 13
22.9375
 23
10.53125
 33
0.0
  0
SOLID
  8
CDIM
 10
23.011168
 20
12.442008
 30
0.0
 11
22.863832
 21
12.442008
 31
0.0
 12
22.9375
 22
12.0
 32
0.0
 13
22.9375
 23
12.0
 33
0.0
  0
TEXT
  8
CDIM
 10
22.236374
 20
10.983146
 30
0.0
 40
0.515676
  1
1.47
  7
STR
  0
LINE
  8
CDIM
 10
22.230213
 20
12.0
 30
0.0
 11
24.374026
 21
12.0
 31
0.0
  0
LINE
  8
CDIM
 10
20.948963
 20
8.40625
 30
0.0
 11
25.375
 21
8.40625
 31
0.0
  0
LINE
  8
CDIM
 10
24.04252
 20
11.557992
 30
0.0
 11
24.04252
 21
10.559221
 31
0.0
  0
LINE
  8
CDIM
 10
24.04252
 20
8.848258
 30
0.0
 11
24.04252
 21
9.159529
 31
0.0
  0
SOLID
  8
CDIM
 10
24.116188
 20
11.557992
 30
0.0
 11
23.968852
 21
11.557992
 31
0.0
 12
24.04252
 22
12.0
 32
0.0
 13
24.04252
 23
12.0
 33
0.0
  0
SOLID
  8
CDIM
 10
24.116188
 20
8.848258
 30
0.0
 11
23.968852
 21
8.848258
 31
0.0
 12
24.04252
 22
8.40625
 32
0.0
 13
24.04252
 23
8.40625
 33
0.0
  0
TEXT
  8
CDIM
 10
23.269006
 20
9.601537
 30
0.0
 40
0.515676
  1
3.59
  7
STR
  0
LINE
  8
CDIM
 10
18.769788
 20
12.0
 30
0.0
 11
17.730994
 21
12.0
 31
0.0
  0
LINE
  8
CDIM
 10
20.269788
 20
6.90625
 30
0.0
 11
17.730994
 21
6.90625
 31
0.0
  0
LINE
  8
CDIM
 10
18.0625
 20
11.557992
 30
0.0
 11
18.0625
 21
10.152971
 31
0.0
  0
LINE
  8
CDIM
 10
18.0625
 20
7.348258
 30
0.0
 11
18.0625
 21
8.753279
 31
0.0
  0
SOLID
  8
CDIM
 10
18.136168
 20
11.557992
 30
0.0
 11
17.988832
 21
11.557992
 31
0.0
 12
18.0625
 22
12.0
 32
0.0
 13
18.0625
 23
12.0
 33
0.0
  0
SOLID
  8
CDIM
 10
18.136168
 20
7.348258
 30
0.0
 11
17.988832
 21
7.348258
 31
0.0
 12
18.0625
 22
6.90625
 32
0.0
 13
18.0625
 23
6.90625
 33
0.0
  0
TEXT
  8
CDIM
 10
17.288986
 20
9.195287
 30
0.0
 40
0.515676
  1
5.09
  7
STR
  0
LINE
  8
CDIM
 10
30.0
 20
12.230213
 30
0.0
 11
30.0
 21
13.269006
 31
0.0
  0
LINE
  8
CDIM
 10
26.5
 20
11.417713
 30
0.0
 11
26.5
 21
13.269006
 31
0.0
  0
LINE
  8
CDIM
 10
29.557992
 20
12.9375
 30
0.0
 11
29.4778
 21
12.9375
 31
0.0
  0
LINE
  8
CDIM
 10
26.942008
 20
12.9375
 30
0.0
 11
27.0222
 21
12.9375
 31
0.0
  0
SOLID
  8
CDIM
 10
29.557992
 20
12.863832
 30
0.0
 11
29.557992
 21
13.011168
 31
0.0
 12
30.0
 22
12.9375
 32
0.0
 13
30.0
 23
12.9375
 33
0.0
  0
SOLID
  8
CDIM
 10
26.942008
 20
12.863832
 30
0.0
 11
26.942008
 21
13.011168
 31
0.0
 12
26.5
 22
12.9375
 32
0.0
 13
26.5
 23
12.9375
 33
0.0
  0
TEXT
  8
CDIM
 10
27.464208
 20
12.679662
 30
0.0
 40
0.515676
  1
3.50
  7
STR
  0
LINE
  8
CDIM
 10
9.5
 20
15.769788
 30
0.0
 11
9.5
 21
14.855994
 31
0.0
  0
LINE
  8
CDIM
 10
12.3125
 20
16.354788
 30
0.0
 11
12.3125
 21
14.855994
 31
0.0
  0
LINE
  8
CDIM
 10
12.754508
 20
15.1875
 30
0.0
 11
13.196516
 21
15.1875
 31
0.0
  0
LINE
  8
CDIM
 10
9.057992
 20
15.1875
 30
0.0
 11
8.615984
 21
15.1875
 31
0.0
  0
SOLID
  8
CDIM
 10
12.754508
 20
15.113832
 30
0.0
 11
12.754508
 21
15.261168
 31
0.0
 12
12.3125
 22
15.1875
 32
0.0
 13
12.3125
 23
15.1875
 33
0.0
  0
SOLID
  8
CDIM
 10
9.057992
 20
15.113832
 30
0.0
 11
9.057992
 21
15.261168
 31
0.0
 12
9.5
 22
15.1875
 32
0.0
 13
9.5
 23
15.1875
 33
0.0
  0
TEXT
  8
CDIM
 10
10.263524
 20
14.929662
 30
0.0
 40
0.515676
  1
2.81
  7
STR
  0
LINE
  8
CDIM
 10
9.269788
 20
18.5
 30
0.0
 11
8.043494
 21
18.5
 31
0.0
  0
LINE
  8
CDIM
 10
11.644788
 20
17.125
 30
0.0
 11
8.043494
 21
17.125
 31
0.0
  0
LINE
  8
CDIM
 10
8.375
 20
16.682992
 30
0.0
 11
8.375
 21
16.240984
 31
0.0
  0
LINE
  8
CDIM
 10
8.375
 20
18.942008
 30
0.0
 11
8.375
 21
19.384016
 31
0.0
  0
SOLID
  8
CDIM
 10
8.448668
 20
16.682992
 30
0.0
 11
8.301332
 21
16.682992
 31
0.0
 12
8.375
 22
17.125
 32
0.0
 13
8.375
 23
17.125
 33
0.0
  0
SOLID
  8
CDIM
 10
8.448668
 20
18.942008
 30
0.0
 11
8.301332
 21
18.942008
 31
0.0
 12
8.375
 22
18.5
 32
0.0
 13
8.375
 23
18.5
 33
0.0
  0
TEXT
  8
CDIM
 10
7.705124
 20
17.514396
 30
0.0
 40
0.515676
  1
1.87
  7
STR
  0
SOLID
  8
CDIM
 10
13.354326
 20
17.307373
 30
0.0
 11
13.331768
 21
17.452972
 31
0.0
 12
12.90625
 22
17.3125
 32
0.0
 13
12.90625
 23
17.3125
 33
0.0
  0
LINE
  8
CDIM
 10
13.343047
 20
17.380173
 30
0.0
 11
15.125
 21
17.65625
 31
0.0
  0
LINE
  8
CDIM
 10
15.125
 20
17.65625
 30
0.0
 11
15.5
 21
17.65625
 31
0.0
  0
TEXT
  8
CDIM
 10
15.942008
 20
17.398412
 30
0.0
 40
0.515676
  1
Relief valve cavity
  7
STR
  0
LINE
  8
CDIM
 10
24.59375
 20
10.53125
 30
0.0
 11
25.34375
 21
10.53125
 31
0.0
  0
LINE
  8
CDIM
 10
22.0
 20
12.230213
 30
0.0
 11
22.0
 21
13.269006
 31
0.0
  0
LINE
  8
CDIM
 10
20.75
 20
7.386463
 30
0.0
 11
20.75
 21
13.269006
 31
0.0
  0
LINE
  8
CDIM
 10
20.307992
 20
12.9375
 30
0.0
 11
19.865984
 21
12.9375
 31
0.0
  0
LINE
  8
CDIM
 10
22.442008
 20
12.9375
 30
0.0
 11
22.884016
 21
12.9375
 31
0.0
  0
SOLID
  8
CDIM
 10
20.307992
 20
12.863832
 30
0.0
 11
20.307992
 21
13.011168
 31
0.0
 12
20.75
 22
12.9375
 32
0.0
 13
20.75
 23
12.9375
 33
0.0
  0
SOLID
  8
CDIM
 10
22.442008
 20
12.863832
 30
0.0
 11
22.442008
 21
13.011168
 31
0.0
 12
22.0
 22
12.9375
 32
0.0
 13
22.0
 23
12.9375
 33
0.0
  0
TEXT
  8
CDIM
 10
17.852392
 20
12.679662
 30
0.0
 40
0.515676
  1
1.25
  7
STR
  0
LINE
  8
CDIM
 10
22.0
 20
12.230213
 30
0.0
 11
22.0
 21
14.374026
 31
0.0
  0
LINE
  8
CDIM
 10
20.0625
 20
11.417713
 30
0.0
 11
20.0625
 21
12.59375
 31
0.0
  0
LINE
  8
CDIM
 10
19.620492
 20
14.04252
 30
0.0
 11
19.178484
 21
14.04252
 31
0.0
  0
LINE
  8
CDIM
 10
22.442008
 20
14.04252
 30
0.0
 11
22.884016
 21
14.04252
 31
0.0
  0
SOLID
  8
CDIM
 10
19.620492
 20
13.968852
 30
0.0
 11
19.620492
 21
14.116188
 31
0.0
 12
20.0625
 22
14.04252
 32
0.0
 13
20.0625
 23
14.04252
 33
0.0
  0
SOLID
  8
CDIM
 10
22.442008
 20
13.968852
 30
0.0
 11
22.442008
 21
14.116188
 31
0.0
 12
22.0
 22
14.04252
 32
0.0
 13
22.0
 23
14.04252
 33
0.0
  0
TEXT
  8
CDIM
 10
17.23856
 20
13.784682
 30
0.0
 40
0.515676
  1
1.87
  7
STR
  0
LINE
  8
CDIM
 10
20.0625
 20
13.3125
 30
0.0
 11
20.0625
 21
14.374026
 31
0.0
  0
LINE
  8
CDIM
 10
6.0
 20
13.40625
 30
0.0
 11
6.0
 21
13.625
 31
0.0
  0
LINE
  8
CDIM
 10
6.0
 20
14.46875
 30
0.0
 11
6.0
 21
15.479046
 31
0.0
  0
POLYLINE
  8
BORDER
 66
     1
 10
0.0
 20
0.0
 30
0.0
 70
     1
  0
VERTEX
  8
BORDER
 10
3.0
 20
12.0
 30
0.0
  0
VERTEX
  8
BORDER
 10
6.0
 20
12.0
 30
0.0
  0
VERTEX
  8
BORDER
 10
6.0
 20
6.0
 30
0.0
  0
VERTEX
  8
BORDER
 10
3.0
 20
6.0
 30
0.0
  0
SEQEND
  8
BORDER
  0
POLYLINE
  8
BORDER
 66
     1
 10
0.0
 20
0.0
 30
0.0
 70
     1
  0
VERTEX
  8
BORDER
 10
9.5
 20
18.5
 30
0.0
  0
VERTEX
  8
BORDER
 10
14.0
 20
18.5
 30
0.0
  0
VERTEX
  8
BORDER
 10
14.0
 20
16.0
 30
0.0
  0
VERTEX
  8
BORDER
 10
9.5
 20
16.0
 30
0.0
  0
SEQEND
  8
BORDER
  0
POLYLINE
  8
BORDER
 66
     1
 10
0.0
 20
0.0
 30
0.0
 70
     1
  0
VERTEX
  8
BORDER
 10
9.5
 20
12.0
 30
0.0
  0
VERTEX
  8
BORDER
 10
14.0
 20
12.0
 30
0.0
  0
VERTEX
  8
BORDER
 10
14.0
 20
6.0
 30
0.0
  0
VERTEX
  8
BORDER
 10
9.5
 20
6.0
 30
0.0
  0
SEQEND
  8
BORDER
  0
POLYLINE
  8
BORDER
 66
     1
 10
0.0
 20
0.0
 30
0.0
 70
     1
  0
VERTEX
  8
BORDER
 10
19.0
 20
12.0
 30
0.0
  0
VERTEX
  8
BORDER
 10
22.0
 20
12.0
 30
0.0
  0
VERTEX
  8
BORDER
 10
22.0
 20
6.0
 30
0.0
  0
VERTEX
  8
BORDER
 10
19.0
 20
6.0
 30
0.0
  0
SEQEND
  8
BORDER
  0
POLYLINE
  8
BORDER
 66
     1
 10
0.0
 20
0.0
 30
0.0
 70
     1
  0
VERTEX
  8
BORDER
 10
25.5
 20
12.0
 30
0.0
  0
VERTEX
  8
BORDER
 10
30.0
 20
12.0
 30
0.0
  0
VERTEX
  8
BORDER
 10
30.0
 20
6.0
 30
0.0
  0
VERTEX
  8
BORDER
 10
25.5
 20
6.0
 30
0.0
  0
SEQEND
  8
BORDER
  0
ENDBLK
  8
0
  0
BLOCK
  8
0
  2
131SAET
 70
    64
 10
5.0
 20
5.0
 30
0.0
  3
131SAET
  0
CIRCLE
  8
CSOLID
 10
5.0
 20
5.0
 30
0.0
 40
0.6125
  0
CIRCLE
  8
CSOLID
 10
5.0
 20
5.0
 30
0.0
 40
0.562
  0
CIRCLE
  8
CSOLID
 10
5.0
 20
5.0
 30
0.0
 40
1.0
  0
INSERT
  8
CCENTER
  2
100CROSS
 10
5.0
 20
5.0
 30
0.0
 41
1.6
 42
1.6
 43
0.0
  0
CIRCLE
  8
CHIDDEN
 10
5.0
 20
5.0
 30
0.0
 40
0.65625
  0
ENDBLK
  8
0
  0
BLOCK
  8
0
  2
100CROSS
 70
    64
 10
5.625
 20
4.59375
 30
0.0
  3
100CROSS
  0
INSERT
  8
0
  2
050CROSS
 10
5.625
 20
4.59375
 30
0.0
 43
0.0
  0
ENDBLK
  8
0
  0
BLOCK
  8
0
  2
050CROSS
 70
    64
 10
5.0
 20
5.0
 30
0.0
  3
050CROSS
  0
LINE
  8
0
 10
5.0
 20
5.28125
 30
0.0
 11
5.0
 21
5.78125
 31
0.0
  0
LINE
  8
0
 10
5.0
 20
4.875
 30
0.0
 11
5.0
 21
5.125
 31
0.0
  0
LINE
  8
0
 10
5.0
 20
4.15625
 30
0.0
 11
5.0
 21
4.71875
 31
0.0
  0
LINE
  8
0
 10
5.25
 20
5.0
 30
0.0
 11
5.8125
 21
5.0
 31
0.0
  0
LINE
  8
0
 10
4.90625
 20
5.0
 30
0.0
 11
5.09375
 21
5.0
 31
0.0
  0
LINE
  8
0
 10
4.1875
 20
5.0
 30
0.0
 11
4.75
 21
5.0
 31
0.0
  0
ENDBLK
  8
0
  0
BLOCK
  8
0
  2
056SAET
 70
    64
 10
11.75
 20
9.75
 30
0.0
  3
056SAET
  0
INSERT
  8
CCENTER
  2
100CROSS
 10
11.75
 20
9.75
 30
0.0
 43
0.0
  0
CIRCLE
  8
CHIDDEN
 10
11.75
 20
9.75
 30
0.0
 40
0.28125
  0
CIRCLE
  8
CSOLID
 10
11.75
 20
9.75
 30
0.0
 40
0.5
  0
CIRCLE
  8
CSOLID
 10
11.75
 20
9.75
 30
0.0
 40
0.25
  0
ENDBLK
  8
0
  0
BLOCK
  8
0
  2
3
 70
    64
 10
30.0625
 20
12.375
 30
0.0
  3
3
  0
LINE
  8
0
 10
30.0865
 20
12.375
 30
0.0
 11
36.0865
 21
18.375
 31
0.0
  0
LINE
  8
0
 10
30.0865
 20
12.375
 30
0.0
 11
29.0865
 21
12.375
 31
0.0
  0
ARC
  8
0
 10
29.0865
 20
15.375
 30
0.0
 40
3.0
 50
90.0
 51
270.0
  0
LINE
  8
0
 10
29.0865
 20
18.375
 30
0.0
 11
36.0865
 21
18.375
 31
0.0
  0
ENDBLK
  8
0
  0
BLOCK
  8
0
  2
16SAET
 70
    64
 10
0.0
 20
0.0
 30
0.0
  3
16SAET
  0
CIRCLE
  8
DAMAN
 10
0.0
 20
0.0
 30
0.0
 40
0.6125
  0
CIRCLE
  8
DAMAN
 10
0.0
 20
0.0
 30
0.0
 40
0.562
  0
CIRCLE
  8
DAMAN
 10
0.0
 20
0.0
 30
0.0
 40
1.0
  0
INSERT
  8
DAMAN
  2
100CROSS
 10
0.0
 20
0.0
 30
0.0
 41
1.6
 42
1.6
 43
0.0
  0
CIRCLE
  8
DAMAN
 10
0.0
 20
0.0
 30
0.0
 40
0.65625
  0
ENDBLK
  8
0
  0
BLOCK
  8
0
  2
06SAET
 70
    64
 10
0.0
 20
0.0
 30
0.0
  3
06SAET
  0
INSERT
  8
DAMAN
  2
100CROSS
 10
0.0
 20
0.0
 30
0.0
 43
0.0
  0
CIRCLE
  8
DAMAN
 10
0.0
 20
0.0
 30
0.0
 40
0.28125
  0
CIRCLE
  8
DAMAN
 10
0.0
 20
0.0
 30
0.0
 40
0.5
  0
CIRCLE
  8
DAMAN
 10
0.0
 20
0.0
 30
0.0
 40
0.25
  0
ENDBLK
  8
0
  0
BLOCK
  8
CDIM
  2
025NPTFT
 70
    64
 10
11.75
 20
9.75
 30
0.0
  0
INSERT
  8
CCENTER
  2
100CROSS
 10
11.75
 20
9.75
 30
0.0
 43
0.0
  0
CIRCLE
  8
CHIDDEN
 10
11.75
 20
9.75
 30
0.0
 40
0.28125
  0
CIRCLE
  8
CSOLID
 10
11.75
 20
9.75
 30
0.0
 40
0.5
  0
CIRCLE
  8
CSOLID
 10
11.75
 20
9.75
 30
0.0
 40
0.25
  0
ENDBLK
  8
CDIM
  0
BLOCK
  8
0
  2
T3AT
 70
    64
 10
0.0
 20
0.0
 30
0.0
  3
T3AT
  0
CIRCLE
  8
DAMAN
 10
0.0
 20
0.0
 30
0.0
 40
0.4665
  0
CIRCLE
  8
DAMAN
 10
0.0
 20
0.0
 30
0.0
 40
0.4375
  0
CIRCLE
  8
DAMAN
  6
HIDDEN
 10
0.0
 20
0.0
 30
0.0
 40
0.5
  0
INSERT
  8
DAMAN
  2
100CROSS
 10
0.0
 20
0.0
 30
0.0
 41
0.88
 42
0.88
  0
CIRCLE
  8
DAMAN
 10
0.0
 20
0.0
 30
0.0
 40
0.516
  0
CIRCLE
  8
DAMAN
 10
0.0
 20
0.0
 30
0.0
 40
0.539
  0
CIRCLE
  8
DAMAN
 10
0.0
 20
0.0
 30
0.0
 40
0.344
  0
ENDBLK
  8
0
  0
ENDSEC
  0
SECTION
  2
ENTITIES
  0
INSERT
  8
DAMAN
  2
100CROSS
 10
25.65625
 20
12.875
 30
0.0
 41
0.62
 42
0.62
 43
0.0
  0
CIRCLE
  8
DAMAN
 10
25.65625
 20
12.875
 30
0.0
 40
0.203
  0
CIRCLE
  8
DAMAN
 10
24.78125
 20
7.75
 30
0.0
 40
0.203
  0
INSERT
  8
DAMAN
  2
100CROSS
 10
24.78125
 20
7.75
 30
0.0
 41
0.62
 42
0.62
 43
0.0
  0
INSERT
  8
DAMAN
  2
100CROSS
 10
12.78125
 20
12.875
 30
0.0
 41
0.625
 42
0.625
 43
0.0
  0
CIRCLE
  8
DAMAN
 10
12.78125
 20
12.875
 30
0.0
 40
0.203
  0
CIRCLE
  8
DAMAN
 10
12.78125
 20
12.875
 30
0.0
 40
0.3125
  0
CIRCLE
  8
DAMAN
 10
13.65625
 20
7.75
 30
0.0
 40
0.3125
  0
CIRCLE
  8
DAMAN
 10
13.65625
 20
7.75
 30
0.0
 40
0.203
  0
INSERT
  8
DAMAN
  2
100CROSS
 10
13.65625
 20
7.75
 30
0.0
 41
0.625
 42
0.625
 43
0.0
  0
INSERT
  8
DAMAN
  2
100CROSS
 10
14.28125
 20
8.437
 30
0.0
 41
0.438
 42
0.438
 43
0.0
  0
CIRCLE
  8
DAMAN
 10
14.28125
 20
8.437
 30
0.0
 40
0.219
  0
CIRCLE
  8
DAMAN
 10
12.15625
 20
12.187
 30
0.0
 40
0.219
  0
INSERT
  8
DAMAN
  2
100CROSS
 10
12.15625
 20
12.187
 30
0.0
 41
0.438
 42
0.438
 43
0.0
  0
INSERT
  8
DAMAN
  2
100CROSS
 10
15.21825
 20
9.15675
 30
0.0
 41
0.25
 42
0.25
 43
0.0
  0
CIRCLE
  8
DAMAN
 10
15.21825
 20
9.15675
 30
0.0
 40
0.1405
  0
CIRCLE
  8
DAMAN
 10
11.40625
 20
11.71875
 30
0.0
 40
0.1405
  0
INSERT
  8
DAMAN
  2
100CROSS
 10
11.40625
 20
11.71875
 30
0.0
 41
0.25
 42
0.25
 43
0.0
  0
CIRCLE
  8
DAMAN
 10
14.34425
 20
11.719
 30
0.0
 40
0.453
  0
INSERT
  8
DAMAN
  2
100CROSS
 10
14.34425
 20
11.719
 30
0.0
 41
0.844
 42
0.844
 43
0.0
  0
INSERT
  8
DAMAN
  2
100CROSS
 10
14.34425
 20
9.844
 30
0.0
 41
0.844
 42
0.844
 43
0.0
  0
CIRCLE
  8
DAMAN
 10
14.34425
 20
9.844
 30
0.0
 40
0.453
  0
INSERT
  8
DAMAN
  2
100CROSS
 10
12.09425
 20
10.7815
 30
0.0
 41
0.844
 42
0.844
 43
0.0
  0
CIRCLE
  8
DAMAN
 10
12.09425
 20
10.7815
 30
0.0
 40
0.453
  0
CIRCLE
  8
DAMAN
 10
12.09425
 20
8.9065
 30
0.0
 40
0.453
  0
INSERT
  8
DAMAN
  2
100CROSS
 10
12.09425
 20
8.9065
 30
0.0
 41
0.844
 42
0.844
 43
0.0
  0
CIRCLE
  8
DAMAN
 10
15.03125
 20
10.781
 30
0.0
 40
0.21875
  0
INSERT
  8
DAMAN
  2
100CROSS
 10
15.03125
 20
10.781
 30
0.0
 41
0.5
 42
0.5
 43
0.0
  0
INSERT
  8
DAMAN
  2
100CROSS
 10
11.40625
 20
9.844
 30
0.0
 41
0.5
 42
0.5
 43
0.0
  0
CIRCLE
  8
DAMAN
 10
11.40625
 20
9.844
 30
0.0
 40
0.21875
  0
INSERT
  8
DAMAN
  2
100CROSS
 10
15.03125
 20
7.75
 30
0.0
 41
0.5
 42
0.5
 43
0.0
  0
CIRCLE
  8
DAMAN
 10
15.03125
 20
7.75
 30
0.0
 40
0.21875
  0
INSERT
  8
DAMAN
  2
100CROSS
 10
15.03125
 20
12.875
 30
0.0
 41
0.5
 42
0.5
 43
0.0
  0
CIRCLE
  8
DAMAN
 10
15.03125
 20
12.875
 30
0.0
 40
0.21875
  0
INSERT
  8
DAMAN
  2
100CROSS
 10
11.40625
 20
7.75
 30
0.0
 41
0.5
 42
0.5
 43
0.0
  0
CIRCLE
  8
DAMAN
 10
11.40625
 20
7.75
 30
0.0
 40
0.21875
  0
CIRCLE
  8
DAMAN
 10
11.40625
 20
12.875
 30
0.0
 40
0.21875
  0
INSERT
  8
DAMAN
  2
100CROSS
 10
11.40625
 20
12.875
 30
0.0
 41
0.5
 42
0.5
 43
0.0
  0
CIRCLE
  8
DAMAN
 10
11.40625
 20
7.75
 30
0.0
 40
0.25
  0
CIRCLE
  8
DAMAN
 10
11.40625
 20
12.875
 30
0.0
 40
0.25
  0
CIRCLE
  8
DAMAN
 10
15.03125
 20
7.75
 30
0.0
 40
0.25
  0
CIRCLE
  8
DAMAN
 10
15.03125
 20
12.875
 30
0.0
 40
0.25
  0
CIRCLE
  8
DAMAN
 10
11.40625
 20
9.84375
 30
0.0
 40
0.25
  0
CIRCLE
  8
DAMAN
 10
15.03125
 20
10.781
 30
0.0
 40
0.25
  0
CIRCLE
  8
DAMAN
 10
18.53125
 20
11.84375
 30
0.0
 40
0.6125
  0
CIRCLE
  8
DAMAN
 10
18.53125
 20
11.84375
 30
0.0
 40
0.562
  0
CIRCLE
  8
DAMAN
 10
18.53125
 20
11.84375
 30
0.0
 40
1.0
  0
INSERT
  8
DAMAN
  2
100CROSS
 10
18.53125
 20
11.84375
 30
0.0
 41
1.6
 42
1.6
 43
0.0
  0
CIRCLE
  8
DAMAN
 10
18.53125
 20
11.84375
 30
0.0
 40
0.65625
  0
CIRCLE
  8
DAMAN
 10
18.53125
 20
9.71875
 30
0.0
 40
0.6125
  0
CIRCLE
  8
DAMAN
 10
18.53125
 20
9.71875
 30
0.0
 40
0.562
  0
CIRCLE
  8
DAMAN
 10
18.53125
 20
9.71875
 30
0.0
 40
1.0
  0
INSERT
  8
DAMAN
  2
100CROSS
 10
18.53125
 20
9.71875
 30
0.0
 41
1.6
 42
1.6
 43
0.0
  0
CIRCLE
  8
DAMAN
 10
18.53125
 20
9.71875
 30
0.0
 40
0.65625
  0
TEXT
  8
DAMAN
 10
8.125
 20
13.0625
 30
0.0
 40
0.25
  1
X
 50
270.0
  7
STR
  0
TEXT
  8
DAMAN
 10
9.03125
 20
12.03125
 30
0.0
 40
0.25
  1
A
 50
270.0
  7
STR
  0
TEXT
  8
DAMAN
 10
9.0
 20
7.875
 30
0.0
 40
0.25
  1
B
 50
270.0
  7
STR
  0
TEXT
  8
DAMAN
 10
18.78125
 20
7.53125
 30
0.0
 40
0.25
  1
Y
 50
90.0
  7
STR
  0
TEXT
  8
DAMAN
 10
17.875
 20
8.65625
 30
0.0
 40
0.25
  1
P
 50
90.0
  7
STR
  0
TEXT
  8
DAMAN
 10
17.84375
 20
12.71875
 30
0.0
 40
0.25
  1
T
 50
90.0
  7
STR
  0
TEXT
  8
DAMAN
 10
25.03125
 20
10.96875
 30
0.0
 40
0.25
  1
T
  7
STR
  0
TEXT
  8
DAMAN
 10
24.9375
 20
8.78125
 30
0.0
 40
0.25
  1
P
  7
STR
  0
POLYLINE
  8
DAMAN
 66
     1
 10
0.0
 20
0.0
 30
0.0
 70
     1
  0
VERTEX
  8
DAMAN
 10
6.46875
 20
13.3125
 30
0.0
  0
VERTEX
  8
DAMAN
 10
9.46875
 20
13.3125
 30
0.0
  0
VERTEX
  8
DAMAN
 10
9.46875
 20
7.3125
 30
0.0
  0
VERTEX
  8
DAMAN
 10
6.46875
 20
7.3125
 30
0.0
  0
SEQEND
  8
DAMAN
  0
POLYLINE
  8
DAMAN
 66
     1
 10
0.0
 20
0.0
 30
0.0
 70
     1
  0
VERTEX
  8
DAMAN
 10
10.96875
 20
17.8125
 30
0.0
  0
VERTEX
  8
DAMAN
 10
15.46875
 20
17.8125
 30
0.0
  0
VERTEX
  8
DAMAN
 10
15.46875
 20
15.3125
 30
0.0
  0
VERTEX
  8
DAMAN
 10
10.96875
 20
15.3125
 30
0.0
  0
SEQEND
  8
DAMAN
  0
POLYLINE
  8
DAMAN
 66
     1
 10
0.0
 20
0.0
 30
0.0
 70
     1
  0
VERTEX
  8
DAMAN
 10
10.96875
 20
13.3125
 30
0.0
  0
VERTEX
  8
DAMAN
 10
15.46875
 20
13.3125
 30
0.0
  0
VERTEX
  8
DAMAN
 10
15.46875
 20
7.3125
 30
0.0
  0
VERTEX
  8
DAMAN
 10
10.96875
 20
7.3125
 30
0.0
  0
SEQEND
  8
DAMAN
  0
POLYLINE
  8
DAMAN
 66
     1
 10
0.0
 20
0.0
 30
0.0
 70
     1
  0
VERTEX
  8
DAMAN
 10
17.46875
 20
13.3125
 30
0.0
  0
VERTEX
  8
DAMAN
 10
20.46875
 20
13.3125
 30
0.0
  0
VERTEX
  8
DAMAN
 10
20.46875
 20
7.3125
 30
0.0
  0
VERTEX
  8
DAMAN
 10
17.46875
 20
7.3125
 30
0.0
  0
SEQEND
  8
DAMAN
  0
POLYLINE
  8
DAMAN
 66
     1
 10
0.0
 20
0.0
 30
0.0
 70
     1
  0
VERTEX
  8
DAMAN
 10
22.96875
 20
13.3125
 30
0.0
  0
VERTEX
  8
DAMAN
 10
27.46875
 20
13.3125
 30
0.0
  0
VERTEX
  8
DAMAN
 10
27.46875
 20
7.3125
 30
0.0
  0
VERTEX
  8
DAMAN
 10
22.96875
 20
7.3125
 30
0.0
  0
SEQEND
  8
DAMAN
  0
POLYLINE
  8
DAMAN
 66
     1
 10
0.0
 20
0.0
 30
0.0
 70
     1
  0
VERTEX
  8
DAMAN
 10
10.96875
 20
2.8125
 30
0.0
  0
VERTEX
  8
DAMAN
 10
15.46875
 20
2.8125
 30
0.0
  0
VERTEX
  8
DAMAN
 10
15.46875
 20
5.3125
 30
0.0
  0
VERTEX
  8
DAMAN
 10
10.96875
 20
5.3125
 30
0.0
  0
SEQEND
  8
DAMAN
  0
TEXT
  8
DAMAN
 10
11.75
 20
4.03125
 30
0.0
 40
0.188
  1
DAMAN ****
  0
INSERT
  8
DAMAN
  2
16SAET
 10
8.34375
 20
10.90625
 30
0.0
  0
INSERT
  8
DAMAN
  2
16SAET
 10
8.34375
 20
8.78125
 30
0.0
  0
INSERT
  8
DAMAN
  2
16SAET
 10
23.96875
 20
9.71875
 30
0.0
  0
INSERT
  8
DAMAN
  2
16SAET
 10
23.96875
 20
11.84375
 30
0.0
  0
INSERT
  8
DAMAN
  2
06SAET
 10
7.71875
 20
12.40625
 30
0.0
  0
INSERT
  8
DAMAN
  2
06SAET
 10
19.21875
 20
8.21875
 30
0.0
  0
INSERT
  8
DAMAN
  2
T3AT
 10
13.78125
 20
16.4375
 30
0.0
  0
ENDSEC
  0
EOF
