  0
SECTION
  2
HEADER
  9
$ACADVER
  1
AC1014
  9
$ACADMAINTVER
 70
     9
  9
$DWGCODEPAGE
  3
ANSI_1252
  9
$INSBASE
 10
0.0
 20
0.0
 30
0.0
  9
$EXTMIN
 10
5.248405099788257
 20
3.436931380831445
 30
-0.0015258207003583
  9
$EXTMAX
 10
18.37544661882913
 20
12.66630196872464
 30
0.0000000349246037
  9
$LIMMIN
 10
0.0
 20
0.0
  9
$LIMMAX
 10
12.0
 20
9.0
  9
$ORTHOMODE
 70
     0
  9
$REGENMODE
 70
     1
  9
$FILLMODE
 70
     1
  9
$QTEXTMODE
 70
     0
  9
$MIRRTEXT
 70
     1
  9
$DRAGMODE
 70
     2
  9
$LTSCALE
 40
1.0
  9
$OSMODE
 70
    37
  9
$ATTMODE
 70
     1
  9
$TEXTSIZE
 40
0.188
  9
$TRACEWID
 40
0.05
  9
$TEXTSTYLE
  7
STANDARD
  9
$CLAYER
  8
DAMAN
  9
$CELTYPE
  6
BYLAYER
  9
$CECOLOR
 62
   256
  9
$CELTSCALE
 40
1.0
  9
$DELOBJ
 70
     1
  9
$DISPSILH
 70
     0
  9
$DIMSCALE
 40
1.0
  9
$DIMASZ
 40
0.18
  9
$DIMEXO
 40
0.0625
  9
$DIMDLI
 40
0.38
  9
$DIMRND
 40
0.0
  9
$DIMDLE
 40
0.0
  9
$DIMEXE
 40
0.18
  9
$DIMTP
 40
0.0
  9
$DIMTM
 40
0.0
  9
$DIMTXT
 40
0.18
  9
$DIMCEN
 40
0.09
  9
$DIMTSZ
 40
0.0
  9
$DIMTOL
 70
     0
  9
$DIMLIM
 70
     0
  9
$DIMTIH
 70
     1
  9
$DIMTOH
 70
     1
  9
$DIMSE1
 70
     0
  9
$DIMSE2
 70
     0
  9
$DIMTAD
 70
     0
  9
$DIMZIN
 70
     0
  9
$DIMBLK
  1

  9
$DIMASO
 70
     1
  9
$DIMSHO
 70
     1
  9
$DIMPOST
  1

  9
$DIMAPOST
  1

  9
$DIMALT
 70
     0
  9
$DIMALTD
 70
     2
  9
$DIMALTF
 40
25.4
  9
$DIMLFAC
 40
1.0
  9
$DIMTOFL
 70
     0
  9
$DIMTVP
 40
0.0
  9
$DIMTIX
 70
     0
  9
$DIMSOXD
 70
     0
  9
$DIMSAH
 70
     0
  9
$DIMBLK1
  1

  9
$DIMBLK2
  1

  9
$DIMSTYLE
  2
STANDARD
  9
$DIMCLRD
 70
     0
  9
$DIMCLRE
 70
     0
  9
$DIMCLRT
 70
     0
  9
$DIMTFAC
 40
1.0
  9
$DIMGAP
 40
0.09
  9
$DIMJUST
 70
     0
  9
$DIMSD1
 70
     0
  9
$DIMSD2
 70
     0
  9
$DIMTOLJ
 70
     1
  9
$DIMTZIN
 70
     0
  9
$DIMALTZ
 70
     0
  9
$DIMALTTZ
 70
     0
  9
$DIMFIT
 70
     3
  9
$DIMUPT
 70
     0
  9
$DIMUNIT
 70
     2
  9
$DIMDEC
 70
     4
  9
$DIMTDEC
 70
     4
  9
$DIMALTU
 70
     2
  9
$DIMALTTD
 70
     2
  9
$DIMTXSTY
  7
STANDARD
  9
$DIMAUNIT
 70
     0
  9
$LUNITS
 70
     2
  9
$LUPREC
 70
     4
  9
$SKETCHINC
 40
0.1
  9
$FILLETRAD
 40
0.0
  9
$AUNITS
 70
     0
  9
$AUPREC
 70
     0
  9
$MENU
  1
tom
  9
$ELEVATION
 40
0.0
  9
$PELEVATION
 40
0.0
  9
$THICKNESS
 40
0.0
  9
$LIMCHECK
 70
     0
  9
$BLIPMODE
 70
     0
  9
$CHAMFERA
 40
0.0
  9
$CHAMFERB
 40
0.0
  9
$CHAMFERC
 40
0.0
  9
$CHAMFERD
 40
0.0
  9
$SKPOLY
 70
     0
  9
$TDCREATE
 40
2449746.448585798
  9
$TDUPDATE
 40
2453434.601467071
  9
$TDINDWG
 40
0.0019712153
  9
$TDUSRTIMER
 40
0.0019712153
  9
$USRTIMER
 70
     1
  9
$ANGBASE
 50
0.0
  9
$ANGDIR
 70
     0
  9
$PDMODE
 70
     0
  9
$PDSIZE
 40
0.0
  9
$PLINEWID
 40
0.0
  9
$COORDS
 70
     1
  9
$SPLFRAME
 70
     0
  9
$SPLINETYPE
 70
     6
  9
$SPLINESEGS
 70
     8
  9
$ATTDIA
 70
     0
  9
$ATTREQ
 70
     1
  9
$HANDLING
 70
-16383
  9
$HANDSEED
  5
1E1
  9
$SURFTAB1
 70
     6
  9
$SURFTAB2
 70
     6
  9
$SURFTYPE
 70
     6
  9
$SURFU
 70
     6
  9
$SURFV
 70
     6
  9
$UCSNAME
  2

  9
$UCSORG
 10
0.0
 20
0.0
 30
0.0
  9
$UCSXDIR
 10
1.0
 20
0.0
 30
0.0
  9
$UCSYDIR
 10
0.0
 20
1.0
 30
0.0
  9
$PUCSNAME
  2

  9
$PUCSORG
 10
0.0
 20
0.0
 30
0.0
  9
$PUCSXDIR
 10
1.0
 20
0.0
 30
0.0
  9
$PUCSYDIR
 10
0.0
 20
1.0
 30
0.0
  9
$USERI1
 70
     0
  9
$USERI2
 70
     0
  9
$USERI3
 70
     0
  9
$USERI4
 70
     0
  9
$USERI5
 70
     0
  9
$USERR1
 40
0.0
  9
$USERR2
 40
0.0
  9
$USERR3
 40
0.0
  9
$USERR4
 40
0.0
  9
$USERR5
 40
0.0
  9
$WORLDVIEW
 70
     1
  9
$SHADEDGE
 70
     3
  9
$SHADEDIF
 70
    70
  9
$TILEMODE
 70
     1
  9
$MAXACTVP
 70
    16
  9
$PINSBASE
 10
0.0
 20
0.0
 30
0.0
  9
$PLIMCHECK
 70
     0
  9
$PEXTMIN
 10
1.000000000000000E+20
 20
1.000000000000000E+20
 30
1.000000000000000E+20
  9
$PEXTMAX
 10
-1.000000000000000E+20
 20
-1.000000000000000E+20
 30
-1.000000000000000E+20
  9
$PLIMMIN
 10
0.0
 20
0.0
  9
$PLIMMAX
 10
12.0
 20
9.0
  9
$UNITMODE
 70
     0
  9
$VISRETAIN
 70
     0
  9
$PLINEGEN
 70
     0
  9
$PSLTSCALE
 70
     1
  9
$TREEDEPTH
 70
  3020
  9
$PICKSTYLE
 70
     1
  9
$CMLSTYLE
  2
STANDARD
  9
$CMLJUST
 70
     0
  9
$CMLSCALE
 40
1.0
  9
$PROXYGRAPHICS
 70
     1
  9
$MEASUREMENT
 70
     0
  0
ENDSEC
  0
SECTION
  2
CLASSES
  0
CLASS
  1
ACDBDICTIONARYWDFLT
  2
AcDbDictionaryWithDefault
  3
AutoCAD 2000
 90
        0
280
     0
281
     0
  0
CLASS
  1
ACDBPLACEHOLDER
  2
AcDbPlaceHolder
  3
AutoCAD 2000
 90
        0
280
     0
281
     0
  0
CLASS
  1
LAYOUT
  2
AcDbLayout
  3
AutoCAD 2000
 90
        0
280
     0
281
     0
  0
CLASS
  1
LONG_TRANSACTION
  2
AcDbLongTransaction
  3
AutoCAD 2000
 90
        0
280
     0
281
     0
  0
CLASS
  1
LWPOLYLINE
  2
AcDbPolyline
  3
AutoCAD 2000
 90
        0
280
     0
281
     1
  0
CLASS
  1
HATCH
  2
AcDbHatch
  3
AutoCAD 2000
 90
        0
280
     0
281
     1
  0
CLASS
  1
XRECORD
  2
AcDbXrecord
  3
AutoCAD 2000
 90
        0
280
     0
281
     0
  0
ENDSEC
  0
SECTION
  2
TABLES
  0
TABLE
  2
VPORT
  5
8
330
0
100
AcDbSymbolTable
 70
     6
  0
VPORT
  5
1BC
330
8
100
AcDbSymbolTableRecord
100
AcDbViewportTableRecord
  2
*ACTIVE
 70
     0
 10
0.0
 20
0.0
 11
1.0
 21
1.0
 12
11.87668519294113
 22
7.963007648610481
 13
0.0
 23
0.0
 14
0.03125
 24
0.03125
 15
0.0
 25
0.0
 16
0.0
 26
0.0
 36
1.0
 17
0.0
 27
0.0
 37
0.0
 40
10.24903375206274
 41
1.647569444444444
 42
50.0
 43
0.0
 44
0.0
 50
0.0
 51
0.0
 71
     0
 72
   100
 73
     1
 74
     1
 75
     1
 76
     0
 77
     0
 78
     0
  0
ENDTAB
  0
TABLE
  2
LTYPE
  5
5
330
0
100
AcDbSymbolTable
 70
     4
  0
LTYPE
  5
13
330
5
100
AcDbSymbolTableRecord
100
AcDbLinetypeTableRecord
  2
BYBLOCK
 70
     0
  3

 72
    65
 73
     0
 40
0.0
  0
LTYPE
  5
14
330
5
100
AcDbSymbolTableRecord
100
AcDbLinetypeTableRecord
  2
BYLAYER
 70
     0
  3

 72
    65
 73
     0
 40
0.0
  0
LTYPE
  5
15
330
5
100
AcDbSymbolTableRecord
100
AcDbLinetypeTableRecord
  2
CONTINUOUS
 70
     0
  3
Solid line
 72
    65
 73
     0
 40
0.0
  0
LTYPE
  5
24
330
5
100
AcDbSymbolTableRecord
100
AcDbLinetypeTableRecord
  2
HIDDEN
 70
     0
  3
_ _ _ _ _ _ _ _ _ _ _ _ _ _ _ _ _ _ _ _ _ _ _
 72
    65
 73
     2
 40
0.375
 49
0.25
 74
     0
 49
-0.125
 74
     0
  0
LTYPE
  5
25
330
5
100
AcDbSymbolTableRecord
100
AcDbLinetypeTableRecord
  2
CENTER
 70
     0
  3
____ _ ____ _ ____ _ ____ _ ____ _ ____ _ ____
 72
    65
 73
     4
 40
2.0
 49
1.25
 74
     0
 49
-0.25
 74
     0
 49
0.25
 74
     0
 49
-0.25
 74
     0
  0
LTYPE
  5
26
330
5
100
AcDbSymbolTableRecord
100
AcDbLinetypeTableRecord
  2
PHANTOM
 70
     0
  3
_____ _ _ _____ _ _ _____ _ _ _____ _ _ ____
 72
    65
 73
     6
 40
2.5
 49
1.25
 74
     0
 49
-0.25
 74
     0
 49
0.25
 74
     0
 49
-0.25
 74
     0
 49
0.25
 74
     0
 49
-0.25
 74
     0
  0
ENDTAB
  0
TABLE
  2
LAYER
  5
2
330
0
100
AcDbSymbolTable
 70
    10
  0
LAYER
  5
10
330
2
100
AcDbSymbolTableRecord
100
AcDbLayerTableRecord
  2
0
 70
     0
 62
     7
  6
CONTINUOUS
  0
LAYER
  5
22
330
2
100
AcDbSymbolTableRecord
100
AcDbLayerTableRecord
  2
DAMAN
 70
     0
 62
     5
  6
CONTINUOUS
  0
LAYER
  5
27
330
2
100
AcDbSymbolTableRecord
100
AcDbLayerTableRecord
  2
BORDER
 70
     0
 62
     7
  6
CONTINUOUS
  0
LAYER
  5
28
330
2
100
AcDbSymbolTableRecord
100
AcDbLayerTableRecord
  2
CSOLID
 70
     0
 62
     3
  6
CONTINUOUS
  0
LAYER
  5
29
330
2
100
AcDbSymbolTableRecord
100
AcDbLayerTableRecord
  2
SOLID
 70
     0
 62
     4
  6
CONTINUOUS
  0
LAYER
  5
2A
330
2
100
AcDbSymbolTableRecord
100
AcDbLayerTableRecord
  2
CHIDDEN
 70
     0
 62
     3
  6
HIDDEN
  0
LAYER
  5
2B
330
2
100
AcDbSymbolTableRecord
100
AcDbLayerTableRecord
  2
CDIM
 70
     0
 62
     2
  6
CONTINUOUS
  0
LAYER
  5
2C
330
2
100
AcDbSymbolTableRecord
100
AcDbLayerTableRecord
  2
DIM
 70
     0
 62
     5
  6
CONTINUOUS
  0
LAYER
  5
2D
330
2
100
AcDbSymbolTableRecord
100
AcDbLayerTableRecord
  2
CCENTER
 70
     0
 62
     4
  6
CENTER
  0
LAYER
  5
2E
330
2
100
AcDbSymbolTableRecord
100
AcDbLayerTableRecord
  2
PHANTOM
 70
     0
 62
     1
  6
PHANTOM
  0
ENDTAB
  0
TABLE
  2
STYLE
  5
3
330
0
100
AcDbSymbolTable
 70
     2
  0
STYLE
  5
11
330
3
100
AcDbSymbolTableRecord
100
AcDbTextStyleTableRecord
  2
STANDARD
 70
     0
 40
0.0
 41
1.0
 50
0.0
 71
     0
 42
0.188
  3
txt
  4

  0
STYLE
  5
2F
330
3
100
AcDbSymbolTableRecord
100
AcDbTextStyleTableRecord
  2
STR
 70
     0
 40
0.0
 41
1.0
 50
0.0
 71
     0
 42
0.25
  3
SIMPLEX
  4

  0
ENDTAB
  0
TABLE
  2
VIEW
  5
6
330
0
100
AcDbSymbolTable
 70
     0
  0
ENDTAB
  0
TABLE
  2
UCS
  5
7
330
0
100
AcDbSymbolTable
 70
     0
  0
ENDTAB
  0
TABLE
  2
APPID
  5
9
330
0
100
AcDbSymbolTable
 70
     1
  0
APPID
  5
12
330
9
100
AcDbSymbolTableRecord
100
AcDbRegAppTableRecord
  2
ACAD
 70
     0
  0
ENDTAB
  0
TABLE
  2
DIMSTYLE
  5
A
330
0
100
AcDbSymbolTable
 70
     1
  0
DIMSTYLE
105
1B7
330
A
100
AcDbSymbolTableRecord
100
AcDbDimStyleTableRecord
  2
STANDARD
 70
     0
  3

  4

  5

  6

  7

 40
1.0
 41
0.18
 42
0.0625
 43
0.38
 44
0.18
 45
0.0
 46
0.0
 47
0.0
 48
0.0
140
0.18
141
0.09
142
0.0
143
25.4
144
1.0
145
0.0
146
1.0
147
0.09
 71
     0
 72
     0
 73
     1
 74
     1
 75
     0
 76
     0
 77
     0
 78
     0
170
     0
171
     2
172
     0
173
     0
174
     0
175
     0
176
     0
177
     0
178
     0
270
     2
271
     4
272
     4
273
     2
274
     2
340
11
275
     0
280
     0
281
     0
282
     0
283
     1
284
     0
285
     0
286
     0
287
     3
288
     0
  0
ENDTAB
  0
TABLE
  2
BLOCK_RECORD
  5
1
330
0
100
AcDbSymbolTable
 70
     8
  0
BLOCK_RECORD
  5
1E
102
{ACAD_XDICTIONARY
360
1DF
102
}
330
1
100
AcDbSymbolTableRecord
100
AcDbBlockTableRecord
  2
*MODEL_SPACE
  0
BLOCK_RECORD
  5
1A
102
{ACAD_XDICTIONARY
360
1DD
102
}
330
1
100
AcDbSymbolTableRecord
100
AcDbBlockTableRecord
  2
*PAPER_SPACE
  0
BLOCK_RECORD
  5
32
330
1
100
AcDbSymbolTableRecord
100
AcDbBlockTableRecord
  2
D08SPB
  0
BLOCK_RECORD
  5
46
330
1
100
AcDbSymbolTableRecord
100
AcDbBlockTableRecord
  2
D06C
  0
BLOCK_RECORD
  5
48
330
1
100
AcDbSymbolTableRecord
100
AcDbBlockTableRecord
  2
100CROSS
  0
BLOCK_RECORD
  5
12D
330
1
100
AcDbSymbolTableRecord
100
AcDbBlockTableRecord
  2
050CROSS
  0
BLOCK_RECORD
  5
138
330
1
100
AcDbSymbolTableRecord
100
AcDbBlockTableRecord
  2
3
  0
BLOCK_RECORD
  5
13F
330
1
100
AcDbSymbolTableRecord
100
AcDbBlockTableRecord
  2
100NPTFT
  0
BLOCK_RECORD
  5
146
330
1
100
AcDbSymbolTableRecord
100
AcDbBlockTableRecord
  2
025NPTFT
  0
BLOCK_RECORD
  5
148
330
1
100
AcDbSymbolTableRecord
100
AcDbBlockTableRecord
  2
250NPTFT
  0
ENDTAB
  0
ENDSEC
  0
SECTION
  2
BLOCKS
  0
BLOCK
  5
1F
330
1E
100
AcDbEntity
  8
0
100
AcDbBlockBegin
  2
*MODEL_SPACE
 70
     0
 10
0.0
 20
0.0
 30
0.0
  3
*MODEL_SPACE
  1

  0
ENDBLK
  5
20
330
1E
100
AcDbEntity
  8
0
100
AcDbBlockEnd
  0
BLOCK
  5
1B
330
1A
100
AcDbEntity
 67
     1
  8
0
100
AcDbBlockBegin
  2
*PAPER_SPACE
 70
     0
 10
0.0
 20
0.0
 30
0.0
  3
*PAPER_SPACE
  1

  0
ENDBLK
  5
1C
330
1A
100
AcDbEntity
 67
     1
  8
0
100
AcDbBlockEnd
  0
BLOCK
  5
33
330
32
100
AcDbEntity
  8
0
100
AcDbBlockBegin
  2
D08SPB
 70
     0
 10
0.0
 20
0.0
 30
0.0
  3
D08SPB
  1

  0
LWPOLYLINE
  5
34
330
32
100
AcDbEntity
  8
BORDER
100
AcDbPolyline
 90
        4
 70
     1
 43
0.0
 10
11.75
 20
5.25
 10
11.75
 20
11.37499999999999
 10
13.0
 20
11.37499999999999
 10
13.0
 20
5.25
  0
LWPOLYLINE
  5
3A
330
32
100
AcDbEntity
  8
BORDER
100
AcDbPolyline
 90
        4
 70
     1
 43
0.0
 10
4.0
 20
5.25
 10
4.0
 20
11.37499999999999
 10
8.5
 20
11.37499999999999
 10
8.5
 20
5.25
  0
LWPOLYLINE
  5
40
330
32
100
AcDbEntity
  8
BORDER
100
AcDbPolyline
 90
        4
 70
     1
 43
0.0
 10
17.25
 20
5.25
 10
17.25
 20
11.37499999999999
 10
21.75
 20
11.37499999999999
 10
21.75
 20
5.25
  0
INSERT
  5
47
330
32
100
AcDbEntity
  8
CSOLID
100
AcDbBlockReference
  2
D06C
 10
4.4375
 20
10.875
 30
0.0
  0
INSERT
  5
49
330
32
100
AcDbEntity
  8
CCENTER
100
AcDbBlockReference
  2
100CROSS
 10
6.25
 20
10.875
 30
0.0
 41
0.8125
 42
0.8125
 43
0.8125
  0
INSERT
  5
4A
330
32
100
AcDbEntity
  8
CCENTER
100
AcDbBlockReference
  2
100CROSS
 10
6.25
 20
5.75
 30
0.0
 41
0.8125
 42
0.8125
 43
0.8125
  0
CIRCLE
  5
4B
330
32
100
AcDbEntity
  8
CSOLID
100
AcDbCircle
 10
6.25
 20
5.75
 30
0.0
 40
0.40625
  0
CIRCLE
  5
4C
330
32
100
AcDbEntity
  8
CSOLID
100
AcDbCircle
 10
6.25
 20
5.75
 30
0.0
 40
0.265625
  0
CIRCLE
  5
4D
330
32
100
AcDbEntity
  8
CSOLID
100
AcDbCircle
 10
6.25
 20
10.875
 30
0.0
 40
0.265625
  0
CIRCLE
  5
4E
330
32
100
AcDbEntity
  8
CSOLID
100
AcDbCircle
 10
6.25
 20
10.875
 30
0.0
 40
0.40625
  0
CIRCLE
  5
4F
330
32
100
AcDbEntity
  8
CSOLID
100
AcDbCircle
 10
19.5
 20
10.875
 30
0.0
 40
0.265625
  0
CIRCLE
  5
50
330
32
100
AcDbEntity
  8
CSOLID
100
AcDbCircle
 10
19.5
 20
5.75
 30
0.0
 40
0.265625
  0
INSERT
  5
51
330
32
100
AcDbEntity
  8
CCENTER
100
AcDbBlockReference
  2
100CROSS
 10
19.5
 20
5.75
 30
0.0
 41
-0.8125
 42
0.8125
 43
0.8125
  0
INSERT
  5
52
330
32
100
AcDbEntity
  8
CCENTER
100
AcDbBlockReference
  2
100CROSS
 10
19.5
 20
10.875
 30
0.0
 41
-0.8125
 42
0.8125
 43
0.8125
  0
CIRCLE
  5
53
330
32
100
AcDbEntity
  8
CSOLID
100
AcDbCircle
 10
17.6875
 20
8.781
 30
0.0
 40
0.21875
  0
INSERT
  5
54
330
32
100
AcDbEntity
  8
CCENTER
100
AcDbBlockReference
  2
100CROSS
 10
17.6875
 20
8.781
 30
0.0
 41
-0.5
 42
0.5
  0
INSERT
  5
55
330
32
100
AcDbEntity
  8
CCENTER
100
AcDbBlockReference
  2
100CROSS
 10
21.3125
 20
7.843999999999999
 30
0.0
 41
-0.5
 42
0.5
  0
CIRCLE
  5
56
330
32
100
AcDbEntity
  8
CSOLID
100
AcDbCircle
 10
21.3125
 20
7.843999999999999
 30
0.0
 40
0.21875
  0
INSERT
  5
57
330
32
100
AcDbEntity
  8
CCENTER
100
AcDbBlockReference
  2
100CROSS
 10
17.6875
 20
5.75
 30
0.0
 41
-0.5
 42
0.5
  0
CIRCLE
  5
58
330
32
100
AcDbEntity
  8
CSOLID
100
AcDbCircle
 10
17.6875
 20
5.75
 30
0.0
 40
0.21875
  0
INSERT
  5
59
330
32
100
AcDbEntity
  8
CCENTER
100
AcDbBlockReference
  2
100CROSS
 10
17.6875
 20
10.875
 30
0.0
 41
-0.5
 42
0.5
  0
CIRCLE
  5
5A
330
32
100
AcDbEntity
  8
CSOLID
100
AcDbCircle
 10
17.6875
 20
10.875
 30
0.0
 40
0.21875
  0
INSERT
  5
5B
330
32
100
AcDbEntity
  8
CCENTER
100
AcDbBlockReference
  2
100CROSS
 10
21.3125
 20
5.75
 30
0.0
 41
-0.5
 42
0.5
  0
CIRCLE
  5
5C
330
32
100
AcDbEntity
  8
CSOLID
100
AcDbCircle
 10
21.3125
 20
5.75
 30
0.0
 40
0.21875
  0
CIRCLE
  5
5D
330
32
100
AcDbEntity
  8
CSOLID
100
AcDbCircle
 10
21.3125
 20
10.875
 30
0.0
 40
0.21875
  0
INSERT
  5
5E
330
32
100
AcDbEntity
  8
CCENTER
100
AcDbBlockReference
  2
100CROSS
 10
21.3125
 20
10.875
 30
0.0
 41
-0.5
 42
0.5
  0
CIRCLE
  5
5F
330
32
100
AcDbEntity
  8
CSOLID
100
AcDbCircle
 10
18.375
 20
9.71875
 30
0.0
 40
0.6125
  0
CIRCLE
  5
60
330
32
100
AcDbEntity
  8
CSOLID
100
AcDbCircle
 10
18.375
 20
9.71875
 30
0.0
 40
0.5620000000000001
  0
ARC
  5
61
330
32
100
AcDbEntity
  8
CSOLID
100
AcDbCircle
 10
18.375
 20
9.71875
 30
0.0
 40
1.0
100
AcDbArc
 50
290.3694199999999
 51
225.98225
  0
INSERT
  5
62
330
32
100
AcDbEntity
  8
CCENTER
100
AcDbBlockReference
  2
100CROSS
 10
18.375
 20
9.71875
 30
0.0
 41
1.6
 42
1.6
  0
CIRCLE
  5
63
330
32
100
AcDbEntity
  8
CHIDDEN
100
AcDbCircle
 10
18.375
 20
9.71875
 30
0.0
 40
0.65625
  0
CIRCLE
  5
64
330
32
100
AcDbEntity
  8
CSOLID
100
AcDbCircle
 10
18.3745
 20
7.843999999999999
 30
0.0
 40
0.6125
  0
CIRCLE
  5
65
330
32
100
AcDbEntity
  8
CSOLID
100
AcDbCircle
 10
18.3745
 20
7.843999999999999
 30
0.0
 40
0.5620000000000001
  0
ARC
  5
66
330
32
100
AcDbEntity
  8
CSOLID
100
AcDbCircle
 10
18.3745
 20
7.843999999999999
 30
0.0
 40
1.0
100
AcDbArc
 50
110.3694199999999
 51
118.4212169999999
  0
INSERT
  5
67
330
32
100
AcDbEntity
  8
CCENTER
100
AcDbBlockReference
  2
100CROSS
 10
18.3745
 20
7.843999999999999
 30
0.0
 41
1.6
 42
1.6
  0
CIRCLE
  5
68
330
32
100
AcDbEntity
  8
CHIDDEN
100
AcDbCircle
 10
18.3745
 20
7.843999999999999
 30
0.0
 40
0.65625
  0
INSERT
  5
69
330
32
100
AcDbEntity
  8
CCENTER
100
AcDbBlockReference
  2
100CROSS
 10
18.4375
 20
6.4375
 30
0.0
  0
CIRCLE
  5
6A
330
32
100
AcDbEntity
  8
CHIDDEN
100
AcDbCircle
 10
18.4375
 20
6.4375
 30
0.0
 40
0.28125
  0
ARC
  5
6B
330
32
100
AcDbEntity
  8
CSOLID
100
AcDbCircle
 10
18.4375
 20
6.4375
 30
0.0
 40
0.5
100
AcDbArc
 50
121.495336
 51
63.634025
  0
CIRCLE
  5
6C
330
32
100
AcDbEntity
  8
CSOLID
100
AcDbCircle
 10
18.4375
 20
6.4375
 30
0.0
 40
0.25
  0
CIRCLE
  5
6D
330
32
100
AcDbEntity
  8
CSOLID
100
AcDbCircle
 10
20.6245
 20
6.9065
 30
0.0
 40
0.6125
  0
CIRCLE
  5
6E
330
32
100
AcDbEntity
  8
CSOLID
100
AcDbCircle
 10
20.6245
 20
6.9065
 30
0.0
 40
0.5620000000000001
  0
ARC
  5
6F
330
32
100
AcDbEntity
  8
CSOLID
100
AcDbCircle
 10
20.6245
 20
6.9065
 30
0.0
 40
1.0
100
AcDbArc
 50
110.364135
 51
45.961001
  0
INSERT
  5
70
330
32
100
AcDbEntity
  8
CCENTER
100
AcDbBlockReference
  2
100CROSS
 10
20.6245
 20
6.9065
 30
0.0
 41
1.6
 42
1.6
  0
CIRCLE
  5
71
330
32
100
AcDbEntity
  8
CHIDDEN
100
AcDbCircle
 10
20.6245
 20
6.9065
 30
0.0
 40
0.65625
  0
CIRCLE
  5
72
330
32
100
AcDbEntity
  8
CSOLID
100
AcDbCircle
 10
20.6245
 20
8.781499999999999
 30
0.0
 40
0.6125
  0
CIRCLE
  5
73
330
32
100
AcDbEntity
  8
CSOLID
100
AcDbCircle
 10
20.6245
 20
8.781499999999999
 30
0.0
 40
0.5620000000000001
  0
ARC
  5
74
330
32
100
AcDbEntity
  8
CSOLID
100
AcDbCircle
 10
20.6245
 20
8.781499999999999
 30
0.0
 40
1.0
100
AcDbArc
 50
106.5621539999999
 51
249.6358649999999
  0
INSERT
  5
75
330
32
100
AcDbEntity
  8
CCENTER
100
AcDbBlockReference
  2
100CROSS
 10
20.6245
 20
8.781499999999999
 30
0.0
 41
1.6
 42
1.6
  0
CIRCLE
  5
76
330
32
100
AcDbEntity
  8
CHIDDEN
100
AcDbCircle
 10
20.6245
 20
8.781499999999999
 30
0.0
 40
0.65625
  0
INSERT
  5
77
330
32
100
AcDbEntity
  8
CCENTER
100
AcDbBlockReference
  2
100CROSS
 10
20.56249999999999
 20
10.1875
 30
0.0
  0
CIRCLE
  5
78
330
32
100
AcDbEntity
  8
CHIDDEN
100
AcDbCircle
 10
20.56249999999999
 20
10.1875
 30
0.0
 40
0.28125
  0
ARC
  5
79
330
32
100
AcDbEntity
  8
CSOLID
100
AcDbCircle
 10
20.56249999999999
 20
10.1875
 30
0.0
 40
0.5
100
AcDbArc
 50
301.5442569999999
 51
243.5055849999999
  0
CIRCLE
  5
7A
330
32
100
AcDbEntity
  8
CSOLID
100
AcDbCircle
 10
20.56249999999999
 20
10.1875
 30
0.0
 40
0.25
  0
ARC
  5
7B
330
32
100
AcDbEntity
  8
CSOLID
100
AcDbCircle
 10
20.6245
 20
8.781499999999999
 30
0.0
 40
1.0
100
AcDbArc
 50
290.364135
 51
298.50841
  0
ARC
  5
7C
330
32
100
AcDbEntity
  8
CSOLID
100
AcDbCircle
 10
20.6245
 20
8.781499999999999
 30
0.0
 40
1.0
100
AcDbArc
 50
314.038999
 51
78.48768800000001
  0
ARC
  5
7D
330
32
100
AcDbEntity
  8
CSOLID
100
AcDbCircle
 10
20.6245
 20
6.9065
 30
0.0
 40
1.0
100
AcDbArc
 50
61.49159
 51
69.63586499999999
  0
ARC
  5
7E
330
32
100
AcDbEntity
  8
CSOLID
100
AcDbCircle
 10
18.3745
 20
7.843999999999999
 30
0.0
 40
1.0
100
AcDbArc
 50
134.0758539999999
 51
258.567428
  0
ARC
  5
7F
330
32
100
AcDbEntity
  8
CSOLID
100
AcDbCircle
 10
18.375
 20
9.71875
 30
0.0
 40
1.0
100
AcDbArc
 50
241.5246439999999
 51
249.600018
  0
ARC
  5
80
330
32
100
AcDbEntity
  8
CSOLID
100
AcDbCircle
 10
18.3745
 20
7.843999999999999
 30
0.0
 40
1.0
100
AcDbArc
 50
286.5619319999999
 51
69.600018
  0
LINE
  5
81
330
32
100
AcDbEntity
  8
CDIM
100
AcDbLine
 10
4.0
 20
11.526875
 30
0.0
 11
4.0
 21
12.42875
 31
0.0
  0
LINE
  5
82
330
32
100
AcDbEntity
  8
CDIM
100
AcDbLine
 10
7.375499999999999
 20
10.323875
 30
0.0
 11
7.375499999999999
 21
12.42875
 31
0.0
  0
LINE
  5
83
330
32
100
AcDbEntity
  8
CDIM
100
AcDbLine
 10
4.303749999999999
 20
12.125
 30
0.0
 11
4.865599999999999
 21
12.125
 31
0.0
  0
LINE
  5
84
330
32
100
AcDbEntity
  8
CDIM
100
AcDbLine
 10
7.071749999999999
 20
12.125
 30
0.0
 11
6.5099
 21
12.125
 31
0.0
  0
SOLID
  5
85
330
32
100
AcDbEntity
  8
CDIM
100
AcDbTrace
 10
4.303749999999999
 20
12.074375
 30
0.0
 11
4.303749999999999
 21
12.175625
 31
0.0
 12
4.0
 22
12.125
 32
0.0
 13
4.0
 23
12.125
 33
0.0
  0
SOLID
  5
86
330
32
100
AcDbEntity
  8
CDIM
100
AcDbTrace
 10
7.071749999999999
 20
12.074375
 30
0.0
 11
7.071749999999999
 21
12.175625
 31
0.0
 12
7.375499999999999
 22
12.125
 32
0.0
 13
7.375499999999999
 23
12.125
 33
0.0
  0
TEXT
  5
87
330
32
100
AcDbEntity
  8
CDIM
100
AcDbText
 10
5.169349999999999
 20
11.9549
 30
0.0
 40
0.3402
  1
3.44
  7
STR
100
AcDbText
  0
LINE
  5
88
330
32
100
AcDbEntity
  8
CDIM
100
AcDbLine
 10
4.0
 20
11.526875
 30
0.0
 11
4.0
 21
13.34
 31
0.0
  0
LINE
  5
89
330
32
100
AcDbEntity
  8
CDIM
100
AcDbLine
 10
8.5
 20
11.526875
 30
0.0
 11
8.5
 21
13.34
 31
0.0
  0
LINE
  5
8A
330
32
100
AcDbEntity
  8
CDIM
100
AcDbLine
 10
4.303749999999999
 20
13.03625
 30
0.0
 11
5.42785
 21
13.03625
 31
0.0
  0
LINE
  5
8B
330
32
100
AcDbEntity
  8
CDIM
100
AcDbLine
 10
8.196249999999999
 20
13.03625
 30
0.0
 11
7.072149999999999
 21
13.03625
 31
0.0
  0
SOLID
  5
8C
330
32
100
AcDbEntity
  8
CDIM
100
AcDbTrace
 10
4.303749999999999
 20
12.985625
 30
0.0
 11
4.303749999999999
 21
13.086875
 31
0.0
 12
4.0
 22
13.03625
 32
0.0
 13
4.0
 23
13.03625
 33
0.0
  0
SOLID
  5
8D
330
32
100
AcDbEntity
  8
CDIM
100
AcDbTrace
 10
8.196249999999999
 20
12.985625
 30
0.0
 11
8.196249999999999
 21
13.086875
 31
0.0
 12
8.5
 22
13.03625
 32
0.0
 13
8.5
 23
13.03625
 33
0.0
  0
TEXT
  5
8E
330
32
100
AcDbEntity
  8
CDIM
100
AcDbText
 10
5.7316
 20
12.86615
 30
0.0
 40
0.3402
  1
4.63
  7
STR
100
AcDbText
  0
LINE
  5
8F
330
32
100
AcDbEntity
  8
CDIM
100
AcDbLine
 10
3.848124999999999
 20
11.37499999999999
 30
0.0
 11
2.75875
 21
11.37499999999999
 31
0.0
  0
LINE
  5
90
330
32
100
AcDbEntity
  8
CDIM
100
AcDbLine
 10
6.770624999999999
 20
7.843999999999999
 30
0.0
 11
2.75875
 21
7.843999999999999
 31
0.0
  0
LINE
  5
91
330
32
100
AcDbEntity
  8
CDIM
100
AcDbLine
 10
3.0625
 20
11.07124999999999
 30
0.0
 11
3.0625
 21
10.08334999999999
 31
0.0
  0
LINE
  5
92
330
32
100
AcDbEntity
  8
CDIM
100
AcDbLine
 10
3.0625
 20
8.14775
 30
0.0
 11
3.0625
 21
9.13565
 31
0.0
  0
SOLID
  5
93
330
32
100
AcDbEntity
  8
CDIM
100
AcDbTrace
 10
3.113125
 20
11.07124999999999
 30
0.0
 11
3.011874999999999
 21
11.07124999999999
 31
0.0
 12
3.0625
 22
11.37499999999999
 32
0.0
 13
3.0625
 23
11.37499999999999
 33
0.0
  0
SOLID
  5
94
330
32
100
AcDbEntity
  8
CDIM
100
AcDbTrace
 10
3.113125
 20
8.14775
 30
0.0
 11
3.011874999999999
 21
8.14775
 31
0.0
 12
3.0625
 22
7.843999999999999
 32
0.0
 13
3.0625
 23
7.843999999999999
 33
0.0
  0
TEXT
  5
95
330
32
100
AcDbEntity
  8
CDIM
100
AcDbText
 10
2.544099999999999
 20
9.439399999999999
 30
0.0
 40
0.3402
  1
3.53
  7
STR
100
AcDbText
  0
LINE
  5
96
330
32
100
AcDbEntity
  8
CDIM
100
AcDbLine
 10
3.848124999999999
 20
11.37499999999999
 30
0.0
 11
1.847499999999999
 21
11.37499999999999
 31
0.0
  0
LINE
  5
97
330
32
100
AcDbEntity
  8
CDIM
100
AcDbLine
 10
3.848124999999999
 20
5.25
 30
0.0
 11
1.847499999999999
 21
5.25
 31
0.0
  0
LINE
  5
98
330
32
100
AcDbEntity
  8
CDIM
100
AcDbLine
 10
2.15125
 20
11.07124999999999
 30
0.0
 11
2.15125
 21
8.78635
 31
0.0
  0
LINE
  5
99
330
32
100
AcDbEntity
  8
CDIM
100
AcDbLine
 10
2.15125
 20
5.553749999999999
 30
0.0
 11
2.15125
 21
7.83865
 31
0.0
  0
SOLID
  5
9A
330
32
100
AcDbEntity
  8
CDIM
100
AcDbTrace
 10
2.201874999999999
 20
11.07124999999999
 30
0.0
 11
2.100624999999999
 21
11.07124999999999
 31
0.0
 12
2.15125
 22
11.37499999999999
 32
0.0
 13
2.15125
 23
11.37499999999999
 33
0.0
  0
SOLID
  5
9B
330
32
100
AcDbEntity
  8
CDIM
100
AcDbTrace
 10
2.201874999999999
 20
5.553749999999999
 30
0.0
 11
2.100624999999999
 21
5.553749999999999
 31
0.0
 12
2.15125
 22
5.25
 32
0.0
 13
2.15125
 23
5.25
 33
0.0
  0
TEXT
  5
9C
330
32
100
AcDbEntity
  8
CDIM
100
AcDbText
 10
1.665249999999999
 20
8.1424
 30
0.0
 40
0.3402
  1
6.13
  7
STR
100
AcDbText
  0
LINE
  5
9D
330
32
100
AcDbEntity
  8
CDIM
100
AcDbLine
 10
4.0
 20
5.098124999999999
 30
0.0
 11
4.0
 21
4.13375
 31
0.0
  0
LINE
  5
9E
330
32
100
AcDbEntity
  8
CDIM
100
AcDbLine
 10
6.25
 20
5.332499999999999
 30
0.0
 11
6.25
 21
4.13375
 31
0.0
  0
LINE
  5
9F
330
32
100
AcDbEntity
  8
CDIM
100
AcDbLine
 10
6.553749999999999
 20
4.4375
 30
0.0
 11
6.857499999999999
 21
4.4375
 31
0.0
  0
LINE
  5
A0
330
32
100
AcDbEntity
  8
CDIM
100
AcDbLine
 10
3.69625
 20
4.4375
 30
0.0
 11
3.3925
 21
4.4375
 31
0.0
  0
SOLID
  5
A1
330
32
100
AcDbEntity
  8
CDIM
100
AcDbTrace
 10
6.553749999999999
 20
4.386874999999999
 30
0.0
 11
6.553749999999999
 21
4.488125
 31
0.0
 12
6.25
 22
4.4375
 32
0.0
 13
6.25
 23
4.4375
 33
0.0
  0
SOLID
  5
A2
330
32
100
AcDbEntity
  8
CDIM
100
AcDbTrace
 10
3.69625
 20
4.386874999999999
 30
0.0
 11
3.69625
 21
4.488125
 31
0.0
 12
4.0
 22
4.4375
 32
0.0
 13
4.0
 23
4.4375
 33
0.0
  0
TEXT
  5
A3
330
32
100
AcDbEntity
  8
CDIM
100
AcDbText
 10
4.661249999999999
 20
4.2674
 30
0.0
 40
0.3402
  1
2.31
  7
STR
100
AcDbText
  0
LINE
  5
A4
330
32
100
AcDbEntity
  8
CDIM
100
AcDbLine
 10
11.75
 20
11.526875
 30
0.0
 11
11.75
 21
12.42875
 31
0.0
  0
LINE
  5
A5
330
32
100
AcDbEntity
  8
CDIM
100
AcDbLine
 10
13.0
 20
11.526875
 30
0.0
 11
13.0
 21
12.42875
 31
0.0
  0
LINE
  5
A6
330
32
100
AcDbEntity
  8
CDIM
100
AcDbLine
 10
13.30375
 20
12.125
 30
0.0
 11
13.6075
 21
12.125
 31
0.0
  0
LINE
  5
A7
330
32
100
AcDbEntity
  8
CDIM
100
AcDbLine
 10
11.44625
 20
12.125
 30
0.0
 11
11.14249999999999
 21
12.125
 31
0.0
  0
SOLID
  5
A8
330
32
100
AcDbEntity
  8
CDIM
100
AcDbTrace
 10
13.30375
 20
12.074375
 30
0.0
 11
13.30375
 21
12.175625
 31
0.0
 12
13.0
 22
12.125
 32
0.0
 13
13.0
 23
12.125
 33
0.0
  0
SOLID
  5
A9
330
32
100
AcDbEntity
  8
CDIM
100
AcDbTrace
 10
11.44625
 20
12.074375
 30
0.0
 11
11.44625
 21
12.175625
 31
0.0
 12
11.75
 22
12.125
 32
0.0
 13
11.75
 23
12.125
 33
0.0
  0
TEXT
  5
AA
330
32
100
AcDbEntity
  8
CDIM
100
AcDbText
 10
13.91125
 20
11.9549
 30
0.0
 40
0.3402
  1
1.50
  7
STR
100
AcDbText
  0
LINE
  5
AB
330
32
100
AcDbEntity
  8
CDIM
100
AcDbLine
 10
21.75
 20
11.526875
 30
0.0
 11
21.75
 21
12.42875
 31
0.0
  0
LINE
  5
AC
330
32
100
AcDbEntity
  8
CDIM
100
AcDbLine
 10
20.6245
 20
9.495374999999999
 30
0.0
 11
20.6245
 21
12.42875
 31
0.0
  0
LINE
  5
AD
330
32
100
AcDbEntity
  8
CDIM
100
AcDbLine
 10
20.32075
 20
12.125
 30
0.0
 11
20.017
 21
12.125
 31
0.0
  0
LINE
  5
AE
330
32
100
AcDbEntity
  8
CDIM
100
AcDbLine
 10
22.05375
 20
12.125
 30
0.0
 11
22.3575
 21
12.125
 31
0.0
  0
SOLID
  5
AF
330
32
100
AcDbEntity
  8
CDIM
100
AcDbTrace
 10
20.32075
 20
12.074375
 30
0.0
 11
20.32075
 21
12.175625
 31
0.0
 12
20.6245
 22
12.125
 32
0.0
 13
20.6245
 23
12.125
 33
0.0
  0
SOLID
  5
B0
330
32
100
AcDbEntity
  8
CDIM
100
AcDbTrace
 10
22.05375
 20
12.074375
 30
0.0
 11
22.05375
 21
12.175625
 31
0.0
 12
21.75
 22
12.125
 32
0.0
 13
21.75
 23
12.125
 33
0.0
  0
TEXT
  5
B1
330
32
100
AcDbEntity
  8
CDIM
100
AcDbText
 10
18.80605
 20
11.9549
 30
0.0
 40
0.3402
  1
1.19
  7
STR
100
AcDbText
  0
LINE
  5
B2
330
32
100
AcDbEntity
  8
CDIM
100
AcDbLine
 10
21.75
 20
11.526875
 30
0.0
 11
21.75
 21
13.34
 31
0.0
  0
LINE
  5
B3
330
32
100
AcDbEntity
  8
CDIM
100
AcDbLine
 10
20.56249999999999
 20
10.620625
 30
0.0
 11
20.56249999999999
 21
11.78125
 31
0.0
  0
LINE
  5
B4
330
32
100
AcDbEntity
  8
CDIM
100
AcDbLine
 10
20.25875
 20
13.03625
 30
0.0
 11
19.95499999999999
 21
13.03625
 31
0.0
  0
LINE
  5
B5
330
32
100
AcDbEntity
  8
CDIM
100
AcDbLine
 10
22.05375
 20
13.03625
 30
0.0
 11
22.3575
 21
13.03625
 31
0.0
  0
SOLID
  5
B6
330
32
100
AcDbEntity
  8
CDIM
100
AcDbTrace
 10
20.25875
 20
12.985625
 30
0.0
 11
20.25875
 21
13.086875
 31
0.0
 12
20.56249999999999
 22
13.03625
 32
0.0
 13
20.56249999999999
 23
13.03625
 33
0.0
  0
SOLID
  5
B7
330
32
100
AcDbEntity
  8
CDIM
100
AcDbTrace
 10
22.05375
 20
12.985625
 30
0.0
 11
22.05375
 21
13.086875
 31
0.0
 12
21.75
 22
13.03625
 32
0.0
 13
21.75
 23
13.03625
 33
0.0
  0
TEXT
  5
B8
330
32
100
AcDbEntity
  8
CDIM
100
AcDbText
 10
18.76025
 20
12.86615
 30
0.0
 40
0.3402
  1
1.25
  7
STR
100
AcDbText
  0
LINE
  5
B9
330
32
100
AcDbEntity
  8
CDIM
100
AcDbLine
 10
21.75
 20
5.098124999999999
 30
0.0
 11
21.75
 21
4.13375
 31
0.0
  0
LINE
  5
BA
330
32
100
AcDbEntity
  8
CDIM
100
AcDbLine
 10
18.4375
 20
6.004374999999999
 30
0.0
 11
18.4375
 21
4.13375
 31
0.0
  0
LINE
  5
BB
330
32
100
AcDbEntity
  8
CDIM
100
AcDbLine
 10
21.44625
 20
4.4375
 30
0.0
 11
20.843
 21
4.4375
 31
0.0
  0
LINE
  5
BC
330
32
100
AcDbEntity
  8
CDIM
100
AcDbLine
 10
18.74125
 20
4.4375
 30
0.0
 11
19.3445
 21
4.4375
 31
0.0
  0
SOLID
  5
BD
330
32
100
AcDbEntity
  8
CDIM
100
AcDbTrace
 10
21.44625
 20
4.386874999999999
 30
0.0
 11
21.44625
 21
4.488125
 31
0.0
 12
21.75
 22
4.4375
 32
0.0
 13
21.75
 23
4.4375
 33
0.0
  0
SOLID
  5
BE
330
32
100
AcDbEntity
  8
CDIM
100
AcDbTrace
 10
18.74125
 20
4.386874999999999
 30
0.0
 11
18.74125
 21
4.488125
 31
0.0
 12
18.4375
 22
4.4375
 32
0.0
 13
18.4375
 23
4.4375
 33
0.0
  0
TEXT
  5
BF
330
32
100
AcDbEntity
  8
CDIM
100
AcDbText
 10
19.64825
 20
4.2674
 30
0.0
 40
0.3402
  1
3.38
  7
STR
100
AcDbText
  0
LINE
  5
C0
330
32
100
AcDbEntity
  8
CDIM
100
AcDbLine
 10
21.75
 20
5.098124999999999
 30
0.0
 11
21.75
 21
3.2225
 31
0.0
  0
LINE
  5
C1
330
32
100
AcDbEntity
  8
CDIM
100
AcDbLine
 10
18.3745
 20
7.130124999999999
 30
0.0
 11
18.3745
 21
3.2225
 31
0.0
  0
LINE
  5
C2
330
32
100
AcDbEntity
  8
CDIM
100
AcDbLine
 10
21.44625
 20
3.52625
 30
0.0
 11
20.88439999999999
 21
3.52625
 31
0.0
  0
LINE
  5
C3
330
32
100
AcDbEntity
  8
CDIM
100
AcDbLine
 10
18.67824999999999
 20
3.52625
 30
0.0
 11
19.2401
 21
3.52625
 31
0.0
  0
SOLID
  5
C4
330
32
100
AcDbEntity
  8
CDIM
100
AcDbTrace
 10
21.44625
 20
3.475624999999999
 30
0.0
 11
21.44625
 21
3.576874999999999
 31
0.0
 12
21.75
 22
3.52625
 32
0.0
 13
21.75
 23
3.52625
 33
0.0
  0
SOLID
  5
C5
330
32
100
AcDbEntity
  8
CDIM
100
AcDbTrace
 10
18.67824999999999
 20
3.475624999999999
 30
0.0
 11
18.67824999999999
 21
3.576874999999999
 31
0.0
 12
18.3745
 22
3.52625
 32
0.0
 13
18.3745
 23
3.52625
 33
0.0
  0
TEXT
  5
C6
330
32
100
AcDbEntity
  8
CDIM
100
AcDbText
 10
19.54385
 20
3.356149999999999
 30
0.0
 40
0.3402
  1
3.44
  7
STR
100
AcDbText
  0
LINE
  5
C7
330
32
100
AcDbEntity
  8
CDIM
100
AcDbLine
 10
17.09812499999999
 20
11.37499999999999
 30
0.0
 11
16.00875
 21
11.37499999999999
 31
0.0
  0
LINE
  5
C8
330
32
100
AcDbEntity
  8
CDIM
100
AcDbLine
 10
17.661125
 20
9.71875
 30
0.0
 11
16.00875
 21
9.71875
 31
0.0
  0
LINE
  5
C9
330
32
100
AcDbEntity
  8
CDIM
100
AcDbLine
 10
16.3125
 20
11.07124999999999
 30
0.0
 11
16.3125
 21
11.020725
 31
0.0
  0
LINE
  5
CA
330
32
100
AcDbEntity
  8
CDIM
100
AcDbLine
 10
16.3125
 20
10.0225
 30
0.0
 11
16.3125
 21
10.07302499999999
 31
0.0
  0
SOLID
  5
CB
330
32
100
AcDbEntity
  8
CDIM
100
AcDbTrace
 10
16.363125
 20
11.07124999999999
 30
0.0
 11
16.261875
 21
11.07124999999999
 31
0.0
 12
16.3125
 22
11.37499999999999
 32
0.0
 13
16.3125
 23
11.37499999999999
 33
0.0
  0
SOLID
  5
CC
330
32
100
AcDbEntity
  8
CDIM
100
AcDbTrace
 10
16.363125
 20
10.0225
 30
0.0
 11
16.261875
 21
10.0225
 31
0.0
 12
16.3125
 22
9.71875
 32
0.0
 13
16.3125
 23
9.71875
 33
0.0
  0
TEXT
  5
CD
330
32
100
AcDbEntity
  8
CDIM
100
AcDbText
 10
15.8346
 20
10.376775
 30
0.0
 40
0.3402
  1
1.66
  7
STR
100
AcDbText
  0
LINE
  5
CE
330
32
100
AcDbEntity
  8
CDIM
100
AcDbLine
 10
17.09812499999999
 20
11.37499999999999
 30
0.0
 11
15.0975
 21
11.37499999999999
 31
0.0
  0
LINE
  5
CF
330
32
100
AcDbEntity
  8
CDIM
100
AcDbLine
 10
17.660625
 20
7.843999999999999
 30
0.0
 11
15.0975
 21
7.843999999999999
 31
0.0
  0
LINE
  5
D0
330
32
100
AcDbEntity
  8
CDIM
100
AcDbLine
 10
15.40124999999999
 20
11.07124999999999
 30
0.0
 11
15.40124999999999
 21
9.677099999999999
 31
0.0
  0
LINE
  5
D1
330
32
100
AcDbEntity
  8
CDIM
100
AcDbLine
 10
15.40124999999999
 20
8.14775
 30
0.0
 11
15.40124999999999
 21
8.7294
 31
0.0
  0
SOLID
  5
D2
330
32
100
AcDbEntity
  8
CDIM
100
AcDbTrace
 10
15.45187499999999
 20
11.07124999999999
 30
0.0
 11
15.350625
 21
11.07124999999999
 31
0.0
 12
15.40124999999999
 22
11.37499999999999
 32
0.0
 13
15.40124999999999
 23
11.37499999999999
 33
0.0
  0
SOLID
  5
D3
330
32
100
AcDbEntity
  8
CDIM
100
AcDbTrace
 10
15.45187499999999
 20
8.14775
 30
0.0
 11
15.350625
 21
8.14775
 31
0.0
 12
15.40124999999999
 22
7.843999999999999
 32
0.0
 13
15.40124999999999
 23
7.843999999999999
 33
0.0
  0
TEXT
  5
D4
330
32
100
AcDbEntity
  8
CDIM
100
AcDbText
 10
14.88285
 20
9.033149999999999
 30
0.0
 40
0.3402
  1
3.53
  7
STR
100
AcDbText
  0
LINE
  5
D5
330
32
100
AcDbEntity
  8
CDIM
100
AcDbLine
 10
17.09812499999999
 20
11.37499999999999
 30
0.0
 11
14.18625
 21
11.37499999999999
 31
0.0
  0
LINE
  5
D6
330
32
100
AcDbEntity
  8
CDIM
100
AcDbLine
 10
18.004375
 20
6.4375
 30
0.0
 11
14.18625
 21
6.4375
 31
0.0
  0
LINE
  5
D7
330
32
100
AcDbEntity
  8
CDIM
100
AcDbLine
 10
14.49
 20
11.07124999999999
 30
0.0
 11
14.49
 21
8.97385
 31
0.0
  0
LINE
  5
D8
330
32
100
AcDbEntity
  8
CDIM
100
AcDbLine
 10
14.49
 20
6.741249999999999
 30
0.0
 11
14.49
 21
8.026149999999999
 31
0.0
  0
SOLID
  5
D9
330
32
100
AcDbEntity
  8
CDIM
100
AcDbTrace
 10
14.540625
 20
11.07124999999999
 30
0.0
 11
14.439375
 21
11.07124999999999
 31
0.0
 12
14.49
 22
11.37499999999999
 32
0.0
 13
14.49
 23
11.37499999999999
 33
0.0
  0
SOLID
  5
DA
330
32
100
AcDbEntity
  8
CDIM
100
AcDbTrace
 10
14.540625
 20
6.741249999999999
 30
0.0
 11
14.439375
 21
6.741249999999999
 31
0.0
 12
14.49
 22
6.4375
 32
0.0
 13
14.49
 23
6.4375
 33
0.0
  0
TEXT
  5
DB
330
32
100
AcDbEntity
  8
CDIM
100
AcDbText
 10
13.96349999999999
 20
8.3299
 30
0.0
 40
0.3402
  1
4.94
  7
STR
100
AcDbText
  0
LINE
  5
DC
330
32
100
AcDbEntity
  8
CDIM
100
AcDbLine
 10
21.90187499999999
 20
11.37499999999999
 30
0.0
 11
22.99125
 21
11.37499999999999
 31
0.0
  0
LINE
  5
DD
330
32
100
AcDbEntity
  8
CDIM
100
AcDbLine
 10
20.96437499999999
 20
10.1875
 30
0.0
 11
22.99125
 21
10.1875
 31
0.0
  0
LINE
  5
DE
330
32
100
AcDbEntity
  8
CDIM
100
AcDbLine
 10
22.6875
 20
9.883749999999999
 30
0.0
 11
22.6875
 21
9.58
 31
0.0
  0
LINE
  5
DF
330
32
100
AcDbEntity
  8
CDIM
100
AcDbLine
 10
22.6875
 20
11.67875
 30
0.0
 11
22.6875
 21
11.9825
 31
0.0
  0
SOLID
  5
E0
330
32
100
AcDbEntity
  8
CDIM
100
AcDbTrace
 10
22.738125
 20
9.883749999999999
 30
0.0
 11
22.636875
 21
9.883749999999999
 31
0.0
 12
22.6875
 22
10.1875
 32
0.0
 13
22.6875
 23
10.1875
 33
0.0
  0
SOLID
  5
E1
330
32
100
AcDbEntity
  8
CDIM
100
AcDbTrace
 10
22.738125
 20
11.67875
 30
0.0
 11
22.636875
 21
11.67875
 31
0.0
 12
22.6875
 22
11.37499999999999
 32
0.0
 13
22.6875
 23
11.37499999999999
 33
0.0
  0
TEXT
  5
E2
330
32
100
AcDbEntity
  8
CDIM
100
AcDbText
 10
22.22024999999999
 20
10.56615
 30
0.0
 40
0.3402
  1
1.19
  7
STR
100
AcDbText
  0
LINE
  5
E3
330
32
100
AcDbEntity
  8
CDIM
100
AcDbLine
 10
21.90187499999999
 20
11.37499999999999
 30
0.0
 11
23.90249999999999
 21
11.37499999999999
 31
0.0
  0
LINE
  5
E4
330
32
100
AcDbEntity
  8
CDIM
100
AcDbLine
 10
21.388875
 20
8.781499999999999
 30
0.0
 11
23.90249999999999
 21
8.781499999999999
 31
0.0
  0
LINE
  5
E5
330
32
100
AcDbEntity
  8
CDIM
100
AcDbLine
 10
23.59875
 20
11.07124999999999
 30
0.0
 11
23.59875
 21
10.14585
 31
0.0
  0
LINE
  5
E6
330
32
100
AcDbEntity
  8
CDIM
100
AcDbLine
 10
23.59875
 20
9.08525
 30
0.0
 11
23.59875
 21
9.19815
 31
0.0
  0
SOLID
  5
E7
330
32
100
AcDbEntity
  8
CDIM
100
AcDbTrace
 10
23.64937499999999
 20
11.07124999999999
 30
0.0
 11
23.54812499999999
 21
11.07124999999999
 31
0.0
 12
23.59875
 22
11.37499999999999
 32
0.0
 13
23.59875
 23
11.37499999999999
 33
0.0
  0
SOLID
  5
E8
330
32
100
AcDbEntity
  8
CDIM
100
AcDbTrace
 10
23.64937499999999
 20
9.08525
 30
0.0
 11
23.54812499999999
 21
9.08525
 31
0.0
 12
23.59875
 22
8.781499999999999
 32
0.0
 13
23.59875
 23
8.781499999999999
 33
0.0
  0
TEXT
  5
E9
330
32
100
AcDbEntity
  8
CDIM
100
AcDbText
 10
23.08845
 20
9.501899999999999
 30
0.0
 40
0.3402
  1
2.59
  7
STR
100
AcDbText
  0
LINE
  5
EA
330
32
100
AcDbEntity
  8
CDIM
100
AcDbLine
 10
21.90187499999999
 20
11.37499999999999
 30
0.0
 11
24.81374999999999
 21
11.37499999999999
 31
0.0
  0
LINE
  5
EB
330
32
100
AcDbEntity
  8
CDIM
100
AcDbLine
 10
21.432625
 20
6.9065
 30
0.0
 11
24.81374999999999
 21
6.9065
 31
0.0
  0
LINE
  5
EC
330
32
100
AcDbEntity
  8
CDIM
100
AcDbLine
 10
24.51
 20
11.07124999999999
 30
0.0
 11
24.51
 21
8.895849999999999
 31
0.0
  0
LINE
  5
ED
330
32
100
AcDbEntity
  8
CDIM
100
AcDbLine
 10
24.51
 20
7.21025
 30
0.0
 11
24.51
 21
7.94815
 31
0.0
  0
SOLID
  5
EE
330
32
100
AcDbEntity
  8
CDIM
100
AcDbTrace
 10
24.560625
 20
11.07124999999999
 30
0.0
 11
24.459375
 21
11.07124999999999
 31
0.0
 12
24.51
 22
11.37499999999999
 32
0.0
 13
24.51
 23
11.37499999999999
 33
0.0
  0
SOLID
  5
EF
330
32
100
AcDbEntity
  8
CDIM
100
AcDbTrace
 10
24.560625
 20
7.21025
 30
0.0
 11
24.459375
 21
7.21025
 31
0.0
 12
24.51
 22
6.9065
 32
0.0
 13
24.51
 23
6.9065
 33
0.0
  0
TEXT
  5
F0
330
32
100
AcDbEntity
  8
CDIM
100
AcDbText
 10
23.99159999999999
 20
8.251899999999999
 30
0.0
 40
0.3402
  1
4.47
  7
STR
100
AcDbText
  0
LINE
  5
F1
330
32
100
AcDbEntity
  8
CDIM
100
AcDbLine
 10
8.651875
 20
11.37499999999999
 30
0.0
 11
9.74125
 21
11.37499999999999
 31
0.0
  0
LINE
  5
F2
330
32
100
AcDbEntity
  8
CDIM
100
AcDbLine
 10
6.6675
 20
10.875
 30
0.0
 11
9.74125
 21
10.875
 31
0.0
  0
LINE
  5
F3
330
32
100
AcDbEntity
  8
CDIM
100
AcDbLine
 10
9.4375
 20
10.57124999999999
 30
0.0
 11
9.4375
 21
10.2675
 31
0.0
  0
LINE
  5
F4
330
32
100
AcDbEntity
  8
CDIM
100
AcDbLine
 10
9.4375
 20
11.67875
 30
0.0
 11
9.4375
 21
11.9825
 31
0.0
  0
LINE
  5
F5
330
32
100
AcDbEntity
  8
CDIM
100
AcDbLine
 10
9.4375
 20
10.2675
 30
0.0
 11
9.133749999999999
 21
10.2675
 31
0.0
  0
SOLID
  5
F6
330
32
100
AcDbEntity
  8
CDIM
100
AcDbTrace
 10
9.488125
 20
10.57124999999999
 30
0.0
 11
9.386874999999999
 21
10.57124999999999
 31
0.0
 12
9.4375
 22
10.875
 32
0.0
 13
9.4375
 23
10.875
 33
0.0
  0
SOLID
  5
F7
330
32
100
AcDbEntity
  8
CDIM
100
AcDbTrace
 10
9.488125
 20
11.67875
 30
0.0
 11
9.386874999999999
 21
11.67875
 31
0.0
 12
9.4375
 22
11.37499999999999
 32
0.0
 13
9.4375
 23
11.37499999999999
 33
0.0
  0
TEXT
  5
F8
330
32
100
AcDbEntity
  8
CDIM
100
AcDbText
 10
7.793199999999999
 20
10.0974
 30
0.0
 40
0.3402
  1
0.50
  7
STR
100
AcDbText
  0
LINE
  5
F9
330
32
100
AcDbEntity
  8
CDIM
100
AcDbLine
 10
8.651875
 20
11.37499999999999
 30
0.0
 11
10.6525
 21
11.37499999999999
 31
0.0
  0
LINE
  5
FA
330
32
100
AcDbEntity
  8
CDIM
100
AcDbLine
 10
6.6675
 20
5.75
 30
0.0
 11
10.6525
 21
5.75
 31
0.0
  0
LINE
  5
FB
330
32
100
AcDbEntity
  8
CDIM
100
AcDbLine
 10
10.34875
 20
11.07124999999999
 30
0.0
 11
10.34875
 21
9.03635
 31
0.0
  0
LINE
  5
FC
330
32
100
AcDbEntity
  8
CDIM
100
AcDbLine
 10
10.34875
 20
6.053749999999999
 30
0.0
 11
10.34875
 21
8.088649999999999
 31
0.0
  0
SOLID
  5
FD
330
32
100
AcDbEntity
  8
CDIM
100
AcDbTrace
 10
10.39937499999999
 20
11.07124999999999
 30
0.0
 11
10.298125
 21
11.07124999999999
 31
0.0
 12
10.34875
 22
11.37499999999999
 32
0.0
 13
10.34875
 23
11.37499999999999
 33
0.0
  0
SOLID
  5
FE
330
32
100
AcDbEntity
  8
CDIM
100
AcDbTrace
 10
10.39937499999999
 20
6.053749999999999
 30
0.0
 11
10.298125
 21
6.053749999999999
 31
0.0
 12
10.34875
 22
5.75
 32
0.0
 13
10.34875
 23
5.75
 33
0.0
  0
TEXT
  5
FF
330
32
100
AcDbEntity
  8
CDIM
100
AcDbText
 10
9.830349999999999
 20
8.3924
 30
0.0
 40
0.3402
  1
5.62
  7
STR
100
AcDbText
  0
LINE
  5
100
330
32
100
AcDbEntity
  8
CDIM
100
AcDbLine
 10
20.56249999999999
 20
12.4375
 30
0.0
 11
20.56249999999999
 21
13.34
 31
0.0
  0
TEXT
  5
101
330
32
100
AcDbEntity
  8
CDIM
100
AcDbText
 10
19.03125
 20
6.53125
 30
0.0
 40
0.25
  1
Y
  7
STR
100
AcDbText
  0
TEXT
  5
102
330
32
100
AcDbEntity
  8
CDIM
100
AcDbText
 10
19.1875
 20
8.53125
 30
0.0
 40
0.25
  1
P
  7
STR
100
AcDbText
  0
TEXT
  5
103
330
32
100
AcDbEntity
  8
CDIM
100
AcDbText
 10
19.5625
 20
7.5
 30
0.0
 40
0.25
  1
B
  7
STR
100
AcDbText
  0
TEXT
  5
104
330
32
100
AcDbEntity
  8
CDIM
100
AcDbText
 10
19.75
 20
9.53125
 30
0.0
 40
0.25
  1
A
  7
STR
100
AcDbText
  0
TEXT
  5
105
330
32
100
AcDbEntity
  8
CDIM
100
AcDbText
 10
19.375
 20
10.09375
 30
0.0
 40
0.25
  1
T
  7
STR
100
AcDbText
  0
TEXT
  5
106
330
32
100
AcDbEntity
  8
CDIM
100
AcDbText
 10
19.90625
 20
10.375
 30
0.0
 40
0.25
  1
X
  7
STR
100
AcDbText
  0
ENDBLK
  5
107
330
32
100
AcDbEntity
  8
0
100
AcDbBlockEnd
  0
BLOCK
  5
108
330
46
100
AcDbEntity
  8
0
100
AcDbBlockBegin
  2
D06C
 70
     0
 10
2.0
 20
7.0
 30
0.0
  3
D06C
  1

  0
INSERT
  5
109
330
46
100
AcDbEntity
  8
CCENTER
100
AcDbBlockReference
  2
100CROSS
 10
4.875
 20
2.561999999999999
 30
0.0
 41
0.4379999999999999
 42
0.4379999999999999
  0
CIRCLE
  5
10A
330
46
100
AcDbEntity
  8
CSOLID
100
AcDbCircle
 10
4.875
 20
2.561999999999999
 30
0.0
 40
0.2189999999999999
  0
CIRCLE
  5
10B
330
46
100
AcDbEntity
  8
CSOLID
100
AcDbCircle
 10
2.75
 20
6.312
 30
0.0
 40
0.2189999999999999
  0
INSERT
  5
10C
330
46
100
AcDbEntity
  8
CCENTER
100
AcDbBlockReference
  2
100CROSS
 10
2.75
 20
6.312
 30
0.0
 41
0.4379999999999999
 42
0.4379999999999999
  0
INSERT
  5
10D
330
46
100
AcDbEntity
  8
CCENTER
100
AcDbBlockReference
  2
100CROSS
 10
5.812
 20
3.28175
 30
0.0
 41
0.25
 42
0.25
  0
CIRCLE
  5
10E
330
46
100
AcDbEntity
  8
CSOLID
100
AcDbCircle
 10
5.812
 20
3.28175
 30
0.0
 40
0.1405
  0
CIRCLE
  5
10F
330
46
100
AcDbEntity
  8
CSOLID
100
AcDbCircle
 10
2.0
 20
5.84375
 30
0.0
 40
0.1405
  0
INSERT
  5
110
330
46
100
AcDbEntity
  8
CCENTER
100
AcDbBlockReference
  2
100CROSS
 10
2.0
 20
5.84375
 30
0.0
 41
0.25
 42
0.25
  0
CIRCLE
  5
111
330
46
100
AcDbEntity
  8
CSOLID
100
AcDbCircle
 10
4.937999999999999
 20
5.843999999999999
 30
0.0
 40
0.453
  0
INSERT
  5
112
330
46
100
AcDbEntity
  8
CCENTER
100
AcDbBlockReference
  2
100CROSS
 10
4.937999999999999
 20
5.843999999999999
 30
0.0
 41
0.8440000000000001
 42
0.8440000000000001
  0
INSERT
  5
113
330
46
100
AcDbEntity
  8
CCENTER
100
AcDbBlockReference
  2
100CROSS
 10
4.937999999999999
 20
3.968999999999999
 30
0.0
 41
0.8440000000000001
 42
0.8440000000000001
  0
CIRCLE
  5
114
330
46
100
AcDbEntity
  8
CSOLID
100
AcDbCircle
 10
4.937999999999999
 20
3.968999999999999
 30
0.0
 40
0.453
  0
INSERT
  5
115
330
46
100
AcDbEntity
  8
CCENTER
100
AcDbBlockReference
  2
100CROSS
 10
2.688
 20
4.9065
 30
0.0
 41
0.8440000000000001
 42
0.8440000000000001
  0
CIRCLE
  5
116
330
46
100
AcDbEntity
  8
CSOLID
100
AcDbCircle
 10
2.688
 20
4.9065
 30
0.0
 40
0.453
  0
CIRCLE
  5
117
330
46
100
AcDbEntity
  8
CSOLID
100
AcDbCircle
 10
2.688
 20
3.031499999999999
 30
0.0
 40
0.453
  0
INSERT
  5
118
330
46
100
AcDbEntity
  8
CCENTER
100
AcDbBlockReference
  2
100CROSS
 10
2.688
 20
3.031499999999999
 30
0.0
 41
0.8440000000000001
 42
0.8440000000000001
  0
CIRCLE
  5
119
330
46
100
AcDbEntity
  8
CSOLID
100
AcDbCircle
 10
5.625
 20
4.906
 30
0.0
 40
0.21875
  0
INSERT
  5
11A
330
46
100
AcDbEntity
  8
CCENTER
100
AcDbBlockReference
  2
100CROSS
 10
5.625
 20
4.906
 30
0.0
 41
0.5
 42
0.5
  0
INSERT
  5
11B
330
46
100
AcDbEntity
  8
CCENTER
100
AcDbBlockReference
  2
100CROSS
 10
2.0
 20
3.968999999999999
 30
0.0
 41
0.5
 42
0.5
  0
CIRCLE
  5
11C
330
46
100
AcDbEntity
  8
CSOLID
100
AcDbCircle
 10
2.0
 20
3.968999999999999
 30
0.0
 40
0.21875
  0
INSERT
  5
11D
330
46
100
AcDbEntity
  8
CCENTER
100
AcDbBlockReference
  2
100CROSS
 10
5.625
 20
1.875
 30
0.0
 41
0.5
 42
0.5
  0
CIRCLE
  5
11E
330
46
100
AcDbEntity
  8
CSOLID
100
AcDbCircle
 10
5.625
 20
1.875
 30
0.0
 40
0.21875
  0
INSERT
  5
11F
330
46
100
AcDbEntity
  8
CCENTER
100
AcDbBlockReference
  2
100CROSS
 10
5.625
 20
7.0
 30
0.0
 41
0.5
 42
0.5
  0
CIRCLE
  5
120
330
46
100
AcDbEntity
  8
CSOLID
100
AcDbCircle
 10
5.625
 20
7.0
 30
0.0
 40
0.21875
  0
INSERT
  5
121
330
46
100
AcDbEntity
  8
CCENTER
100
AcDbBlockReference
  2
100CROSS
 10
2.0
 20
1.875
 30
0.0
 41
0.5
 42
0.5
  0
CIRCLE
  5
122
330
46
100
AcDbEntity
  8
CSOLID
100
AcDbCircle
 10
2.0
 20
1.875
 30
0.0
 40
0.21875
  0
CIRCLE
  5
123
330
46
100
AcDbEntity
  8
CSOLID
100
AcDbCircle
 10
2.0
 20
7.0
 30
0.0
 40
0.21875
  0
INSERT
  5
124
330
46
100
AcDbEntity
  8
CCENTER
100
AcDbBlockReference
  2
100CROSS
 10
2.0
 20
7.0
 30
0.0
 41
0.5
 42
0.5
  0
CIRCLE
  5
125
330
46
100
AcDbEntity
  8
CHIDDEN
100
AcDbCircle
 10
2.0
 20
1.875
 30
0.0
 40
0.25
  0
CIRCLE
  5
126
330
46
100
AcDbEntity
  8
CHIDDEN
100
AcDbCircle
 10
2.0
 20
7.0
 30
0.0
 40
0.25
  0
CIRCLE
  5
127
330
46
100
AcDbEntity
  8
CHIDDEN
100
AcDbCircle
 10
5.625
 20
1.875
 30
0.0
 40
0.25
  0
CIRCLE
  5
128
330
46
100
AcDbEntity
  8
CHIDDEN
100
AcDbCircle
 10
5.625
 20
7.0
 30
0.0
 40
0.25
  0
CIRCLE
  5
129
330
46
100
AcDbEntity
  8
CHIDDEN
100
AcDbCircle
 10
2.0
 20
3.96875
 30
0.0
 40
0.25
  0
CIRCLE
  5
12A
330
46
100
AcDbEntity
  8
CHIDDEN
100
AcDbCircle
 10
5.625
 20
4.906
 30
0.0
 40
0.25
  0
ENDBLK
  5
12B
330
46
100
AcDbEntity
  8
0
100
AcDbBlockEnd
  0
BLOCK
  5
12C
330
48
100
AcDbEntity
  8
0
100
AcDbBlockBegin
  2
100CROSS
 70
     0
 10
5.625
 20
4.59375
 30
0.0
  3
100CROSS
  1

  0
INSERT
  5
12E
330
48
100
AcDbEntity
  8
0
100
AcDbBlockReference
  2
050CROSS
 10
5.625
 20
4.59375
 30
0.0
  0
ENDBLK
  5
12F
330
48
100
AcDbEntity
  8
0
100
AcDbBlockEnd
  0
BLOCK
  5
130
330
12D
100
AcDbEntity
  8
0
100
AcDbBlockBegin
  2
050CROSS
 70
     0
 10
5.0
 20
5.0
 30
0.0
  3
050CROSS
  1

  0
LINE
  5
131
330
12D
100
AcDbEntity
  8
0
100
AcDbLine
 10
5.0
 20
5.28125
 30
0.0
 11
5.0
 21
5.78125
 31
0.0
  0
LINE
  5
132
330
12D
100
AcDbEntity
  8
0
100
AcDbLine
 10
5.0
 20
4.875
 30
0.0
 11
5.0
 21
5.125
 31
0.0
  0
LINE
  5
133
330
12D
100
AcDbEntity
  8
0
100
AcDbLine
 10
5.0
 20
4.15625
 30
0.0
 11
5.0
 21
4.71875
 31
0.0
  0
LINE
  5
134
330
12D
100
AcDbEntity
  8
0
100
AcDbLine
 10
5.25
 20
5.0
 30
0.0
 11
5.8125
 21
5.0
 31
0.0
  0
LINE
  5
135
330
12D
100
AcDbEntity
  8
0
100
AcDbLine
 10
4.90625
 20
5.0
 30
0.0
 11
5.09375
 21
5.0
 31
0.0
  0
LINE
  5
136
330
12D
100
AcDbEntity
  8
0
100
AcDbLine
 10
4.1875
 20
5.0
 30
0.0
 11
4.75
 21
5.0
 31
0.0
  0
ENDBLK
  5
137
330
12D
100
AcDbEntity
  8
0
100
AcDbBlockEnd
  0
BLOCK
  5
139
330
138
100
AcDbEntity
  8
0
100
AcDbBlockBegin
  2
3
 70
     0
 10
30.0625
 20
12.375
 30
0.0
  3
3
  1

  0
LINE
  5
13A
330
138
100
AcDbEntity
  8
0
100
AcDbLine
 10
30.0865
 20
12.375
 30
0.0
 11
36.0865
 21
18.375
 31
0.0
  0
LINE
  5
13B
330
138
100
AcDbEntity
  8
0
100
AcDbLine
 10
30.0865
 20
12.375
 30
0.0
 11
29.0865
 21
12.375
 31
0.0
  0
ARC
  5
13C
330
138
100
AcDbEntity
  8
0
100
AcDbCircle
 10
29.0865
 20
15.375
 30
0.0
 40
3.0
100
AcDbArc
 50
90.0
 51
270.0
  0
LINE
  5
13D
330
138
100
AcDbEntity
  8
0
100
AcDbLine
 10
29.0865
 20
18.375
 30
0.0
 11
36.0865
 21
18.375
 31
0.0
  0
ENDBLK
  5
13E
330
138
100
AcDbEntity
  8
0
100
AcDbBlockEnd
  0
BLOCK
  5
140
330
13F
100
AcDbEntity
  8
0
100
AcDbBlockBegin
  2
100NPTFT
 70
     0
 10
0.0
 20
0.0
 30
0.0
  3
100NPTFT
  1

  0
CIRCLE
  5
141
330
13F
100
AcDbEntity
  8
DAMAN
100
AcDbCircle
 10
0.0
 20
0.0
 30
0.0
 40
0.5625
  0
CIRCLE
  5
142
330
13F
100
AcDbEntity
  8
DAMAN
100
AcDbCircle
 10
0.0
 20
0.0
 30
0.0
 40
0.6720000000000001
  0
INSERT
  5
143
330
13F
100
AcDbEntity
  8
DAMAN
100
AcDbBlockReference
  2
100CROSS
 10
0.0
 20
0.0
 30
0.0
 41
1.199999999999999
 42
1.199999999999999
  0
CIRCLE
  5
144
330
13F
100
AcDbEntity
  8
DAMAN
100
AcDbCircle
 10
0.0
 20
0.0
 30
0.0
 40
0.625
  0
ENDBLK
  5
145
330
13F
100
AcDbEntity
  8
0
100
AcDbBlockEnd
  0
BLOCK
  5
147
330
146
100
AcDbEntity
  8
0
100
AcDbBlockBegin
  2
025NPTFT
 70
     0
 10
0.0
 20
0.0
 30
0.0
  3
025NPTFT
  1

  0
INSERT
  5
149
330
146
100
AcDbEntity
  8
DAMAN
100
AcDbBlockReference
  2
250NPTFT
 10
0.0
 20
0.0
 30
0.0
  0
ENDBLK
  5
14A
330
146
100
AcDbEntity
  8
0
100
AcDbBlockEnd
  0
BLOCK
  5
14B
330
148
100
AcDbEntity
  8
0
100
AcDbBlockBegin
  2
250NPTFT
 70
     0
 10
0.0
 20
0.0
 30
0.0
  3
250NPTFT
  1

  0
CIRCLE
  5
14C
330
148
100
AcDbEntity
  8
DAMAN
100
AcDbCircle
 10
0.0
 20
0.0
 30
0.0
 40
0.273
  0
CIRCLE
  5
14D
330
148
100
AcDbEntity
  8
DAMAN
100
AcDbCircle
 10
0.0
 20
0.0
 30
0.0
 40
0.211
  0
INSERT
  5
14E
330
148
100
AcDbEntity
  8
DAMAN
100
AcDbBlockReference
  2
100CROSS
 10
0.0
 20
0.0
 30
0.0
 41
0.4220000000000001
 42
0.4220000000000001
  0
CIRCLE
  5
14F
330
148
100
AcDbEntity
  8
DAMAN
100
AcDbCircle
 10
0.0
 20
0.0
 30
0.0
 40
0.242251
  0
POINT
  5
150
330
148
100
AcDbEntity
  8
CHIDDEN
100
AcDbPoint
 10
-0.087928
 20
0.191806
 30
0.0
  0
POINT
  5
151
330
148
100
AcDbEntity
  8
CHIDDEN
100
AcDbPoint
 10
-0.137717
 20
-0.15986
 30
0.0
  0
POINT
  5
152
330
148
100
AcDbEntity
  8
CHIDDEN
100
AcDbPoint
 10
0.202707
 20
-0.058572
 30
0.0
  0
ENDBLK
  5
153
330
148
100
AcDbEntity
  8
0
100
AcDbBlockEnd
  0
ENDSEC
  0
SECTION
  2
ENTITIES
  0
LWPOLYLINE
  5
154
330
1E
100
AcDbEntity
  8
DAMAN
100
AcDbPolyline
 90
        4
 70
     1
 43
0.0
 10
11.06249999999999
 20
6.40625
 10
11.06249999999999
 20
12.53125
 10
12.5625
 20
12.53125
 10
12.5625
 20
6.40625
  0
LWPOLYLINE
  5
15A
330
1E
100
AcDbEntity
  8
DAMAN
100
AcDbPolyline
 90
        4
 70
     1
 43
0.0
 10
13.75
 20
6.40625
 10
13.75
 20
12.53125
 10
18.375
 20
12.53125
 10
18.375
 20
6.40625
  0
CIRCLE
  5
160
330
1E
100
AcDbEntity
  8
DAMAN
100
AcDbCircle
 10
7.5625
 20
6.90625
 30
0.0
 40
0.40625
  0
CIRCLE
  5
161
330
1E
100
AcDbEntity
  8
DAMAN
100
AcDbCircle
 10
7.5625
 20
6.90625
 30
0.0
 40
0.265625
  0
CIRCLE
  5
162
330
1E
100
AcDbEntity
  8
DAMAN
100
AcDbCircle
 10
7.5625
 20
12.03125
 30
0.0
 40
0.265625
  0
CIRCLE
  5
163
330
1E
100
AcDbEntity
  8
DAMAN
100
AcDbCircle
 10
7.5625
 20
12.03125
 30
0.0
 40
0.40625
  0
CIRCLE
  5
164
330
1E
100
AcDbEntity
  8
DAMAN
100
AcDbCircle
 10
16.0625
 20
12.03125
 30
0.0
 40
0.265625
  0
CIRCLE
  5
165
330
1E
100
AcDbEntity
  8
DAMAN
100
AcDbCircle
 10
16.0625
 20
6.90625
 30
0.0
 40
0.265625
  0
INSERT
  5
166
330
1E
100
AcDbEntity
  8
DAMAN
100
AcDbBlockReference
  2
100CROSS
 10
16.0625
 20
6.90625
 30
0.0
 41
-0.40625
 42
0.40625
 43
0.40625
  0
INSERT
  5
167
330
1E
100
AcDbEntity
  8
DAMAN
100
AcDbBlockReference
  2
100CROSS
 10
16.0625
 20
12.03125
 30
0.0
 41
-0.40625
 42
0.40625
 43
0.40625
  0
TEXT
  5
17E
330
1E
100
AcDbEntity
  8
DAMAN
100
AcDbText
 10
15.59375
 20
7.6875
 30
0.0
 40
0.25
  1
Y
  7
STR
100
AcDbText
  0
TEXT
  5
17F
330
1E
100
AcDbEntity
  8
DAMAN
100
AcDbText
 10
15.66269790714193
 20
9.454853106629713
 30
0.0
 40
0.25
  1
P
  7
STR
100
AcDbText
  0
TEXT
  5
180
330
1E
100
AcDbEntity
  8
DAMAN
100
AcDbText
 10
16.28505375531157
 20
8.539926569822981
 30
0.0
 40
0.25
  1
B
  7
STR
100
AcDbText
  0
TEXT
  5
181
330
1E
100
AcDbEntity
  8
DAMAN
100
AcDbText
 10
16.44345311208879
 20
10.54209568751653
 30
0.0
 40
0.25
  1
A
  7
STR
100
AcDbText
  0
TEXT
  5
182
330
1E
100
AcDbEntity
  8
DAMAN
100
AcDbText
 10
15.70469452783832
 20
11.20637869304846
 30
0.0
 40
0.25
  1
T
  7
STR
100
AcDbText
  0
TEXT
  5
183
330
1E
100
AcDbEntity
  8
DAMAN
100
AcDbText
 10
16.46875
 20
11.53124999999999
 30
0.0
 40
0.25
  1
X
  7
STR
100
AcDbText
  0
LINE
  5
184
330
1E
100
AcDbEntity
  8
DAMAN
100
AcDbLine
 10
5.25
 20
6.40625
 30
0.0
 11
5.25
 21
12.53125
 31
0.0
  0
LINE
  5
185
330
1E
100
AcDbEntity
  8
DAMAN
100
AcDbLine
 10
5.25
 20
12.53125
 30
0.0
 11
9.875
 21
12.53125
 31
0.0
  0
LINE
  5
186
330
1E
100
AcDbEntity
  8
DAMAN
100
AcDbLine
 10
9.875
 20
12.53125
 30
0.0
 11
9.875
 21
6.40625
 31
0.0
  0
LINE
  5
187
330
1E
100
AcDbEntity
  8
DAMAN
100
AcDbLine
 10
9.875
 20
6.40625
 30
0.0
 11
5.25
 21
6.40625
 31
0.0
  0
INSERT
  5
188
330
1E
100
AcDbEntity
  8
DAMAN
100
AcDbBlockReference
  2
100CROSS
 10
8.625
 20
7.59325
 30
0.0
 41
0.4379999999999999
 42
0.4379999999999999
  0
CIRCLE
  5
189
330
1E
100
AcDbEntity
  8
DAMAN
100
AcDbCircle
 10
8.625
 20
7.59325
 30
0.0
 40
0.2189999999999999
  0
CIRCLE
  5
18A
330
1E
100
AcDbEntity
  8
DAMAN
100
AcDbCircle
 10
6.5
 20
11.34325
 30
0.0
 40
0.2189999999999999
  0
INSERT
  5
18B
330
1E
100
AcDbEntity
  8
DAMAN
100
AcDbBlockReference
  2
100CROSS
 10
6.5
 20
11.34325
 30
0.0
 41
0.4379999999999999
 42
0.4379999999999999
  0
INSERT
  5
18C
330
1E
100
AcDbEntity
  8
DAMAN
100
AcDbBlockReference
  2
100CROSS
 10
9.562000000000001
 20
8.312999999999998
 30
0.0
 41
0.25
 42
0.25
  0
CIRCLE
  5
18D
330
1E
100
AcDbEntity
  8
DAMAN
100
AcDbCircle
 10
9.562000000000001
 20
8.312999999999998
 30
0.0
 40
0.1405
  0
CIRCLE
  5
18E
330
1E
100
AcDbEntity
  8
DAMAN
100
AcDbCircle
 10
5.75
 20
10.875
 30
0.0
 40
0.1405
  0
INSERT
  5
18F
330
1E
100
AcDbEntity
  8
DAMAN
100
AcDbBlockReference
  2
100CROSS
 10
5.75
 20
10.875
 30
0.0
 41
0.25
 42
0.25
  0
CIRCLE
  5
190
330
1E
100
AcDbEntity
  8
DAMAN
100
AcDbCircle
 10
8.687999999999998
 20
10.87525
 30
0.0
 40
0.453
  0
INSERT
  5
191
330
1E
100
AcDbEntity
  8
DAMAN
100
AcDbBlockReference
  2
100CROSS
 10
8.687999999999998
 20
10.87525
 30
0.0
 41
0.8440000000000001
 42
0.8440000000000001
  0
INSERT
  5
192
330
1E
100
AcDbEntity
  8
DAMAN
100
AcDbBlockReference
  2
100CROSS
 10
8.687999999999998
 20
9.000249999999999
 30
0.0
 41
0.8440000000000001
 42
0.8440000000000001
  0
CIRCLE
  5
193
330
1E
100
AcDbEntity
  8
DAMAN
100
AcDbCircle
 10
8.687999999999998
 20
9.000249999999999
 30
0.0
 40
0.453
  0
INSERT
  5
194
330
1E
100
AcDbEntity
  8
DAMAN
100
AcDbBlockReference
  2
100CROSS
 10
6.437999999999999
 20
9.937749999999999
 30
0.0
 41
0.8440000000000001
 42
0.8440000000000001
  0
CIRCLE
  5
195
330
1E
100
AcDbEntity
  8
DAMAN
100
AcDbCircle
 10
6.437999999999999
 20
9.937749999999999
 30
0.0
 40
0.453
  0
CIRCLE
  5
196
330
1E
100
AcDbEntity
  8
DAMAN
100
AcDbCircle
 10
6.437999999999999
 20
8.062749999999999
 30
0.0
 40
0.453
  0
INSERT
  5
197
330
1E
100
AcDbEntity
  8
DAMAN
100
AcDbBlockReference
  2
100CROSS
 10
6.437999999999999
 20
8.062749999999999
 30
0.0
 41
0.8440000000000001
 42
0.8440000000000001
  0
CIRCLE
  5
198
330
1E
100
AcDbEntity
  8
DAMAN
100
AcDbCircle
 10
9.375
 20
9.93725
 30
0.0
 40
0.21875
  0
INSERT
  5
199
330
1E
100
AcDbEntity
  8
DAMAN
100
AcDbBlockReference
  2
100CROSS
 10
9.375
 20
9.93725
 30
0.0
 41
0.5
 42
0.5
  0
INSERT
  5
19A
330
1E
100
AcDbEntity
  8
DAMAN
100
AcDbBlockReference
  2
100CROSS
 10
5.75
 20
9.000249999999999
 30
0.0
 41
0.5
 42
0.5
  0
CIRCLE
  5
19B
330
1E
100
AcDbEntity
  8
DAMAN
100
AcDbCircle
 10
5.75
 20
9.000249999999999
 30
0.0
 40
0.21875
  0
INSERT
  5
19C
330
1E
100
AcDbEntity
  8
DAMAN
100
AcDbBlockReference
  2
100CROSS
 10
9.375
 20
6.90625
 30
0.0
 41
0.5
 42
0.5
  0
CIRCLE
  5
19D
330
1E
100
AcDbEntity
  8
DAMAN
100
AcDbCircle
 10
9.375
 20
6.90625
 30
0.0
 40
0.21875
  0
INSERT
  5
19E
330
1E
100
AcDbEntity
  8
DAMAN
100
AcDbBlockReference
  2
100CROSS
 10
9.375
 20
12.03125
 30
0.0
 41
0.5
 42
0.5
  0
CIRCLE
  5
19F
330
1E
100
AcDbEntity
  8
DAMAN
100
AcDbCircle
 10
9.375
 20
12.03125
 30
0.0
 40
0.21875
  0
INSERT
  5
1A0
330
1E
100
AcDbEntity
  8
DAMAN
100
AcDbBlockReference
  2
100CROSS
 10
5.75
 20
6.90625
 30
0.0
 41
0.5
 42
0.5
  0
CIRCLE
  5
1A1
330
1E
100
AcDbEntity
  8
DAMAN
100
AcDbCircle
 10
5.75
 20
6.90625
 30
0.0
 40
0.21875
  0
CIRCLE
  5
1A2
330
1E
100
AcDbEntity
  8
DAMAN
100
AcDbCircle
 10
5.75
 20
12.03125
 30
0.0
 40
0.21875
  0
INSERT
  5
1A3
330
1E
100
AcDbEntity
  8
DAMAN
100
AcDbBlockReference
  2
100CROSS
 10
5.75
 20
12.03125
 30
0.0
 41
0.5
 42
0.5
  0
CIRCLE
  5
1A4
330
1E
100
AcDbEntity
  8
DAMAN
100
AcDbCircle
 10
5.75
 20
6.90625
 30
0.0
 40
0.25
  0
CIRCLE
  5
1A5
330
1E
100
AcDbEntity
  8
DAMAN
100
AcDbCircle
 10
5.75
 20
12.03125
 30
0.0
 40
0.25
  0
CIRCLE
  5
1A6
330
1E
100
AcDbEntity
  8
DAMAN
100
AcDbCircle
 10
9.375
 20
6.90625
 30
0.0
 40
0.25
  0
CIRCLE
  5
1A7
330
1E
100
AcDbEntity
  8
DAMAN
100
AcDbCircle
 10
9.375
 20
12.03125
 30
0.0
 40
0.25
  0
CIRCLE
  5
1A8
330
1E
100
AcDbEntity
  8
DAMAN
100
AcDbCircle
 10
5.75
 20
9.0
 30
0.0
 40
0.25
  0
CIRCLE
  5
1A9
330
1E
100
AcDbEntity
  8
DAMAN
100
AcDbCircle
 10
9.375
 20
9.93725
 30
0.0
 40
0.25
  0
INSERT
  5
1AA
330
1E
100
AcDbEntity
  8
DAMAN
100
AcDbBlockReference
  2
050CROSS
 10
7.5625
 20
6.90625
 30
0.0
 41
0.8125
 42
0.8125
  0
INSERT
  5
1AB
330
1E
100
AcDbEntity
  8
DAMAN
100
AcDbBlockReference
  2
050CROSS
 10
7.5625
 20
12.03125
 30
0.0
 41
0.8125
 42
0.8125
  0
LINE
  5
1AC
330
1E
100
AcDbEntity
  8
DAMAN
100
AcDbLine
 10
5.25
 20
4.9375
 30
0.0
 11
10.0
 21
4.9375
 31
0.0
  0
LINE
  5
1AD
330
1E
100
AcDbEntity
  8
DAMAN
100
AcDbLine
 10
10.0
 20
4.9375
 30
0.0
 11
10.0
 21
3.4375
 31
0.0
  0
LINE
  5
1AE
330
1E
100
AcDbEntity
  8
DAMAN
100
AcDbLine
 10
10.0
 20
3.4375
 30
0.0
 11
5.25
 21
3.4375
 31
0.0
  0
LINE
  5
1AF
330
1E
100
AcDbEntity
  8
DAMAN
100
AcDbLine
 10
5.25
 20
3.4375
 30
0.0
 11
5.25
 21
4.9375
 31
0.0
  0
TEXT
  5
1B0
330
1E
100
AcDbEntity
  8
DAMAN
100
AcDbText
 10
6.125
 20
4.28125
 30
0.0
 40
0.188
  1
DAMAN ****
100
AcDbText
  0
INSERT
  5
1B1
330
1E
100
AcDbEntity
  8
DAMAN
100
AcDbBlockReference
  2
100NPTFT
 10
17.187
 20
8.062749999999999
 30
0.0
  0
INSERT
  5
1B2
330
1E
100
AcDbEntity
  8
DAMAN
100
AcDbBlockReference
  2
100NPTFT
 10
14.937
 20
9.000249999999999
 30
0.0
  0
INSERT
  5
1B3
330
1E
100
AcDbEntity
  8
DAMAN
100
AcDbBlockReference
  2
100NPTFT
 10
14.9375
 20
10.875
 30
0.0
  0
INSERT
  5
1B4
330
1E
100
AcDbEntity
  8
DAMAN
100
AcDbBlockReference
  2
100NPTFT
 10
17.187
 20
9.937749999999999
 30
0.0
  0
INSERT
  5
1B5
330
1E
100
AcDbEntity
  8
DAMAN
100
AcDbBlockReference
  2
025NPTFT
 10
15.0
 20
7.59375
 30
0.0
  0
INSERT
  5
1B6
330
1E
100
AcDbEntity
  8
DAMAN
100
AcDbBlockReference
  2
025NPTFT
 10
17.125
 20
11.34375
 30
0.0
  0
ENDSEC
  0
SECTION
  2
OBJECTS
  0
DICTIONARY
  5
C
330
0
100
AcDbDictionary
  3
ACAD_GROUP
350
D
  3
ACAD_LAYOUT
350
19
  3
ACAD_MLINESTYLE
350
16
  3
ACAD_PLOTSETTINGS
350
18
  3
ACAD_PLOTSTYLENAME
350
E
  3
ACDBHEADERROUNDTRIPXREC
350
1BD
  0
DICTIONARY
  5
1DF
330
1E
100
AcDbDictionary
280
     1
  3
ACAD_LAYOUTSELFREF
360
1E0
  0
DICTIONARY
  5
1DD
330
1A
100
AcDbDictionary
280
     1
  3
ACAD_LAYOUTSELFREF
360
1DE
  0
DICTIONARY
  5
D
102
{ACAD_REACTORS
330
C
102
}
330
C
100
AcDbDictionary
  0
DICTIONARY
  5
19
102
{ACAD_REACTORS
330
C
102
}
330
C
100
AcDbDictionary
  0
DICTIONARY
  5
16
102
{ACAD_REACTORS
330
C
102
}
330
C
100
AcDbDictionary
  3
STANDARD
350
17
  0
DICTIONARY
  5
18
102
{ACAD_REACTORS
330
C
102
}
330
C
100
AcDbDictionary
  0
ACDBDICTIONARYWDFLT
  5
E
102
{ACAD_REACTORS
330
C
102
}
330
C
100
AcDbDictionary
281
     1
  3
Normal
350
F
100
AcDbDictionaryWithDefault
340
F
  0
DICTIONARY
  5
1BD
102
{ACAD_REACTORS
330
C
102
}
330
C
100
AcDbDictionary
  3
CEPSNTYPE
350
1C7
  3
FINGERPRINTGUID
350
1C8
  3
HYPERLINKBASE
350
1C0
  3
INSUNITS
350
1C6
  3
LAYOUTDICT
350
1C2
  3
LWETCUNION
350
1C5
  3
PLOTSETDICT
350
1C3
  3
PLOTSTYLNAMDICT
350
1C4
  3
PSVPSCALE
350
1CA
  3
PUCSBASE
350
1CD
  3
PUCSORGBACK
350
1D3
  3
PUCSORGBOTTOM
350
1CF
  3
PUCSORGFRONT
350
1D2
  3
PUCSORGLEFT
350
1D0
  3
PUCSORGRIGHT
350
1D1
  3
PUCSORGTOP
350
1CE
  3
PUCSORTHOREF
350
1CB
  3
PUCSORTHOVIEW
350
1CC
  3
STYLESHEET
350
1C1
  3
TSTACKALIGN
350
1BE
  3
TSTACKSIZE
350
1BF
  3
UCSBASE
350
1D6
  3
UCSORGBACK
350
1DC
  3
UCSORGBOTTOM
350
1D8
  3
UCSORGFRONT
350
1DB
  3
UCSORGLEFT
350
1D9
  3
UCSORGRIGHT
350
1DA
  3
UCSORGTOP
350
1D7
  3
UCSORTHOREF
350
1D4
  3
UCSORTHOVIEW
350
1D5
  3
VERSIONGUID
350
1C9
  0
XRECORD
  5
1E0
102
{ACAD_REACTORS
330
1DF
102
}
330
1DF
100
AcDbXrecord
340
1E
  0
XRECORD
  5
1DE
102
{ACAD_REACTORS
330
1DD
102
}
330
1DD
100
AcDbXrecord
340
1A
  0
MLINESTYLE
  5
17
102
{ACAD_REACTORS
330
16
102
}
330
16
100
AcDbMlineStyle
  2
STANDARD
 70
     0
  3

 62
   256
 51
90.0
 52
90.0
 71
     2
 49
0.5
 62
   256
  6
BYLAYER
 49
-0.5
 62
   256
  6
BYLAYER
  0
ACDBPLACEHOLDER
  5
F
102
{ACAD_REACTORS
330
E
102
}
330
E
100
AcDbPlaceHolder
280
     0
  0
XRECORD
  5
1C7
102
{ACAD_REACTORS
330
1BD
102
}
330
1BD
100
AcDbXrecord
 90
        0
  0
XRECORD
  5
1C8
102
{ACAD_REACTORS
330
1BD
102
}
330
1BD
100
AcDbXrecord
  1
{540882B3-6AE5-4150-89A7-A087E860647D}
  0
XRECORD
  5
1C0
102
{ACAD_REACTORS
330
1BD
102
}
330
1BD
100
AcDbXrecord
  1

  0
XRECORD
  5
1C6
102
{ACAD_REACTORS
330
1BD
102
}
330
1BD
100
AcDbXrecord
 90
        0
  0
XRECORD
  5
1C2
102
{ACAD_REACTORS
330
1BD
102
}
330
1BD
100
AcDbXrecord
340
19
  0
XRECORD
  5
1C5
102
{ACAD_REACTORS
330
1BD
102
}
330
1BD
100
AcDbXrecord
 90
    10781
  0
XRECORD
  5
1C3
102
{ACAD_REACTORS
330
1BD
102
}
330
1BD
100
AcDbXrecord
340
18
  0
XRECORD
  5
1C4
102
{ACAD_REACTORS
330
1BD
102
}
330
1BD
100
AcDbXrecord
340
E
  0
XRECORD
  5
1CA
102
{ACAD_REACTORS
330
1BD
102
}
330
1BD
100
AcDbXrecord
 40
0.0
  0
XRECORD
  5
1CD
102
{ACAD_REACTORS
330
1BD
102
}
330
1BD
100
AcDbXrecord
340
0
  0
XRECORD
  5
1D3
102
{ACAD_REACTORS
330
1BD
102
}
330
1BD
100
AcDbXrecord
 10
0.0
 20
0.0
 30
0.0
  0
XRECORD
  5
1CF
102
{ACAD_REACTORS
330
1BD
102
}
330
1BD
100
AcDbXrecord
 10
0.0
 20
0.0
 30
0.0
  0
XRECORD
  5
1D2
102
{ACAD_REACTORS
330
1BD
102
}
330
1BD
100
AcDbXrecord
 10
0.0
 20
0.0
 30
0.0
  0
XRECORD
  5
1D0
102
{ACAD_REACTORS
330
1BD
102
}
330
1BD
100
AcDbXrecord
 10
0.0
 20
0.0
 30
0.0
  0
XRECORD
  5
1D1
102
{ACAD_REACTORS
330
1BD
102
}
330
1BD
100
AcDbXrecord
 10
0.0
 20
0.0
 30
0.0
  0
XRECORD
  5
1CE
102
{ACAD_REACTORS
330
1BD
102
}
330
1BD
100
AcDbXrecord
 10
0.0
 20
0.0
 30
0.0
  0
XRECORD
  5
1CB
102
{ACAD_REACTORS
330
1BD
102
}
330
1BD
100
AcDbXrecord
340
0
  0
XRECORD
  5
1CC
102
{ACAD_REACTORS
330
1BD
102
}
330
1BD
100
AcDbXrecord
 70
     0
  0
XRECORD
  5
1C1
102
{ACAD_REACTORS
330
1BD
102
}
330
1BD
100
AcDbXrecord
  1

  0
XRECORD
  5
1BE
102
{ACAD_REACTORS
330
1BD
102
}
330
1BD
100
AcDbXrecord
 90
        1
  0
XRECORD
  5
1BF
102
{ACAD_REACTORS
330
1BD
102
}
330
1BD
100
AcDbXrecord
 90
       70
  0
XRECORD
  5
1D6
102
{ACAD_REACTORS
330
1BD
102
}
330
1BD
100
AcDbXrecord
340
0
  0
XRECORD
  5
1DC
102
{ACAD_REACTORS
330
1BD
102
}
330
1BD
100
AcDbXrecord
 10
0.0
 20
0.0
 30
0.0
  0
XRECORD
  5
1D8
102
{ACAD_REACTORS
330
1BD
102
}
330
1BD
100
AcDbXrecord
 10
0.0
 20
0.0
 30
0.0
  0
XRECORD
  5
1DB
102
{ACAD_REACTORS
330
1BD
102
}
330
1BD
100
AcDbXrecord
 10
0.0
 20
0.0
 30
0.0
  0
XRECORD
  5
1D9
102
{ACAD_REACTORS
330
1BD
102
}
330
1BD
100
AcDbXrecord
 10
0.0
 20
0.0
 30
0.0
  0
XRECORD
  5
1DA
102
{ACAD_REACTORS
330
1BD
102
}
330
1BD
100
AcDbXrecord
 10
0.0
 20
0.0
 30
0.0
  0
XRECORD
  5
1D7
102
{ACAD_REACTORS
330
1BD
102
}
330
1BD
100
AcDbXrecord
 10
0.0
 20
0.0
 30
0.0
  0
XRECORD
  5
1D4
102
{ACAD_REACTORS
330
1BD
102
}
330
1BD
100
AcDbXrecord
340
0
  0
XRECORD
  5
1D5
102
{ACAD_REACTORS
330
1BD
102
}
330
1BD
100
AcDbXrecord
 70
     0
  0
XRECORD
  5
1C9
102
{ACAD_REACTORS
330
1BD
102
}
330
1BD
100
AcDbXrecord
  1
{21CCAE05-2649-4868-A42F-E6F802B37B47}
  0
ENDSEC
  0
EOF
