  0
SECTION
  2
HEADER
  9
$ACADVER
  1
AC1014
  9
$ACADMAINTVER
 70
     9
  9
$DWGCODEPAGE
  3
ANSI_1252
  9
$INSBASE
 10
0.0
 20
0.0
 30
0.0
  9
$EXTMIN
 10
0.6543376831399286
 20
3.217582667843359
 30
-0.000000000000013
  9
$EXTMAX
 10
39.46929706050056
 20
20.62582823730888
 30
0.0000000000000023
  9
$LIMMIN
 10
0.0
 20
0.0
  9
$LIMMAX
 10
12.0
 20
9.0
  9
$ORTHOMODE
 70
     0
  9
$REGENMODE
 70
     1
  9
$FILLMODE
 70
     1
  9
$QTEXTMODE
 70
     0
  9
$MIRRTEXT
 70
     1
  9
$DRAGMODE
 70
     2
  9
$LTSCALE
 40
1.0
  9
$OSMODE
 70
    37
  9
$ATTMODE
 70
     1
  9
$TEXTSIZE
 40
0.2
  9
$TRACEWID
 40
0.05
  9
$TEXTSTYLE
  7
STANDARD
  9
$CLAYER
  8
0
  9
$CELTYPE
  6
CONTINUOUS
  9
$CECOLOR
 62
   256
  9
$CELTSCALE
 40
1.0
  9
$DELOBJ
 70
     1
  9
$DISPSILH
 70
     0
  9
$DIMSCALE
 40
1.0
  9
$DIMASZ
 40
0.18
  9
$DIMEXO
 40
0.0625
  9
$DIMDLI
 40
0.38
  9
$DIMRND
 40
0.0
  9
$DIMDLE
 40
0.0
  9
$DIMEXE
 40
0.18
  9
$DIMTP
 40
0.0
  9
$DIMTM
 40
0.0
  9
$DIMTXT
 40
0.18
  9
$DIMCEN
 40
0.09
  9
$DIMTSZ
 40
0.0
  9
$DIMTOL
 70
     0
  9
$DIMLIM
 70
     0
  9
$DIMTIH
 70
     1
  9
$DIMTOH
 70
     1
  9
$DIMSE1
 70
     0
  9
$DIMSE2
 70
     0
  9
$DIMTAD
 70
     0
  9
$DIMZIN
 70
     0
  9
$DIMBLK
  1

  9
$DIMASO
 70
     1
  9
$DIMSHO
 70
     1
  9
$DIMPOST
  1

  9
$DIMAPOST
  1

  9
$DIMALT
 70
     0
  9
$DIMALTD
 70
     2
  9
$DIMALTF
 40
25.4
  9
$DIMLFAC
 40
1.0
  9
$DIMTOFL
 70
     0
  9
$DIMTVP
 40
0.0
  9
$DIMTIX
 70
     0
  9
$DIMSOXD
 70
     0
  9
$DIMSAH
 70
     0
  9
$DIMBLK1
  1

  9
$DIMBLK2
  1

  9
$DIMSTYLE
  2
STANDARD
  9
$DIMCLRD
 70
     0
  9
$DIMCLRE
 70
     0
  9
$DIMCLRT
 70
     0
  9
$DIMTFAC
 40
1.0
  9
$DIMGAP
 40
0.09
  9
$DIMJUST
 70
     0
  9
$DIMSD1
 70
     0
  9
$DIMSD2
 70
     0
  9
$DIMTOLJ
 70
     1
  9
$DIMTZIN
 70
     0
  9
$DIMALTZ
 70
     0
  9
$DIMALTTZ
 70
     0
  9
$DIMFIT
 70
     3
  9
$DIMUPT
 70
     0
  9
$DIMUNIT
 70
     2
  9
$DIMDEC
 70
     4
  9
$DIMTDEC
 70
     4
  9
$DIMALTU
 70
     2
  9
$DIMALTTD
 70
     2
  9
$DIMTXSTY
  7
STANDARD
  9
$DIMAUNIT
 70
     0
  9
$LUNITS
 70
     2
  9
$LUPREC
 70
     4
  9
$SKETCHINC
 40
0.1
  9
$FILLETRAD
 40
0.0
  9
$AUNITS
 70
     0
  9
$AUPREC
 70
     0
  9
$MENU
  1
.
  9
$ELEVATION
 40
0.0
  9
$PELEVATION
 40
0.0
  9
$THICKNESS
 40
0.0
  9
$LIMCHECK
 70
     0
  9
$BLIPMODE
 70
     0
  9
$CHAMFERA
 40
0.0
  9
$CHAMFERB
 40
0.0
  9
$CHAMFERC
 40
0.0
  9
$CHAMFERD
 40
0.0
  9
$SKPOLY
 70
     0
  9
$TDCREATE
 40
2453439.430602083
  9
$TDUPDATE
 40
2453444.603813021
  9
$TDINDWG
 40
0.0292323264
  9
$TDUSRTIMER
 40
0.0292314236
  9
$USRTIMER
 70
     1
  9
$ANGBASE
 50
0.0
  9
$ANGDIR
 70
     0
  9
$PDMODE
 70
     0
  9
$PDSIZE
 40
0.0
  9
$PLINEWID
 40
0.0
  9
$COORDS
 70
     1
  9
$SPLFRAME
 70
     0
  9
$SPLINETYPE
 70
     6
  9
$SPLINESEGS
 70
     8
  9
$ATTDIA
 70
     0
  9
$ATTREQ
 70
     1
  9
$HANDLING
 70
-16383
  9
$HANDSEED
  5
573
  9
$SURFTAB1
 70
     6
  9
$SURFTAB2
 70
     6
  9
$SURFTYPE
 70
     6
  9
$SURFU
 70
     6
  9
$SURFV
 70
     6
  9
$UCSNAME
  2

  9
$UCSORG
 10
0.0
 20
0.0
 30
0.0
  9
$UCSXDIR
 10
1.0
 20
0.0
 30
0.0
  9
$UCSYDIR
 10
0.0
 20
1.0
 30
0.0
  9
$PUCSNAME
  2

  9
$PUCSORG
 10
0.0
 20
0.0
 30
0.0
  9
$PUCSXDIR
 10
1.0
 20
0.0
 30
0.0
  9
$PUCSYDIR
 10
0.0
 20
1.0
 30
0.0
  9
$USERI1
 70
     0
  9
$USERI2
 70
     0
  9
$USERI3
 70
     0
  9
$USERI4
 70
     0
  9
$USERI5
 70
     0
  9
$USERR1
 40
0.0
  9
$USERR2
 40
0.0
  9
$USERR3
 40
0.0
  9
$USERR4
 40
0.0
  9
$USERR5
 40
0.0
  9
$WORLDVIEW
 70
     1
  9
$SHADEDGE
 70
     3
  9
$SHADEDIF
 70
    70
  9
$TILEMODE
 70
     1
  9
$MAXACTVP
 70
    64
  9
$PINSBASE
 10
0.0
 20
0.0
 30
0.0
  9
$PLIMCHECK
 70
     0
  9
$PEXTMIN
 10
1.000000000000000E+20
 20
1.000000000000000E+20
 30
1.000000000000000E+20
  9
$PEXTMAX
 10
-1.000000000000000E+20
 20
-1.000000000000000E+20
 30
-1.000000000000000E+20
  9
$PLIMMIN
 10
0.0
 20
0.0
  9
$PLIMMAX
 10
12.0
 20
9.0
  9
$UNITMODE
 70
     0
  9
$VISRETAIN
 70
     1
  9
$PLINEGEN
 70
     0
  9
$PSLTSCALE
 70
     1
  9
$TREEDEPTH
 70
  3020
  9
$PICKSTYLE
 70
     1
  9
$CMLSTYLE
  2
STANDARD
  9
$CMLJUST
 70
     0
  9
$CMLSCALE
 40
1.0
  9
$PROXYGRAPHICS
 70
     1
  9
$MEASUREMENT
 70
     0
  0
ENDSEC
  0
SECTION
  2
CLASSES
  0
CLASS
  1
ACDBDICTIONARYWDFLT
  2
AcDbDictionaryWithDefault
  3
AutoCAD 2000
 90
        0
280
     0
281
     0
  0
CLASS
  1
ACDBPLACEHOLDER
  2
AcDbPlaceHolder
  3
AutoCAD 2000
 90
        0
280
     0
281
     0
  0
CLASS
  1
LAYOUT
  2
AcDbLayout
  3
AutoCAD 2000
 90
        0
280
     0
281
     0
  0
CLASS
  1
LONG_TRANSACTION
  2
AcDbLongTransaction
  3
AutoCAD 2000
 90
        0
280
     0
281
     0
  0
CLASS
  1
LWPOLYLINE
  2
AcDbPolyline
  3
AutoCAD 2000
 90
        0
280
     0
281
     1
  0
CLASS
  1
HATCH
  2
AcDbHatch
  3
AutoCAD 2000
 90
        0
280
     0
281
     1
  0
CLASS
  1
XRECORD
  2
AcDbXrecord
  3
AutoCAD 2000
 90
        0
280
     0
281
     0
  0
CLASS
  1
LONG_TRANSACTION
  2
AcDbLongTransaction
  3
AutoCAD 2000
 90
        0
280
     0
281
     0
  0
CLASS
  1
LWPOLYLINE
  2
AcDbPolyline
  3
AutoCAD 2000
 90
        0
280
     0
281
     1
  0
CLASS
  1
HATCH
  2
AcDbHatch
  3
AutoCAD 2000
 90
        0
280
     0
281
     1
  0
CLASS
  1
XRECORD
  2
AcDbXrecord
  3
AutoCAD 2000
 90
        0
280
     0
281
     0
  0
CLASS
  1
LONG_TRANSACTION
  2
AcDbLongTransaction
  3
AutoCAD 2000
 90
        0
280
     0
281
     0
  0
CLASS
  1
LWPOLYLINE
  2
AcDbPolyline
  3
AutoCAD 2000
 90
        0
280
     0
281
     1
  0
CLASS
  1
HATCH
  2
AcDbHatch
  3
AutoCAD 2000
 90
        0
280
     0
281
     1
  0
CLASS
  1
XRECORD
  2
AcDbXrecord
  3
AutoCAD 2000
 90
        0
280
     0
281
     0
  0
CLASS
  1
LONG_TRANSACTION
  2
AcDbLongTransaction
  3
AutoCAD 2000
 90
        0
280
     0
281
     0
  0
CLASS
  1
LWPOLYLINE
  2
AcDbPolyline
  3
AutoCAD 2000
 90
        0
280
     0
281
     1
  0
CLASS
  1
HATCH
  2
AcDbHatch
  3
AutoCAD 2000
 90
        0
280
     0
281
     1
  0
CLASS
  1
XRECORD
  2
AcDbXrecord
  3
AutoCAD 2000
 90
        0
280
     0
281
     0
  0
CLASS
  1
LONG_TRANSACTION
  2
AcDbLongTransaction
  3
AutoCAD 2000
 90
        0
280
     0
281
     0
  0
CLASS
  1
LWPOLYLINE
  2
AcDbPolyline
  3
AutoCAD 2000
 90
        0
280
     0
281
     1
  0
CLASS
  1
HATCH
  2
AcDbHatch
  3
AutoCAD 2000
 90
        0
280
     0
281
     1
  0
CLASS
  1
XRECORD
  2
AcDbXrecord
  3
AutoCAD 2000
 90
        0
280
     0
281
     0
  0
ENDSEC
  0
SECTION
  2
TABLES
  0
TABLE
  2
VPORT
  5
8
330
0
100
AcDbSymbolTable
 70
     2
  0
VPORT
  5
550
330
8
100
AcDbSymbolTableRecord
100
AcDbViewportTableRecord
  2
*ACTIVE
 70
     0
 10
0.0
 20
0.0
 11
1.0
 21
1.0
 12
20.06181737182024
 22
11.92170545257612
 13
0.0
 23
0.0
 14
1.0
 24
1.0
 15
0.0
 25
0.0
 16
0.0
 26
0.0
 36
1.0
 17
0.0
 27
0.0
 37
0.0
 40
23.70761343609882
 41
1.647569444444444
 42
50.0
 43
0.0
 44
0.0
 50
0.0
 51
0.0
 71
     0
 72
   100
 73
     1
 74
     1
 75
     0
 76
     0
 77
     0
 78
     0
  0
ENDTAB
  0
TABLE
  2
LTYPE
  5
5
330
0
100
AcDbSymbolTable
 70
    12
  0
LTYPE
  5
13
330
5
100
AcDbSymbolTableRecord
100
AcDbLinetypeTableRecord
  2
BYBLOCK
 70
     0
  3

 72
    65
 73
     0
 40
0.0
  0
LTYPE
  5
14
330
5
100
AcDbSymbolTableRecord
100
AcDbLinetypeTableRecord
  2
BYLAYER
 70
     0
  3

 72
    65
 73
     0
 40
0.0
  0
LTYPE
  5
15
330
5
100
AcDbSymbolTableRecord
100
AcDbLinetypeTableRecord
  2
CONTINUOUS
 70
     0
  3
Solid line
 72
    65
 73
     0
 40
0.0
  0
LTYPE
  5
22
330
5
100
AcDbSymbolTableRecord
100
AcDbLinetypeTableRecord
  2
DASHED
 70
     0
  3
__ __ __ __ __ __ __ __ __ __ __ __ __ __ __
 72
    65
 73
     2
 40
0.4262220000000001
 49
0.159833
 74
     0
 49
-0.079917
 74
     0
  0
LTYPE
  5
23
330
5
100
AcDbSymbolTableRecord
100
AcDbLinetypeTableRecord
  2
DOT
 70
     0
  3
...............................................
 72
    65
 73
     2
 40
0.079917
 49
0.0
 74
     0
 49
-0.079917
 74
     0
  0
LTYPE
  5
24
330
5
100
AcDbSymbolTableRecord
100
AcDbLinetypeTableRecord
  2
DASHDOT
 70
     0
  3
__ . __ . __ . __ . __ . __ . __ . __ . __ . __
 72
    65
 73
     4
 40
0.319667
 49
0.159833
 74
     0
 49
-0.079917
 74
     0
 49
0.0
 74
     0
 49
-0.079917
 74
     0
  0
LTYPE
  5
25
330
5
100
AcDbSymbolTableRecord
100
AcDbLinetypeTableRecord
  2
CENTER
 70
     0
  3
____ _ ____ _ ____ _ ____ _ ____ _ ____ _ ____
 72
    65
 73
     4
 40
0.6393330000000002
 49
0.399583
 74
     0
 49
-0.079917
 74
     0
 49
0.079917
 74
     0
 49
-0.079917
 74
     0
  0
LTYPE
  5
26
330
5
100
AcDbSymbolTableRecord
100
AcDbLinetypeTableRecord
  2
PHANTOM
 70
     0
  3
_____ _ _ _____ _ _ _____ _ _ _____ _ _ ____
 72
    65
 73
     6
 40
0.799167
 49
0.399583
 74
     0
 49
-0.079917
 74
     0
 49
0.079917
 74
     0
 49
-0.079917
 74
     0
 49
0.079917
 74
     0
 49
-0.079917
 74
     0
  0
LTYPE
  5
27
330
5
100
AcDbSymbolTableRecord
100
AcDbLinetypeTableRecord
  2
HIDDEN
 70
     0
  3
_ _ _ _ _ _ _ _ _ _ _ _ _ _ _ _ _ _ _ _ _ _ _
 72
    65
 73
     2
 40
0.319667
 49
0.213111
 74
     0
 49
-0.106556
 74
     0
  0
LTYPE
  5
28
330
5
100
AcDbSymbolTableRecord
100
AcDbLinetypeTableRecord
  2
BORDER
 70
     0
  3
__ __ . __ __ . __ __ . __ __ . __ __ . __ __
 72
    65
 73
     6
 40
0.5595100000000001
 49
0.079917
 74
     0
 49
-0.079917
 74
     0
 49
0.159833
 74
     0
 49
-0.079917
 74
     0
 49
0.0
 74
     0
 49
-0.079917
 74
     0
  0
LTYPE
  5
29
330
5
100
AcDbSymbolTableRecord
100
AcDbLinetypeTableRecord
  2
DIVIDE
 70
     0
  3
__ . . __ . . __ . . __ . . __ . . __ . . __
 72
    65
 73
     6
 40
-0.079917
 49
-0.079917
 74
     0
 49
-0.079917
 74
     0
 49
0.0
 74
     0
 49
-0.079917
 74
     0
 49
0.0
 74
     0
 49
-0.079917
 74
     0
  0
LTYPE
  5
2A
330
5
100
AcDbSymbolTableRecord
100
AcDbLinetypeTableRecord
  2
POINT31
 70
     0
  3
+                                          +
 72
    65
 73
     0
 40
0.0
  0
LTYPE
  5
2B
330
5
100
AcDbSymbolTableRecord
100
AcDbLinetypeTableRecord
  2
POINT63
 70
     0
  3
*                                          *
 72
    65
 73
     0
 40
0.0
  0
LTYPE
  5
2C
330
5
100
AcDbSymbolTableRecord
100
AcDbLinetypeTableRecord
  2
DBLDASH
 70
     0
  3
-- -- -- -- -- -- -- -- -- -- -- -- -- -- --
 72
    65
 73
     4
 40
0.279755
 49
0.079917
 74
     0
 49
-0.079917
 74
     0
 49
0.079917
 74
     0
 49
-0.079917
 74
     0
  0
ENDTAB
  0
TABLE
  2
LAYER
  5
2
330
0
100
AcDbSymbolTable
 70
     2
  0
LAYER
  5
10
330
2
100
AcDbSymbolTableRecord
100
AcDbLayerTableRecord
  2
0
 70
     0
 62
     5
  6
CONTINUOUS
  0
LAYER
  5
21B
330
2
100
AcDbSymbolTableRecord
100
AcDbLayerTableRecord
  2
DAMAN
 70
     0
 62
     5
  6
CONTINUOUS
  0
ENDTAB
  0
TABLE
  2
STYLE
  5
3
330
0
100
AcDbSymbolTable
 70
     1
  0
STYLE
  5
11
330
3
100
AcDbSymbolTableRecord
100
AcDbTextStyleTableRecord
  2
STANDARD
 70
     0
 40
0.0
 41
1.0
 50
0.0
 71
     0
 42
0.2
  3
txt
  4

  0
ENDTAB
  0
TABLE
  2
VIEW
  5
6
330
0
100
AcDbSymbolTable
 70
     0
  0
ENDTAB
  0
TABLE
  2
UCS
  5
7
330
0
100
AcDbSymbolTable
 70
     0
  0
ENDTAB
  0
TABLE
  2
APPID
  5
9
330
0
100
AcDbSymbolTable
 70
     1
  0
APPID
  5
12
330
9
100
AcDbSymbolTableRecord
100
AcDbRegAppTableRecord
  2
ACAD
 70
     0
  0
ENDTAB
  0
TABLE
  2
DIMSTYLE
  5
A
330
0
100
AcDbSymbolTable
 70
     1
  0
DIMSTYLE
105
18D
330
A
100
AcDbSymbolTableRecord
100
AcDbDimStyleTableRecord
  2
STANDARD
 70
     0
  3

  4

  5

  6

  7

 40
1.0
 41
0.18
 42
0.0625
 43
0.38
 44
0.18
 45
0.0
 46
0.0
 47
0.0
 48
0.0
140
0.18
141
0.09
142
0.0
143
25.4
144
1.0
145
0.0
146
1.0
147
0.09
 71
     0
 72
     0
 73
     1
 74
     1
 75
     0
 76
     0
 77
     0
 78
     0
170
     0
171
     2
172
     0
173
     0
174
     0
175
     0
176
     0
177
     0
178
     0
270
     2
271
     4
272
     4
273
     2
274
     2
340
11
275
     0
280
     0
281
     0
282
     0
283
     1
284
     0
285
     0
286
     0
287
     3
288
     0
  0
ENDTAB
  0
TABLE
  2
BLOCK_RECORD
  5
1
330
0
100
AcDbSymbolTable
 70
     6
  0
BLOCK_RECORD
  5
1E
102
{ACAD_XDICTIONARY
360
1B2
102
}
330
1
100
AcDbSymbolTableRecord
100
AcDbBlockTableRecord
  2
*MODEL_SPACE
  0
BLOCK_RECORD
  5
1A
102
{ACAD_XDICTIONARY
360
1B0
102
}
330
1
100
AcDbSymbolTableRecord
100
AcDbBlockTableRecord
  2
*PAPER_SPACE
  0
BLOCK_RECORD
  5
206
330
1
100
AcDbSymbolTableRecord
100
AcDbBlockTableRecord
  2
100CROSS
  0
BLOCK_RECORD
  5
20A
330
1
100
AcDbSymbolTableRecord
100
AcDbBlockTableRecord
  2
050CROSS
  0
BLOCK_RECORD
  5
213
330
1
100
AcDbSymbolTableRecord
100
AcDbBlockTableRecord
  2
08SAET
  0
BLOCK_RECORD
  5
222
330
1
100
AcDbSymbolTableRecord
100
AcDbBlockTableRecord
  2
06SAET
  0
BLOCK_RECORD
  5
36C
330
1
100
AcDbSymbolTableRecord
100
AcDbBlockTableRecord
  2
600MKS
  0
BLOCK_RECORD
  5
45F
330
1
100
AcDbSymbolTableRecord
100
AcDbBlockTableRecord
  2
A$C6E5D6A16
  0
ENDTAB
  0
ENDSEC
  0
SECTION
  2
BLOCKS
  0
BLOCK
  5
1F
330
1E
100
AcDbEntity
  8
0
100
AcDbBlockBegin
  2
*MODEL_SPACE
 70
     0
 10
0.0
 20
0.0
 30
0.0
  3
*MODEL_SPACE
  1

  0
ENDBLK
  5
20
330
1E
100
AcDbEntity
  8
0
100
AcDbBlockEnd
  0
BLOCK
  5
1B
330
1A
100
AcDbEntity
 67
     1
  8
0
100
AcDbBlockBegin
  2
*PAPER_SPACE
 70
     0
 10
0.0
 20
0.0
 30
0.0
  3
*PAPER_SPACE
  1

  0
ENDBLK
  5
1C
330
1A
100
AcDbEntity
 67
     1
  8
0
100
AcDbBlockEnd
  0
BLOCK
  5
208
330
206
100
AcDbEntity
  8
0
100
AcDbBlockBegin
  2
100CROSS
 70
     0
 10
5.625
 20
4.59375
 30
0.0
  3
100CROSS
  1

  0
INSERT
  5
207
330
206
100
AcDbEntity
  8
0
100
AcDbBlockReference
  2
050CROSS
 10
5.625
 20
4.59375
 30
0.0
  0
ENDBLK
  5
209
330
206
100
AcDbEntity
  8
0
100
AcDbBlockEnd
  0
BLOCK
  5
211
330
20A
100
AcDbEntity
  8
0
100
AcDbBlockBegin
  2
050CROSS
 70
     0
 10
5.0
 20
5.0
 30
0.0
  3
050CROSS
  1

  0
LINE
  5
20B
330
20A
100
AcDbEntity
  8
0
100
AcDbLine
 10
5.0
 20
5.28125
 30
0.0
 11
5.0
 21
5.78125
 31
0.0
  0
LINE
  5
20C
330
20A
100
AcDbEntity
  8
0
100
AcDbLine
 10
5.0
 20
4.875
 30
0.0
 11
5.0
 21
5.125
 31
0.0
  0
LINE
  5
20D
330
20A
100
AcDbEntity
  8
0
100
AcDbLine
 10
5.0
 20
4.15625
 30
0.0
 11
5.0
 21
4.71875
 31
0.0
  0
LINE
  5
20E
330
20A
100
AcDbEntity
  8
0
100
AcDbLine
 10
5.25
 20
5.0
 30
0.0
 11
5.8125
 21
5.0
 31
0.0
  0
LINE
  5
20F
330
20A
100
AcDbEntity
  8
0
100
AcDbLine
 10
4.90625
 20
5.0
 30
0.0
 11
5.09375
 21
5.0
 31
0.0
  0
LINE
  5
210
330
20A
100
AcDbEntity
  8
0
100
AcDbLine
 10
4.1875
 20
5.0
 30
0.0
 11
4.75
 21
5.0
 31
0.0
  0
ENDBLK
  5
212
330
20A
100
AcDbEntity
  8
0
100
AcDbBlockEnd
  0
BLOCK
  5
219
330
213
100
AcDbEntity
  8
0
100
AcDbBlockBegin
  2
08SAET
 70
     0
 10
0.0
 20
0.0
 30
0.0
  3
08SAET
  1

  0
CIRCLE
  5
214
330
213
100
AcDbEntity
  8
DAMAN
100
AcDbCircle
 10
0.0
 20
0.0
 30
0.0
 40
0.375
  0
CIRCLE
  5
215
330
213
100
AcDbEntity
  8
DAMAN
100
AcDbCircle
 10
0.0
 20
0.0
 30
0.0
 40
0.3125
  0
CIRCLE
  5
216
330
213
100
AcDbEntity
  8
DAMAN
  6
HIDDEN
100
AcDbCircle
 10
0.0
 20
0.0
 30
0.0
 40
0.3439999999999999
  0
INSERT
  5
217
330
213
100
AcDbEntity
  8
DAMAN
100
AcDbBlockReference
  2
100CROSS
 10
0.0
 20
0.0
 30
0.0
 41
0.88
 42
0.88
  0
CIRCLE
  5
218
330
213
100
AcDbEntity
  8
DAMAN
100
AcDbCircle
 10
0.0
 20
0.0
 30
0.0
 40
0.594
  0
ENDBLK
  5
21A
330
213
100
AcDbEntity
  8
0
100
AcDbBlockEnd
  0
BLOCK
  5
227
330
222
100
AcDbEntity
  8
0
100
AcDbBlockBegin
  2
06SAET
 70
     0
 10
0.0
 20
0.0
 30
0.0
  3
06SAET
  1

  0
INSERT
  5
223
330
222
100
AcDbEntity
  8
DAMAN
100
AcDbBlockReference
  2
100CROSS
 10
0.0
 20
0.0
 30
0.0
  0
CIRCLE
  5
224
330
222
100
AcDbEntity
  8
DAMAN
100
AcDbCircle
 10
0.0
 20
0.0
 30
0.0
 40
0.28125
  0
CIRCLE
  5
225
330
222
100
AcDbEntity
  8
DAMAN
100
AcDbCircle
 10
0.0
 20
0.0
 30
0.0
 40
0.5
  0
CIRCLE
  5
226
330
222
100
AcDbEntity
  8
DAMAN
100
AcDbCircle
 10
0.0
 20
0.0
 30
0.0
 40
0.25
  0
ENDBLK
  5
228
330
222
100
AcDbEntity
  8
0
100
AcDbBlockEnd
  0
BLOCK
  5
397
330
36C
100
AcDbEntity
  8
0
100
AcDbBlockBegin
  2
600MKS
 70
     0
 10
0.0
 20
0.0
 30
0.0
  3
600MKS
  1

  0
LINE
  5
36D
330
36C
100
AcDbEntity
  8
DAMAN
100
AcDbLine
 10
-1.625
 20
-0.5625
 30
0.0
 11
-1.625
 21
-0.375
 31
0.0
  0
LINE
  5
36E
330
36C
100
AcDbEntity
  8
DAMAN
100
AcDbLine
 10
-1.625
 20
-0.375
 30
0.0
 11
-0.4375
 21
-0.375
 31
0.0
  0
LINE
  5
36F
330
36C
100
AcDbEntity
  8
DAMAN
100
AcDbLine
 10
-0.1875
 20
-0.125
 30
0.0
 11
-0.1875
 21
1.0625
 31
0.0
  0
LINE
  5
370
330
36C
100
AcDbEntity
  8
DAMAN
100
AcDbLine
 10
-0.1875
 20
1.0625
 30
0.0
 11
0.0
 21
1.0625
 31
0.0
  0
LINE
  5
371
330
36C
100
AcDbEntity
  8
DAMAN
100
AcDbLine
 10
0.0
 20
1.0625
 30
0.0
 11
0.0
 21
-0.125
 31
0.0
  0
LINE
  5
372
330
36C
100
AcDbEntity
  8
DAMAN
100
AcDbLine
 10
-0.4375
 20
-0.5625
 30
0.0
 11
-1.625
 21
-0.5625
 31
0.0
  0
ARC
  5
373
330
36C
100
AcDbEntity
  8
DAMAN
100
AcDbCircle
 10
-0.4375
 20
-0.125
 30
0.0
 40
0.25
100
AcDbArc
 50
270.0
 51
0.0
  0
ARC
  5
374
330
36C
100
AcDbEntity
  8
DAMAN
100
AcDbCircle
 10
-0.4375
 20
-0.125
 30
0.0
 40
0.4375
100
AcDbArc
 50
270.0
 51
0.0
  0
LINE
  5
375
330
36C
100
AcDbEntity
  8
DAMAN
100
AcDbLine
 10
-1.59375
 20
-0.375
 30
0.0
 11
-1.59375
 21
-0.3125
 31
0.0
  0
LINE
  5
376
330
36C
100
AcDbEntity
  8
DAMAN
100
AcDbLine
 10
-1.59375
 20
-0.3125
 30
0.0
 11
-0.53125
 21
-0.3125
 31
0.0
  0
LINE
  5
377
330
36C
100
AcDbEntity
  8
DAMAN
100
AcDbLine
 10
-0.53125
 20
-0.3125
 30
0.0
 11
-0.53125
 21
-0.375
 31
0.0
  0
LINE
  5
378
330
36C
100
AcDbEntity
  8
DAMAN
100
AcDbLine
 10
-1.495512999999999
 20
-0.3125
 30
0.0
 11
-1.495512999999999
 21
-0.042835
 31
0.0
  0
LINE
  5
379
330
36C
100
AcDbEntity
  8
DAMAN
100
AcDbLine
 10
-1.421320999999999
 20
0.0
 30
0.0
 11
-0.703679
 21
0.0
 31
0.0
  0
LINE
  5
37A
330
36C
100
AcDbEntity
  8
DAMAN
100
AcDbLine
 10
-0.6294870000000003
 20
-0.042835
 30
0.0
 11
-0.6294870000000003
 21
-0.3125
 31
0.0
  0
LINE
  5
37B
330
36C
100
AcDbEntity
  8
DAMAN
100
AcDbLine
 10
-1.279005999999998
 20
-0.3125
 30
0.0
 11
-1.279005999999998
 21
-0.0625
 31
0.0
  0
LINE
  5
37C
330
36C
100
AcDbEntity
  8
DAMAN
100
AcDbLine
 10
-0.8459939999999999
 20
-0.3125
 30
0.0
 11
-0.8459939999999999
 21
-0.0625
 31
0.0
  0
ARC
  5
37D
330
36C
100
AcDbEntity
  8
DAMAN
100
AcDbCircle
 10
-1.0625
 20
-0.40625
 30
0.0
 40
0.40625
100
AcDbArc
 50
57.79577200000001
 51
122.2042279999999
  0
ARC
  5
37E
330
36C
100
AcDbEntity
  8
DAMAN
100
AcDbCircle
 10
-0.73774
 20
-0.125
 30
0.0
 40
0.125
100
AcDbArc
 50
30.0
 51
150.0
  0
ARC
  5
37F
330
36C
100
AcDbEntity
  8
DAMAN
100
AcDbCircle
 10
-1.387259999999999
 20
-0.125
 30
0.0
 40
0.125
100
AcDbArc
 50
30.0
 51
150.0
  0
LINE
  5
380
330
36C
100
AcDbEntity
  8
DAMAN
100
AcDbLine
 10
-1.495512999999999
 20
-0.042835
 30
0.0
 11
-1.421320999999999
 21
0.0
 31
0.0
  0
LINE
  5
381
330
36C
100
AcDbEntity
  8
DAMAN
100
AcDbLine
 10
-0.6294870000000003
 20
-0.042835
 30
0.0
 11
-0.703679
 21
0.0
 31
0.0
  0
LINE
  5
382
330
36C
100
AcDbEntity
  8
DAMAN
100
AcDbLine
 10
-1.3125
 20
-0.5625
 30
0.0
 11
-1.3125
 21
-1.28125
 31
0.0
  0
LINE
  5
383
330
36C
100
AcDbEntity
  8
DAMAN
100
AcDbLine
 10
-1.3125
 20
-1.28125
 30
0.0
 11
-1.28125
 21
-1.3125
 31
0.0
  0
LINE
  5
384
330
36C
100
AcDbEntity
  8
DAMAN
100
AcDbLine
 10
-1.28125
 20
-1.3125
 30
0.0
 11
-0.84375
 21
-1.3125
 31
0.0
  0
LINE
  5
385
330
36C
100
AcDbEntity
  8
DAMAN
100
AcDbLine
 10
-0.84375
 20
-1.3125
 30
0.0
 11
-0.8125
 21
-1.28125
 31
0.0
  0
LINE
  5
386
330
36C
100
AcDbEntity
  8
DAMAN
100
AcDbLine
 10
-0.8125
 20
-1.28125
 30
0.0
 11
-0.8125
 21
-0.5625
 31
0.0
  0
LINE
  5
387
330
36C
100
AcDbEntity
  8
DAMAN
100
AcDbLine
 10
-1.28125
 20
-0.5625
 30
0.0
 11
-1.28125
 21
-1.3125
 31
0.0
  0
LINE
  5
388
330
36C
100
AcDbEntity
  8
DAMAN
100
AcDbLine
 10
-0.84375
 20
-0.5625
 30
0.0
 11
-0.84375
 21
-1.3125
 31
0.0
  0
LINE
  5
389
330
36C
100
AcDbEntity
  8
DAMAN
100
AcDbLine
 10
-1.0625
 20
0.125
 30
0.0
 11
-1.0625
 21
-1.40625
 31
0.0
  0
LINE
  5
38A
330
36C
100
AcDbEntity
  8
DAMAN
100
AcDbLine
 10
-0.5196649999999999
 20
0.9330129999999996
 30
0.0
 11
-0.5625
 21
0.858821
 31
0.0
  0
LINE
  5
38B
330
36C
100
AcDbEntity
  8
DAMAN
100
AcDbLine
 10
-0.5196649999999999
 20
0.066987
 30
0.0
 11
-0.5625
 21
0.141179
 31
0.0
  0
ARC
  5
38C
330
36C
100
AcDbEntity
  8
DAMAN
100
AcDbCircle
 10
-0.4375
 20
0.17524
 30
0.0
 40
0.125
100
AcDbArc
 50
119.9999999999999
 51
239.9999999999999
  0
ARC
  5
38D
330
36C
100
AcDbEntity
  8
DAMAN
100
AcDbCircle
 10
-0.4375
 20
0.82476
 30
0.0
 40
0.125
100
AcDbArc
 50
119.9999999999999
 51
239.9999999999999
  0
ARC
  5
38E
330
36C
100
AcDbEntity
  8
DAMAN
100
AcDbCircle
 10
-0.15625
 20
0.5
 30
0.0
 40
0.40625
100
AcDbArc
 50
147.795772
 51
212.2042279999999
  0
LINE
  5
38F
330
36C
100
AcDbEntity
  8
DAMAN
100
AcDbLine
 10
-0.25
 20
0.7165060000000001
 30
0.0
 11
-0.5
 21
0.7165060000000001
 31
0.0
  0
LINE
  5
390
330
36C
100
AcDbEntity
  8
DAMAN
100
AcDbLine
 10
-0.25
 20
0.283494
 30
0.0
 11
-0.5
 21
0.283494
 31
0.0
  0
LINE
  5
391
330
36C
100
AcDbEntity
  8
DAMAN
100
AcDbLine
 10
-0.5196649999999999
 20
0.9330129999999996
 30
0.0
 11
-0.25
 21
0.9330129999999996
 31
0.0
  0
LINE
  5
392
330
36C
100
AcDbEntity
  8
DAMAN
100
AcDbLine
 10
-0.5625
 20
0.141179
 30
0.0
 11
-0.5625
 21
0.858821
 31
0.0
  0
LINE
  5
393
330
36C
100
AcDbEntity
  8
DAMAN
100
AcDbLine
 10
-0.25
 20
0.066987
 30
0.0
 11
-0.5196649999999999
 21
0.066987
 31
0.0
  0
LINE
  5
394
330
36C
100
AcDbEntity
  8
DAMAN
100
AcDbLine
 10
-0.25
 20
1.03125
 30
0.0
 11
-0.1875
 21
1.03125
 31
0.0
  0
LINE
  5
395
330
36C
100
AcDbEntity
  8
DAMAN
100
AcDbLine
 10
-0.25
 20
-0.03125
 30
0.0
 11
-0.25
 21
1.03125
 31
0.0
  0
LINE
  5
396
330
36C
100
AcDbEntity
  8
DAMAN
100
AcDbLine
 10
-0.1875
 20
-0.03125
 30
0.0
 11
-0.25
 21
-0.03125
 31
0.0
  0
ENDBLK
  5
398
330
36C
100
AcDbEntity
  8
0
100
AcDbBlockEnd
  0
BLOCK
  5
4C2
330
45F
100
AcDbEntity
  8
0
100
AcDbBlockBegin
  2
A$C6E5D6A16
 70
     0
 10
0.0
 20
0.0
 30
0.0
  3
A$C6E5D6A16
  1

  0
LINE
  5
460
330
45F
100
AcDbEntity
  8
DAMAN
100
AcDbLine
 10
7.375
 20
-6.28125
 30
0.0
 11
7.375
 21
-7.34375
 31
0.0
  0
INSERT
  5
461
330
45F
100
AcDbEntity
  8
DAMAN
100
AcDbBlockReference
  2
100CROSS
 10
6.5625
 20
-6.8125
 30
0.0
 41
-0.8000000000000007
 42
0.8000000000000007
  0
CIRCLE
  5
462
330
45F
100
AcDbEntity
  8
DAMAN
100
AcDbCircle
 10
6.5625
 20
-6.8125
 30
0.0
 40
0.53125
  0
LINE
  5
463
330
45F
100
AcDbEntity
  8
DAMAN
100
AcDbLine
 10
6.0
 20
0.0
 30
0.0
 11
6.0
 21
-8.0005
 31
0.0
  0
LINE
  5
464
330
45F
100
AcDbEntity
  8
0
  6
HIDDEN
100
AcDbLine
 10
7.0625
 20
-0.0004999999999988
 30
0.0
 11
7.0625
 21
-8.0005
 31
0.0
  0
LINE
  5
465
330
45F
100
AcDbEntity
  8
DAMAN
100
AcDbLine
 10
7.625
 20
-8.0005
 30
0.0
 11
7.625
 21
0.0
 31
0.0
  0
LINE
  5
466
330
45F
100
AcDbEntity
  8
DAMAN
100
AcDbLine
 10
7.4375
 20
-8.0005
 30
0.0
 11
7.4375
 21
0.0
 31
0.0
  0
CIRCLE
  5
467
330
45F
100
AcDbEntity
  8
DAMAN
100
AcDbCircle
 10
6.5625
 20
-6.8125
 30
0.0
 40
0.375
  0
LWPOLYLINE
  5
468
330
45F
100
AcDbEntity
  8
DAMAN
100
AcDbPolyline
 90
        6
 70
     1
 43
0.0
 10
6.1875
 20
-6.595994000000001
 10
6.5625
 20
-6.379486999999999
 10
6.9375
 20
-6.595994000000001
 10
6.9375
 20
-7.029005999999997
 10
6.5625
 20
-7.245513
 10
6.1875
 20
-7.029005999999997
  0
LINE
  5
469
330
45F
100
AcDbEntity
  8
DAMAN
100
AcDbLine
 10
6.0
 20
-8.0005
 30
0.0
 11
7.625
 21
-8.0005
 31
0.0
  0
LINE
  5
46A
330
45F
100
AcDbEntity
  8
DAMAN
100
AcDbLine
 10
7.625
 20
-6.5625
 30
0.0
 11
8.34375
 21
-6.5625
 31
0.0
  0
LINE
  5
46B
330
45F
100
AcDbEntity
  8
DAMAN
100
AcDbLine
 10
7.625
 20
-7.03125
 30
0.0
 11
8.375
 21
-7.03125
 31
0.0
  0
LINE
  5
46C
330
45F
100
AcDbEntity
  8
DAMAN
100
AcDbLine
 10
7.625
 20
-6.59375
 30
0.0
 11
8.375
 21
-6.59375
 31
0.0
  0
LINE
  5
46D
330
45F
100
AcDbEntity
  8
DAMAN
100
AcDbLine
 10
8.34375
 20
-7.0625
 30
0.0
 11
7.625
 21
-7.0625
 31
0.0
  0
LINE
  5
46E
330
45F
100
AcDbEntity
  8
DAMAN
100
AcDbLine
 10
6.9375
 20
-6.8125
 30
0.0
 11
8.46875
 21
-6.8125
 31
0.0
  0
LINE
  5
46F
330
45F
100
AcDbEntity
  8
DAMAN
100
AcDbLine
 10
7.105334999999982
 20
-7.245513
 30
0.0
 11
7.375
 21
-7.245513
 31
0.0
  0
LINE
  5
470
330
45F
100
AcDbEntity
  8
DAMAN
100
AcDbLine
 10
7.375
 20
-7.029005999999997
 30
0.0
 11
7.125
 21
-7.029005999999997
 31
0.0
  0
LINE
  5
471
330
45F
100
AcDbEntity
  8
DAMAN
100
AcDbLine
 10
7.375
 20
-6.379486999999999
 30
0.0
 11
7.105334999999982
 21
-6.379486999999999
 31
0.0
  0
LINE
  5
472
330
45F
100
AcDbEntity
  8
DAMAN
100
AcDbLine
 10
7.375
 20
-6.595994000000001
 30
0.0
 11
7.125
 21
-6.595994000000001
 31
0.0
  0
ARC
  5
473
330
45F
100
AcDbEntity
  8
DAMAN
100
AcDbCircle
 10
7.46875
 20
-6.8125
 30
0.0
 40
0.40625
100
AcDbArc
 50
147.795772
 51
212.2042279999999
  0
LINE
  5
474
330
45F
100
AcDbEntity
  8
DAMAN
100
AcDbLine
 10
7.0625
 20
-6.453679000000001
 30
0.0
 11
7.0625
 21
-7.171320999999998
 31
0.0
  0
LINE
  5
475
330
45F
100
AcDbEntity
  8
DAMAN
100
AcDbLine
 10
7.105334999999982
 20
-7.245513
 30
0.0
 11
7.0625
 21
-7.171320999999998
 31
0.0
  0
ARC
  5
476
330
45F
100
AcDbEntity
  8
DAMAN
100
AcDbCircle
 10
7.1875
 20
-7.137260000000001
 30
0.0
 40
0.125
100
AcDbArc
 50
119.9999999999999
 51
239.9999999999998
  0
LINE
  5
477
330
45F
100
AcDbEntity
  8
DAMAN
100
AcDbLine
 10
7.105334999999982
 20
-6.379486999999999
 30
0.0
 11
7.0625
 21
-6.453679000000001
 31
0.0
  0
ARC
  5
478
330
45F
100
AcDbEntity
  8
DAMAN
100
AcDbCircle
 10
7.1875
 20
-6.487739999999997
 30
0.0
 40
0.125
100
AcDbArc
 50
119.9999999999999
 51
239.9999999999998
  0
LINE
  5
479
330
45F
100
AcDbEntity
  8
DAMAN
100
AcDbLine
 10
7.375
 20
-7.34375
 30
0.0
 11
7.4375
 21
-7.34375
 31
0.0
  0
LINE
  5
47A
330
45F
100
AcDbEntity
  8
DAMAN
100
AcDbLine
 10
8.375
 20
-6.59375
 30
0.0
 11
8.375
 21
-7.03125
 31
0.0
  0
LINE
  5
47B
330
45F
100
AcDbEntity
  8
DAMAN
100
AcDbLine
 10
8.375
 20
-7.03125
 30
0.0
 11
8.34375
 21
-7.0625
 31
0.0
  0
LINE
  5
47C
330
45F
100
AcDbEntity
  8
DAMAN
100
AcDbLine
 10
8.34375
 20
-6.5625
 30
0.0
 11
8.375
 21
-6.59375
 31
0.0
  0
INSERT
  5
47D
330
45F
100
AcDbEntity
  8
DAMAN
100
AcDbBlockReference
  2
100CROSS
 10
6.5625
 20
-1.188500000000001
 30
0.0
 41
-0.8000000000000007
 42
0.8000000000000007
  0
LINE
  5
47E
330
45F
100
AcDbEntity
  8
DAMAN
100
AcDbLine
 10
7.4375
 20
-6.28125
 30
0.0
 11
7.375
 21
-6.28125
 31
0.0
  0
CIRCLE
  5
47F
330
45F
100
AcDbEntity
  8
DAMAN
100
AcDbCircle
 10
6.5625
 20
-1.188500000000001
 30
0.0
 40
0.53125
  0
CIRCLE
  5
480
330
45F
100
AcDbEntity
  8
DAMAN
100
AcDbCircle
 10
6.5625
 20
-1.188500000000001
 30
0.0
 40
0.375
  0
LWPOLYLINE
  5
481
330
45F
100
AcDbEntity
  8
DAMAN
100
AcDbPolyline
 90
        6
 70
     1
 43
0.0
 10
6.1875
 20
-0.9719939999999985
 10
6.5625
 20
-0.7554869999999987
 10
6.9375
 20
-0.9719939999999985
 10
6.9375
 20
-1.405006
 10
6.5625
 20
-1.621513
 10
6.1875
 20
-1.405006
  0
LINE
  5
482
330
45F
100
AcDbEntity
  8
DAMAN
100
AcDbLine
 10
7.625
 20
0.0
 30
0.0
 11
6.0
 21
0.0
 31
0.0
  0
LINE
  5
483
330
45F
100
AcDbEntity
  8
DAMAN
100
AcDbLine
 10
8.34375
 20
-1.438500000000001
 30
0.0
 11
7.625
 21
-1.438500000000001
 31
0.0
  0
LINE
  5
484
330
45F
100
AcDbEntity
  8
DAMAN
100
AcDbLine
 10
7.625
 20
-1.407250000000001
 30
0.0
 11
8.375
 21
-1.407250000000001
 31
0.0
  0
LINE
  5
485
330
45F
100
AcDbEntity
  8
DAMAN
100
AcDbLine
 10
7.625
 20
-0.9385000000000012
 30
0.0
 11
8.34375
 21
-0.9385000000000012
 31
0.0
  0
LINE
  5
486
330
45F
100
AcDbEntity
  8
DAMAN
100
AcDbLine
 10
7.625
 20
-0.9697500000000012
 30
0.0
 11
8.375
 21
-0.9697500000000012
 31
0.0
  0
LINE
  5
487
330
45F
100
AcDbEntity
  8
DAMAN
100
AcDbLine
 10
6.9375
 20
-1.188500000000001
 30
0.0
 11
8.46875
 21
-1.188500000000001
 31
0.0
  0
LINE
  5
488
330
45F
100
AcDbEntity
  8
DAMAN
100
AcDbLine
 10
7.375
 20
-0.6572500000000013
 30
0.0
 11
7.375
 21
-1.719750000000001
 31
0.0
  0
LINE
  5
489
330
45F
100
AcDbEntity
  8
DAMAN
100
AcDbLine
 10
7.105334999999982
 20
-1.621513
 30
0.0
 11
7.375
 21
-1.621513
 31
0.0
  0
LINE
  5
48A
330
45F
100
AcDbEntity
  8
DAMAN
100
AcDbLine
 10
7.375
 20
-1.405006
 30
0.0
 11
7.125
 21
-1.405006
 31
0.0
  0
LINE
  5
48B
330
45F
100
AcDbEntity
  8
DAMAN
100
AcDbLine
 10
7.375
 20
-0.9719939999999985
 30
0.0
 11
7.125
 21
-0.9719939999999985
 31
0.0
  0
LINE
  5
48C
330
45F
100
AcDbEntity
  8
DAMAN
100
AcDbLine
 10
7.375
 20
-0.7554869999999987
 30
0.0
 11
7.105334999999982
 21
-0.7554869999999987
 31
0.0
  0
ARC
  5
48D
330
45F
100
AcDbEntity
  8
DAMAN
100
AcDbCircle
 10
7.46875
 20
-1.188500000000001
 30
0.0
 40
0.40625
100
AcDbArc
 50
147.795772
 51
212.2042279999999
  0
LINE
  5
48E
330
45F
100
AcDbEntity
  8
DAMAN
100
AcDbLine
 10
7.0625
 20
-0.829679000000002
 30
0.0
 11
7.0625
 21
-1.547320999999999
 31
0.0
  0
LINE
  5
48F
330
45F
100
AcDbEntity
  8
DAMAN
100
AcDbLine
 10
7.105334999999982
 20
-1.621513
 30
0.0
 11
7.0625
 21
-1.547320999999999
 31
0.0
  0
ARC
  5
490
330
45F
100
AcDbEntity
  8
DAMAN
100
AcDbCircle
 10
7.1875
 20
-1.513259999999997
 30
0.0
 40
0.125
100
AcDbArc
 50
119.9999999999999
 51
239.9999999999998
  0
LINE
  5
491
330
45F
100
AcDbEntity
  8
DAMAN
100
AcDbLine
 10
7.105334999999982
 20
-0.7554869999999987
 30
0.0
 11
7.0625
 21
-0.829679000000002
 31
0.0
  0
ARC
  5
492
330
45F
100
AcDbEntity
  8
DAMAN
100
AcDbCircle
 10
7.1875
 20
-0.8637399999999999
 30
0.0
 40
0.125
100
AcDbArc
 50
119.9999999999999
 51
239.9999999999998
  0
LINE
  5
493
330
45F
100
AcDbEntity
  8
DAMAN
100
AcDbLine
 10
7.375
 20
-1.719750000000001
 30
0.0
 11
7.4375
 21
-1.719750000000001
 31
0.0
  0
LINE
  5
494
330
45F
100
AcDbEntity
  8
DAMAN
100
AcDbLine
 10
7.4375
 20
-0.6572500000000013
 30
0.0
 11
7.375
 21
-0.6572500000000013
 31
0.0
  0
LINE
  5
495
330
45F
100
AcDbEntity
  8
DAMAN
100
AcDbLine
 10
8.375
 20
-0.9697500000000012
 30
0.0
 11
8.375
 21
-1.407250000000001
 31
0.0
  0
LINE
  5
496
330
45F
100
AcDbEntity
  8
DAMAN
100
AcDbLine
 10
8.375
 20
-1.407250000000001
 30
0.0
 11
8.34375
 21
-1.438500000000001
 31
0.0
  0
LINE
  5
497
330
45F
100
AcDbEntity
  8
DAMAN
100
AcDbLine
 10
8.34375
 20
-0.9385000000000012
 30
0.0
 11
8.375
 21
-0.9697500000000012
 31
0.0
  0
INSERT
  5
498
330
45F
100
AcDbEntity
  8
DAMAN
100
AcDbBlockReference
  2
100CROSS
 10
-1.937500000000024
 20
-6.813000000000008
 30
0.0
 41
-0.8000000000000007
 42
0.8000000000000007
 50
180.0
  0
CIRCLE
  5
499
330
45F
100
AcDbEntity
  8
DAMAN
100
AcDbCircle
 10
-1.937500000000024
 20
-6.813000000000008
 30
0.0
 40
0.53125
  0
LINE
  5
49A
330
45F
100
AcDbEntity
  8
DAMAN
100
AcDbLine
 10
-2.750000000000023
 20
-7.344249999999999
 30
0.0
 11
-2.750000000000023
 21
-6.281749999999999
 31
0.0
  0
LINE
  5
49B
330
45F
100
AcDbEntity
  8
0
  6
CONTINUOUS
 62
     5
100
AcDbLine
 10
-3.000000000000023
 20
0.0
 30
0.0
 11
-3.000000000000023
 21
-8.0
 31
0.0
  0
LINE
  5
49C
330
45F
100
AcDbEntity
  8
DAMAN
100
AcDbLine
 10
-1.375000000000024
 20
-8.0
 30
0.0
 11
-1.375000000000024
 21
0.0
 31
0.0
  0
LINE
  5
49D
330
45F
100
AcDbEntity
  8
DAMAN
100
AcDbLine
 10
-3.000000000000023
 20
0.0
 30
0.0
 11
-3.000000000000023
 21
-8.0
 31
0.0
  0
LINE
  5
49E
330
45F
100
AcDbEntity
  8
DAMAN
100
AcDbLine
 10
-2.812500000000023
 20
0.0
 30
0.0
 11
-2.812500000000023
 21
-8.0
 31
0.0
  0
LINE
  5
49F
330
45F
100
AcDbEntity
  8
0
  6
CONTINUOUS
 62
     5
100
AcDbLine
 10
-3.000000000000023
 20
-8.0
 30
0.0
 11
-3.000000000000023
 21
0.0
 31
0.0
  0
LINE
  5
4A0
330
45F
100
AcDbEntity
  8
DAMAN
100
AcDbLine
 10
-2.480335000000025
 20
-6.379986999999998
 30
0.0
 11
-2.750000000000023
 21
-6.379986999999998
 31
0.0
  0
LINE
  5
4A1
330
45F
100
AcDbEntity
  8
DAMAN
100
AcDbLine
 10
-2.750000000000023
 20
-6.596494000000008
 30
0.0
 11
-2.500000000000023
 21
-6.596494000000008
 31
0.0
  0
LINE
  5
4A2
330
45F
100
AcDbEntity
  8
DAMAN
100
AcDbLine
 10
-2.750000000000023
 20
-7.029505999999998
 30
0.0
 11
-2.500000000000023
 21
-7.029505999999998
 31
0.0
  0
LINE
  5
4A3
330
45F
100
AcDbEntity
  8
DAMAN
100
AcDbLine
 10
-2.750000000000023
 20
-7.246012999999998
 30
0.0
 11
-2.480335000000025
 21
-7.246012999999998
 31
0.0
  0
LINE
  5
4A4
330
45F
100
AcDbEntity
  8
DAMAN
100
AcDbLine
 10
-3.000000000000023
 20
-8.0
 30
0.0
 11
-1.375000000000024
 21
-8.0
 31
0.0
  0
LINE
  5
4A5
330
45F
100
AcDbEntity
  8
DAMAN
100
AcDbLine
 10
-2.812500000000023
 20
-7.344249999999999
 30
0.0
 11
-2.750000000000023
 21
-7.344249999999999
 31
0.0
  0
CIRCLE
  5
4A6
330
45F
100
AcDbEntity
  8
DAMAN
100
AcDbCircle
 10
-1.937500000000024
 20
-6.813000000000008
 30
0.0
 40
0.375
  0
LWPOLYLINE
  5
4A7
330
45F
100
AcDbEntity
  8
DAMAN
100
AcDbPolyline
 90
        6
 70
     1
 43
0.0
 10
-1.562500000000024
 20
-7.029505999999998
 10
-1.937500000000024
 20
-7.246012999999998
 10
-2.312500000000023
 20
-7.029505999999998
 10
-2.312500000000023
 20
-6.596494000000008
 10
-1.937500000000024
 20
-6.379986999999998
 10
-1.562500000000024
 20
-6.596494000000008
  0
ARC
  5
4A8
330
45F
100
AcDbEntity
  8
DAMAN
100
AcDbCircle
 10
-2.843750000000023
 20
-6.813000000000008
 30
0.0
 40
0.40625
100
AcDbArc
 50
327.7957720000001
 51
32.20422799999989
  0
LINE
  5
4A9
330
45F
100
AcDbEntity
  8
DAMAN
100
AcDbLine
 10
-2.437500000000023
 20
-7.171820999999998
 30
0.0
 11
-2.437500000000023
 21
-6.454179
 31
0.0
  0
LINE
  5
4AA
330
45F
100
AcDbEntity
  8
DAMAN
100
AcDbLine
 10
-2.480335000000025
 20
-7.246012999999998
 30
0.0
 11
-2.437500000000023
 21
-7.171820999999998
 31
0.0
  0
ARC
  5
4AB
330
45F
100
AcDbEntity
  8
DAMAN
100
AcDbCircle
 10
-2.562500000000023
 20
-7.13776
 30
0.0
 40
0.125
100
AcDbArc
 50
300.0
 51
59.99999999999997
  0
ARC
  5
4AC
330
45F
100
AcDbEntity
  8
DAMAN
100
AcDbCircle
 10
-2.562500000000023
 20
-6.488240000000008
 30
0.0
 40
0.125
100
AcDbArc
 50
300.0
 51
59.99999999999997
  0
LINE
  5
4AD
330
45F
100
AcDbEntity
  8
DAMAN
100
AcDbLine
 10
-2.480335000000025
 20
-6.379986999999998
 30
0.0
 11
-2.437500000000023
 21
-6.454179
 31
0.0
  0
INSERT
  5
4AE
330
45F
100
AcDbEntity
  8
DAMAN
100
AcDbBlockReference
  2
100CROSS
 10
-1.937500000000024
 20
-1.187999999999998
 30
0.0
 41
-0.8000000000000007
 42
0.8000000000000007
 50
180.0
  0
LINE
  5
4AF
330
45F
100
AcDbEntity
  8
DAMAN
100
AcDbLine
 10
-2.750000000000023
 20
-6.281749999999999
 30
0.0
 11
-2.812500000000023
 21
-6.281749999999999
 31
0.0
  0
LINE
  5
4B0
330
45F
100
AcDbEntity
  8
DAMAN
100
AcDbLine
 10
-1.375000000000024
 20
0.0
 30
0.0
 11
-3.000000000000023
 21
0.0
 31
0.0
  0
LINE
  5
4B1
330
45F
100
AcDbEntity
  8
DAMAN
100
AcDbLine
 10
-2.480335000000025
 20
-0.7549869999999999
 30
0.0
 11
-2.750000000000023
 21
-0.7549869999999999
 31
0.0
  0
LINE
  5
4B2
330
45F
100
AcDbEntity
  8
DAMAN
100
AcDbLine
 10
-2.750000000000023
 20
-0.9714939999999996
 30
0.0
 11
-2.500000000000023
 21
-0.9714939999999996
 31
0.0
  0
LINE
  5
4B3
330
45F
100
AcDbEntity
  8
DAMAN
100
AcDbLine
 10
-2.750000000000023
 20
-1.404506
 30
0.0
 11
-2.500000000000023
 21
-1.404506
 31
0.0
  0
LINE
  5
4B4
330
45F
100
AcDbEntity
  8
DAMAN
100
AcDbLine
 10
-2.750000000000023
 20
-1.621013
 30
0.0
 11
-2.480335000000025
 21
-1.621013
 31
0.0
  0
LINE
  5
4B5
330
45F
100
AcDbEntity
  8
DAMAN
100
AcDbLine
 10
-2.750000000000023
 20
-1.719249999999997
 30
0.0
 11
-2.750000000000023
 21
-0.656749999999999
 31
0.0
  0
LINE
  5
4B6
330
45F
100
AcDbEntity
  8
DAMAN
100
AcDbLine
 10
-2.812500000000023
 20
-1.719249999999997
 30
0.0
 11
-2.750000000000023
 21
-1.719249999999997
 31
0.0
  0
LINE
  5
4B7
330
45F
100
AcDbEntity
  8
DAMAN
100
AcDbLine
 10
-2.750000000000023
 20
-0.656749999999999
 30
0.0
 11
-2.812500000000023
 21
-0.656749999999999
 31
0.0
  0
CIRCLE
  5
4B8
330
45F
100
AcDbEntity
  8
DAMAN
100
AcDbCircle
 10
-1.937500000000024
 20
-1.187999999999998
 30
0.0
 40
0.53125
  0
LWPOLYLINE
  5
4B9
330
45F
100
AcDbEntity
  8
DAMAN
100
AcDbPolyline
 90
        6
 70
     1
 43
0.0
 10
-1.562500000000024
 20
-1.404506
 10
-1.937500000000024
 20
-1.621013
 10
-2.312500000000023
 20
-1.404506
 10
-2.312500000000023
 20
-0.9714939999999996
 10
-1.937500000000024
 20
-0.7549869999999999
 10
-1.562500000000024
 20
-0.9714939999999996
  0
CIRCLE
  5
4BA
330
45F
100
AcDbEntity
  8
DAMAN
100
AcDbCircle
 10
-1.937500000000024
 20
-1.187999999999998
 30
0.0
 40
0.375
  0
ARC
  5
4BB
330
45F
100
AcDbEntity
  8
DAMAN
100
AcDbCircle
 10
-2.843750000000023
 20
-1.187999999999998
 30
0.0
 40
0.40625
100
AcDbArc
 50
327.7957720000001
 51
32.20422799999989
  0
LINE
  5
4BC
330
45F
100
AcDbEntity
  8
DAMAN
100
AcDbLine
 10
-2.437500000000023
 20
-1.546820999999996
 30
0.0
 11
-2.437500000000023
 21
-0.8291789999999997
 31
0.0
  0
LINE
  5
4BD
330
45F
100
AcDbEntity
  8
DAMAN
100
AcDbLine
 10
-2.480335000000025
 20
-1.621013
 30
0.0
 11
-2.437500000000023
 21
-1.546820999999996
 31
0.0
  0
ARC
  5
4BE
330
45F
100
AcDbEntity
  8
DAMAN
100
AcDbCircle
 10
-2.562500000000023
 20
-1.51276000000001
 30
0.0
 40
0.125
100
AcDbArc
 50
300.0
 51
59.99999999999997
  0
ARC
  5
4BF
330
45F
100
AcDbEntity
  8
DAMAN
100
AcDbCircle
 10
-2.562500000000023
 20
-0.8632400000000011
 30
0.0
 40
0.125
100
AcDbArc
 50
300.0
 51
59.99999999999997
  0
LINE
  5
4C0
330
45F
100
AcDbEntity
  8
DAMAN
100
AcDbLine
 10
-2.480335000000025
 20
-0.7549869999999999
 30
0.0
 11
-2.437500000000023
 21
-0.8291789999999997
 31
0.0
  0
INSERT
  5
4C1
330
45F
100
AcDbEntity
  8
DAMAN
100
AcDbBlockReference
  2
600MKS
 10
-3.000000000000023
 20
-16.0
 30
0.0
 41
-1.0
  0
ENDBLK
  5
4C3
330
45F
100
AcDbEntity
  8
0
100
AcDbBlockEnd
  0
ENDSEC
  0
SECTION
  2
ENTITIES
  0
CIRCLE
  5
34
330
1E
100
AcDbEntity
  8
0
  6
CONTINUOUS
 62
     5
100
AcDbCircle
 10
36.18699999999999
 20
19.641
 30
0.0
 40
0.211
  0
CIRCLE
  5
35
330
1E
100
AcDbEntity
  8
0
  6
CONTINUOUS
 62
     5
100
AcDbCircle
 10
36.18699999999999
 20
18.235
 30
0.0
 40
0.211
  0
LINE
  5
36
330
1E
100
AcDbEntity
  8
0
  6
CONTINUOUS
 62
     5
100
AcDbLine
 10
36.18699999999999
 20
17.93499999999998
 30
0.0
 11
36.18699999999999
 21
18.535
 31
0.0
  0
LINE
  5
37
330
1E
100
AcDbEntity
  8
0
  6
CONTINUOUS
 62
     5
100
AcDbLine
 10
34.81199999999999
 20
18.038
 30
0.0
 11
34.81199999999999
 21
19.838
 31
0.0
  0
CIRCLE
  5
38
330
1E
100
AcDbEntity
  8
0
  6
CONTINUOUS
 62
     5
100
AcDbCircle
 10
33.43699999999999
 20
19.641
 30
0.0
 40
0.211
  0
ARC
  5
39
330
1E
100
AcDbEntity
  8
0
  6
CONTINUOUS
 62
     5
100
AcDbCircle
 10
33.43699999999999
 20
19.641
 30
0.0
 40
0.247
100
AcDbArc
 50
85.00000099999999
 51
5.0
  0
CIRCLE
  5
3A
330
1E
100
AcDbEntity
  8
0
  6
CONTINUOUS
 62
     5
100
AcDbCircle
 10
33.43699999999999
 20
19.641
 30
0.0
 40
0.25
  0
LINE
  5
3B
330
1E
100
AcDbEntity
  8
0
  6
CONTINUOUS
 62
     5
100
AcDbLine
 10
33.137
 20
19.641
 30
0.0
 11
33.73699999999999
 21
19.641
 31
0.0
  0
TEXT
  5
3C
330
1E
100
AcDbEntity
  8
0
 62
     5
100
AcDbText
 10
32.55651799999997
 20
18.87956249999998
 30
0.0
 40
0.2125
  1
T
 50
90.0
 41
0.825
 72
     4
 11
32.45026799999996
 21
18.93799999999998
 31
0.0
100
AcDbText
  0
CIRCLE
  5
3D
330
1E
100
AcDbEntity
  8
0
  6
CONTINUOUS
 62
     5
100
AcDbCircle
 10
33.43699999999999
 20
18.235
 30
0.0
 40
0.211
  0
LINE
  5
3E
330
1E
100
AcDbEntity
  8
0
  6
CONTINUOUS
 62
     5
100
AcDbLine
 10
33.137
 20
18.235
 30
0.0
 11
33.73699999999999
 21
18.235
 31
0.0
  0
LINE
  5
3F
330
1E
100
AcDbEntity
  8
0
  6
CONTINUOUS
 62
     5
100
AcDbLine
 10
33.43699999999999
 20
17.93499999999998
 30
0.0
 11
33.43699999999999
 21
18.535
 31
0.0
  0
ARC
  5
40
330
1E
100
AcDbEntity
  8
0
  6
CONTINUOUS
 62
     5
100
AcDbCircle
 10
33.43699999999999
 20
18.235
 30
0.0
 40
0.247
100
AcDbArc
 50
85.00000099999999
 51
5.0
  0
CIRCLE
  5
41
330
1E
100
AcDbEntity
  8
0
  6
CONTINUOUS
 62
     5
100
AcDbCircle
 10
33.43699999999999
 20
18.235
 30
0.0
 40
0.25
  0
LINE
  5
42
330
1E
100
AcDbEntity
  8
0
  6
CONTINUOUS
 62
     5
100
AcDbLine
 10
33.91199999999999
 20
18.93799999999998
 30
0.0
 11
35.71199999999999
 21
18.93799999999998
 31
0.0
  0
CIRCLE
  5
43
330
1E
100
AcDbEntity
  8
0
  6
CONTINUOUS
 62
     5
100
AcDbCircle
 10
34.81199999999999
 20
18.93799999999998
 30
0.0
 40
0.75
  0
LINE
  5
44
330
1E
100
AcDbEntity
  8
0
  6
CONTINUOUS
 62
     5
100
AcDbLine
 10
36.18699999999999
 20
19.34099999999998
 30
0.0
 11
36.18699999999999
 21
19.94099999999998
 31
0.0
  0
LINE
  5
45
330
1E
100
AcDbEntity
  8
0
  6
CONTINUOUS
 62
     5
100
AcDbLine
 10
33.43699999999999
 20
19.34099999999998
 30
0.0
 11
33.43699999999999
 21
19.94099999999998
 31
0.0
  0
LINE
  5
46
330
1E
100
AcDbEntity
  8
0
  6
CONTINUOUS
 62
     5
100
AcDbLine
 10
35.887
 20
19.641
 30
0.0
 11
36.48699999999998
 21
19.641
 31
0.0
  0
ARC
  5
47
330
1E
100
AcDbEntity
  8
0
  6
CONTINUOUS
 62
     5
100
AcDbCircle
 10
36.18699999999999
 20
19.641
 30
0.0
 40
0.247
100
AcDbArc
 50
85.00000099999999
 51
5.0
  0
CIRCLE
  5
48
330
1E
100
AcDbEntity
  8
0
  6
CONTINUOUS
 62
     5
100
AcDbCircle
 10
36.18699999999999
 20
19.641
 30
0.0
 40
0.25
  0
LINE
  5
49
330
1E
100
AcDbEntity
  8
0
  6
CONTINUOUS
 62
     5
100
AcDbLine
 10
35.887
 20
18.235
 30
0.0
 11
36.48699999999998
 21
18.235
 31
0.0
  0
ARC
  5
4A
330
1E
100
AcDbEntity
  8
0
  6
CONTINUOUS
 62
     5
100
AcDbCircle
 10
36.18699999999999
 20
18.235
 30
0.0
 40
0.247
100
AcDbArc
 50
85.00000099999999
 51
5.0
  0
CIRCLE
  5
4B
330
1E
100
AcDbEntity
  8
0
  6
CONTINUOUS
 62
     5
100
AcDbCircle
 10
36.18699999999999
 20
18.235
 30
0.0
 40
0.25
  0
LINE
  5
51
330
1E
100
AcDbEntity
  8
0
  6
CONTINUOUS
 62
     5
100
AcDbLine
 10
36.218
 20
16.05
 30
0.0
 11
36.218
 21
16.576
 31
0.0
  0
CIRCLE
  5
52
330
1E
100
AcDbEntity
  8
0
  6
CONTINUOUS
 62
     5
100
AcDbCircle
 10
36.218
 20
16.31299999999999
 30
0.0
 40
0.184
  0
LINE
  5
53
330
1E
100
AcDbEntity
  8
0
  6
CONTINUOUS
 62
     5
100
AcDbLine
 10
34.31199999999999
 20
15.719
 30
0.0
 11
35.81199999999999
 21
15.719
 31
0.0
  0
CIRCLE
  5
54
330
1E
100
AcDbEntity
  8
0
  6
CONTINUOUS
 62
     5
100
AcDbCircle
 10
36.218
 20
15.125
 30
0.0
 40
0.184
  0
LINE
  5
55
330
1E
100
AcDbEntity
  8
0
  6
CONTINUOUS
 62
     5
100
AcDbLine
 10
36.218
 20
14.86299999999999
 30
0.0
 11
36.218
 21
15.388
 31
0.0
  0
LINE
  5
56
330
1E
100
AcDbEntity
  8
0
  6
CONTINUOUS
 62
     5
100
AcDbLine
 10
35.06199999999999
 20
14.969
 30
0.0
 11
35.06199999999999
 21
16.469
 31
0.0
  0
CIRCLE
  5
57
330
1E
100
AcDbEntity
  8
0
  6
CONTINUOUS
 62
     5
100
AcDbCircle
 10
35.06199999999999
 20
15.719
 30
0.0
 40
0.625
  0
LINE
  5
58
330
1E
100
AcDbEntity
  8
0
  6
CONTINUOUS
 62
     5
100
AcDbLine
 10
33.64399999999999
 20
16.31299999999999
 30
0.0
 11
34.16899999999999
 21
16.31299999999999
 31
0.0
  0
LINE
  5
59
330
1E
100
AcDbEntity
  8
0
  6
CONTINUOUS
 62
     5
100
AcDbLine
 10
33.90599999999999
 20
16.05
 30
0.0
 11
33.90599999999999
 21
16.576
 31
0.0
  0
ARC
  5
5A
330
1E
100
AcDbEntity
  8
0
  6
CONTINUOUS
 62
     5
100
AcDbCircle
 10
33.90599999999999
 20
16.31299999999999
 30
0.0
 40
0.215
100
AcDbArc
 50
85.00000099999999
 51
5.0
  0
CIRCLE
  5
5B
330
1E
100
AcDbEntity
  8
0
  6
CONTINUOUS
 62
     5
100
AcDbCircle
 10
33.90599999999999
 20
16.31299999999999
 30
0.0
 40
0.184
  0
CIRCLE
  5
5C
330
1E
100
AcDbEntity
  8
0
  6
CONTINUOUS
 62
     5
100
AcDbCircle
 10
33.90599999999999
 20
16.31299999999999
 30
0.0
 40
0.2189999999999999
  0
LINE
  5
5D
330
1E
100
AcDbEntity
  8
0
  6
CONTINUOUS
 62
     5
100
AcDbLine
 10
33.64299999999998
 20
15.125
 30
0.0
 11
34.168
 21
15.125
 31
0.0
  0
LINE
  5
5E
330
1E
100
AcDbEntity
  8
0
  6
CONTINUOUS
 62
     5
100
AcDbLine
 10
33.90599999999999
 20
14.86299999999999
 30
0.0
 11
33.90599999999999
 21
15.388
 31
0.0
  0
ARC
  5
5F
330
1E
100
AcDbEntity
  8
0
  6
CONTINUOUS
 62
     5
100
AcDbCircle
 10
33.90599999999999
 20
15.125
 30
0.0
 40
0.215
100
AcDbArc
 50
85.00000099999999
 51
5.0
  0
CIRCLE
  5
60
330
1E
100
AcDbEntity
  8
0
  6
CONTINUOUS
 62
     5
100
AcDbCircle
 10
33.90599999999999
 20
15.125
 30
0.0
 40
0.184
  0
CIRCLE
  5
61
330
1E
100
AcDbEntity
  8
0
  6
CONTINUOUS
 62
     5
100
AcDbCircle
 10
33.90599999999999
 20
15.125
 30
0.0
 40
0.2189999999999999
  0
TEXT
  5
62
330
1E
100
AcDbEntity
  8
0
 62
     5
100
AcDbText
 10
32.55651799999997
 20
15.6605625
 30
0.0
 40
0.2125
  1
P
 50
90.0
 41
0.825
 72
     4
 11
32.45026799999996
 21
15.719
 31
0.0
100
AcDbText
  0
LINE
  5
63
330
1E
100
AcDbEntity
  8
0
  6
CONTINUOUS
 62
     5
100
AcDbLine
 10
35.95599999999999
 20
16.31299999999999
 30
0.0
 11
36.48099999999999
 21
16.31299999999999
 31
0.0
  0
ARC
  5
64
330
1E
100
AcDbEntity
  8
0
  6
CONTINUOUS
 62
     5
100
AcDbCircle
 10
36.218
 20
16.31299999999999
 30
0.0
 40
0.215
100
AcDbArc
 50
85.00000099999999
 51
5.0
  0
CIRCLE
  5
65
330
1E
100
AcDbEntity
  8
0
  6
CONTINUOUS
 62
     5
100
AcDbCircle
 10
36.218
 20
16.31299999999999
 30
0.0
 40
0.2189999999999999
  0
LINE
  5
66
330
1E
100
AcDbEntity
  8
0
  6
CONTINUOUS
 62
     5
100
AcDbLine
 10
35.95599999999999
 20
15.125
 30
0.0
 11
36.47999999999999
 21
15.125
 31
0.0
  0
CIRCLE
  5
67
330
1E
100
AcDbEntity
  8
0
  6
CONTINUOUS
 62
     5
100
AcDbCircle
 10
36.218
 20
15.125
 30
0.0
 40
0.2189999999999999
  0
ARC
  5
68
330
1E
100
AcDbEntity
  8
0
  6
CONTINUOUS
 62
     5
100
AcDbCircle
 10
36.218
 20
15.125
 30
0.0
 40
0.215
100
AcDbArc
 50
85.00000099999999
 51
5.0
  0
LINE
  5
97
330
1E
100
AcDbEntity
  8
0
  6
CONTINUOUS
 62
     5
100
AcDbLine
 10
32.06199999999999
 20
20.625
 30
0.0
 11
32.06199999999999
 21
12.625
 31
0.0
  0
LINE
  5
9F
330
1E
100
AcDbEntity
  8
0
  6
CONTINUOUS
 62
     5
100
AcDbLine
 10
38.06199999999999
 20
20.625
 30
0.0
 11
32.06199999999999
 21
20.625
 31
0.0
  0
LINE
  5
A0
330
1E
100
AcDbEntity
  8
0
  6
CONTINUOUS
 62
     5
100
AcDbLine
 10
32.06199999999999
 20
12.625
 30
0.0
 11
38.06199999999999
 21
12.625
 31
0.0
  0
LINE
  5
DA
330
1E
100
AcDbEntity
  8
0
  6
CONTINUOUS
 62
     5
100
AcDbLine
 10
29.06199999999998
 20
10.625
 30
0.0
 11
29.06199999999998
 21
4.625
 31
0.0
  0
ARC
  5
DB
330
1E
100
AcDbEntity
  8
0
  6
CONTINUOUS
 62
     5
100
AcDbCircle
 10
16.875
 20
19.375
 30
0.0
 40
0.247
100
AcDbArc
 50
85.00000099999999
 51
5.0
  0
CIRCLE
  5
DC
330
1E
100
AcDbEntity
  8
0
  6
CONTINUOUS
 62
     5
100
AcDbCircle
 10
16.875
 20
19.375
 30
0.0
 40
0.211
  0
CIRCLE
  5
DD
330
1E
100
AcDbEntity
  8
0
  6
CONTINUOUS
 62
     5
100
AcDbCircle
 10
16.875
 20
19.375
 30
0.0
 40
0.25
  0
LINE
  5
DE
330
1E
100
AcDbEntity
  8
0
  6
CONTINUOUS
 62
     5
100
AcDbLine
 10
16.875
 20
19.07499999999998
 30
0.0
 11
16.875
 21
19.675
 31
0.0
  0
LINE
  5
DF
330
1E
100
AcDbEntity
  8
0
  6
CONTINUOUS
 62
     5
100
AcDbLine
 10
16.57499999999999
 20
19.375
 30
0.0
 11
17.174
 21
19.375
 31
0.0
  0
LINE
  5
E0
330
1E
100
AcDbEntity
  8
0
  6
CONTINUOUS
 62
     5
100
AcDbLine
 10
15.60599999999999
 20
18.219
 30
0.0
 11
16.768
 21
18.219
 31
0.0
  0
LINE
  5
E1
330
1E
100
AcDbEntity
  8
0
  6
CONTINUOUS
 62
     5
100
AcDbLine
 10
16.57499999999999
 20
17.28099999999999
 30
0.0
 11
17.174
 21
17.28099999999999
 31
0.0
  0
CIRCLE
  5
E2
330
1E
100
AcDbEntity
  8
0
  6
CONTINUOUS
 62
     5
100
AcDbCircle
 10
16.187
 20
18.219
 30
0.0
 40
0.484
  0
LINE
  5
E3
330
1E
100
AcDbEntity
  8
0
  6
CONTINUOUS
 62
     5
100
AcDbLine
 10
16.187
 20
17.63799999999998
 30
0.0
 11
16.187
 21
18.8
 31
0.0
  0
LINE
  5
E4
330
1E
100
AcDbEntity
  8
0
  6
CONTINUOUS
 62
     5
100
AcDbLine
 10
13.249
 20
19.07499999999998
 30
0.0
 11
13.249
 21
19.675
 31
0.0
  0
CIRCLE
  5
E5
330
1E
100
AcDbEntity
  8
0
  6
CONTINUOUS
 62
     5
100
AcDbCircle
 10
13.249
 20
19.375
 30
0.0
 40
0.211
  0
LINE
  5
E6
330
1E
100
AcDbEntity
  8
0
  6
CONTINUOUS
 62
     5
100
AcDbLine
 10
12.949
 20
19.375
 30
0.0
 11
13.54899999999999
 21
19.375
 31
0.0
  0
ARC
  5
E7
330
1E
100
AcDbEntity
  8
0
  6
CONTINUOUS
 62
     5
100
AcDbCircle
 10
13.249
 20
19.375
 30
0.0
 40
0.247
100
AcDbArc
 50
85.00000099999999
 51
5.0
  0
CIRCLE
  5
E8
330
1E
100
AcDbEntity
  8
0
  6
CONTINUOUS
 62
     5
100
AcDbCircle
 10
13.249
 20
19.375
 30
0.0
 40
0.25
  0
LINE
  5
E9
330
1E
100
AcDbEntity
  8
0
  6
CONTINUOUS
 62
     5
100
AcDbLine
 10
13.249
 20
18.05
 30
0.0
 11
13.249
 21
18.38799999999998
 31
0.0
  0
LINE
  5
EA
330
1E
100
AcDbEntity
  8
0
  6
CONTINUOUS
 62
     5
100
AcDbLine
 10
13.08
 20
18.219
 30
0.0
 11
13.418
 21
18.219
 31
0.0
  0
CIRCLE
  5
EB
330
1E
100
AcDbEntity
  8
0
  6
CONTINUOUS
 62
     5
100
AcDbCircle
 10
13.249
 20
18.219
 30
0.0
 40
0.14
  0
LINE
  5
EC
330
1E
100
AcDbEntity
  8
0
  6
CONTINUOUS
 62
     5
100
AcDbLine
 10
13.356
 20
17.282
 30
0.0
 11
14.51799999999999
 21
17.282
 31
0.0
  0
LINE
  5
ED
330
1E
100
AcDbEntity
  8
0
  6
CONTINUOUS
 62
     5
100
AcDbLine
 10
15.60599999999999
 20
16.344
 30
0.0
 11
16.768
 21
16.344
 31
0.0
  0
LINE
  5
EE
330
1E
100
AcDbEntity
  8
0
  6
CONTINUOUS
 62
     5
100
AcDbLine
 10
16.187
 20
15.76299999999999
 30
0.0
 11
16.187
 21
16.925
 31
0.0
  0
CIRCLE
  5
EF
330
1E
100
AcDbEntity
  8
0
  6
CONTINUOUS
 62
     5
100
AcDbCircle
 10
16.187
 20
16.344
 30
0.0
 40
0.484
  0
LINE
  5
F0
330
1E
100
AcDbEntity
  8
0
  6
CONTINUOUS
 62
     5
100
AcDbLine
 10
15.9
 20
14.938
 30
0.0
 11
16.35
 21
14.938
 31
0.0
  0
LINE
  5
F1
330
1E
100
AcDbEntity
  8
0
  6
CONTINUOUS
 62
     5
100
AcDbLine
 10
16.57499999999999
 20
14.25
 30
0.0
 11
17.174
 21
14.25
 31
0.0
  0
CIRCLE
  5
F2
330
1E
100
AcDbEntity
  8
0
  6
CONTINUOUS
 62
     5
100
AcDbCircle
 10
16.125
 20
14.938
 30
0.0
 40
0.2189999999999999
  0
LINE
  5
F3
330
1E
100
AcDbEntity
  8
0
  6
CONTINUOUS
 62
     5
100
AcDbLine
 10
16.125
 20
14.713
 30
0.0
 11
16.125
 21
15.163
 31
0.0
  0
LINE
  5
F4
330
1E
100
AcDbEntity
  8
0
  6
CONTINUOUS
 62
     5
100
AcDbLine
 10
17.062
 20
15.48799999999999
 30
0.0
 11
17.062
 21
15.826
 31
0.0
  0
CIRCLE
  5
F5
330
1E
100
AcDbEntity
  8
0
  6
CONTINUOUS
 62
     5
100
AcDbCircle
 10
17.062
 20
15.657
 30
0.0
 40
0.14
  0
LINE
  5
F6
330
1E
100
AcDbEntity
  8
0
  6
CONTINUOUS
 62
     5
100
AcDbLine
 10
12.94999999999999
 20
16.344
 30
0.0
 11
13.54899999999999
 21
16.344
 31
0.0
  0
LINE
  5
F7
330
1E
100
AcDbEntity
  8
0
  6
CONTINUOUS
 62
     5
100
AcDbLine
 10
13.25
 20
16.044
 30
0.0
 11
13.25
 21
16.64399999999999
 31
0.0
  0
CIRCLE
  5
F8
330
1E
100
AcDbEntity
  8
0
  6
CONTINUOUS
 62
     5
100
AcDbCircle
 10
13.25
 20
16.344
 30
0.0
 40
0.211
  0
ARC
  5
F9
330
1E
100
AcDbEntity
  8
0
  6
CONTINUOUS
 62
     5
100
AcDbCircle
 10
13.25
 20
16.344
 30
0.0
 40
0.247
100
AcDbArc
 50
85.00000099999999
 51
5.0
  0
CIRCLE
  5
FA
330
1E
100
AcDbEntity
  8
0
  6
CONTINUOUS
 62
     5
100
AcDbCircle
 10
13.25
 20
16.344
 30
0.0
 40
0.25
  0
LINE
  5
FB
330
1E
100
AcDbEntity
  8
0
  6
CONTINUOUS
 62
     5
100
AcDbLine
 10
13.356
 20
15.40599999999999
 30
0.0
 11
14.51799999999999
 21
15.40599999999999
 31
0.0
  0
LINE
  5
FC
330
1E
100
AcDbEntity
  8
0
  6
CONTINUOUS
 62
     5
100
AcDbLine
 10
12.94999999999999
 20
14.25
 30
0.0
 11
13.55
 21
14.25
 31
0.0
  0
LINE
  5
FD
330
1E
100
AcDbEntity
  8
0
  6
CONTINUOUS
 62
     5
100
AcDbLine
 10
13.93699999999999
 20
14.82499999999999
 30
0.0
 11
13.93699999999999
 21
15.987
 31
0.0
  0
CIRCLE
  5
FE
330
1E
100
AcDbEntity
  8
0
  6
CONTINUOUS
 62
     5
100
AcDbCircle
 10
13.93699999999999
 20
15.40599999999999
 30
0.0
 40
0.484
  0
LINE
  5
FF
330
1E
100
AcDbEntity
  8
0
  6
CONTINUOUS
 62
     5
100
AcDbLine
 10
16.875
 20
13.95
 30
0.0
 11
16.875
 21
14.55
 31
0.0
  0
ARC
  5
100
330
1E
100
AcDbEntity
  8
0
  6
CONTINUOUS
 62
     5
100
AcDbCircle
 10
16.875
 20
14.25
 30
0.0
 40
0.247
100
AcDbArc
 50
85.00000099999999
 51
5.0
  0
CIRCLE
  5
101
330
1E
100
AcDbEntity
  8
0
  6
CONTINUOUS
 62
     5
100
AcDbCircle
 10
16.875
 20
14.25
 30
0.0
 40
0.211
  0
CIRCLE
  5
102
330
1E
100
AcDbEntity
  8
0
  6
CONTINUOUS
 62
     5
100
AcDbCircle
 10
16.875
 20
14.25
 30
0.0
 40
0.25
  0
LINE
  5
103
330
1E
100
AcDbEntity
  8
0
  6
CONTINUOUS
 62
     5
100
AcDbLine
 10
13.25
 20
13.95
 30
0.0
 11
13.25
 21
14.55
 31
0.0
  0
CIRCLE
  5
104
330
1E
100
AcDbEntity
  8
0
  6
CONTINUOUS
 62
     5
100
AcDbCircle
 10
13.25
 20
14.25
 30
0.0
 40
0.211
  0
CIRCLE
  5
105
330
1E
100
AcDbEntity
  8
0
  6
CONTINUOUS
 62
     5
100
AcDbCircle
 10
13.25
 20
14.25
 30
0.0
 40
0.25
  0
ARC
  5
106
330
1E
100
AcDbEntity
  8
0
  6
CONTINUOUS
 62
     5
100
AcDbCircle
 10
13.25
 20
14.25
 30
0.0
 40
0.247
100
AcDbArc
 50
85.00000099999999
 51
5.0
  0
LINE
  5
107
330
1E
100
AcDbEntity
  8
0
  6
CONTINUOUS
 62
     5
100
AcDbLine
 10
8.061999999999999
 20
20.625
 30
0.0
 11
8.061999999999999
 21
12.625
 31
0.0
  0
CIRCLE
  5
108
330
1E
100
AcDbEntity
  8
0
  6
CONTINUOUS
 62
     5
100
AcDbCircle
 10
16.875
 20
17.28099999999999
 30
0.0
 40
0.211
  0
LINE
  5
109
330
1E
100
AcDbEntity
  8
0
  6
CONTINUOUS
 62
     5
100
AcDbLine
 10
16.875
 20
16.98099999999999
 30
0.0
 11
16.875
 21
17.582
 31
0.0
  0
ARC
  5
10A
330
1E
100
AcDbEntity
  8
0
  6
CONTINUOUS
 62
     5
100
AcDbCircle
 10
16.875
 20
17.28099999999999
 30
0.0
 40
0.247
100
AcDbArc
 50
85.00000099999999
 51
5.0
  0
CIRCLE
  5
10B
330
1E
100
AcDbEntity
  8
0
  6
CONTINUOUS
 62
     5
100
AcDbCircle
 10
16.875
 20
17.28099999999999
 30
0.0
 40
0.25
  0
LINE
  5
10C
330
1E
100
AcDbEntity
  8
0
  6
CONTINUOUS
 62
     5
100
AcDbLine
 10
13.93699999999999
 20
16.701
 30
0.0
 11
13.93699999999999
 21
17.86299999999998
 31
0.0
  0
CIRCLE
  5
10D
330
1E
100
AcDbEntity
  8
0
  6
CONTINUOUS
 62
     5
100
AcDbCircle
 10
13.93699999999999
 20
17.282
 30
0.0
 40
0.484
  0
LINE
  5
10F
330
1E
100
AcDbEntity
  8
0
  6
CONTINUOUS
 62
     5
100
AcDbLine
 10
6.386999999999997
 20
19.641
 30
0.0
 11
6.987
 21
19.641
 31
0.0
  0
CIRCLE
  5
110
330
1E
100
AcDbEntity
  8
0
  6
CONTINUOUS
 62
     5
100
AcDbCircle
 10
6.687
 20
19.641
 30
0.0
 40
0.211
  0
ARC
  5
111
330
1E
100
AcDbEntity
  8
0
  6
CONTINUOUS
 62
     5
100
AcDbCircle
 10
6.687
 20
19.641
 30
0.0
 40
0.247
100
AcDbArc
 50
85.00000099999999
 51
5.0
  0
CIRCLE
  5
112
330
1E
100
AcDbEntity
  8
0
  6
CONTINUOUS
 62
     5
100
AcDbCircle
 10
6.687
 20
19.641
 30
0.0
 40
0.25
  0
LINE
  5
113
330
1E
100
AcDbEntity
  8
0
  6
CONTINUOUS
 62
     5
100
AcDbLine
 10
6.386999999999997
 20
18.235
 30
0.0
 11
6.987
 21
18.235
 31
0.0
  0
CIRCLE
  5
114
330
1E
100
AcDbEntity
  8
0
  6
CONTINUOUS
 62
     5
100
AcDbCircle
 10
6.687
 20
18.235
 30
0.0
 40
0.211
  0
LINE
  5
115
330
1E
100
AcDbEntity
  8
0
  6
CONTINUOUS
 62
     5
100
AcDbLine
 10
6.687
 20
17.93499999999998
 30
0.0
 11
6.687
 21
18.535
 31
0.0
  0
ARC
  5
116
330
1E
100
AcDbEntity
  8
0
  6
CONTINUOUS
 62
     5
100
AcDbCircle
 10
6.687
 20
18.235
 30
0.0
 40
0.247
100
AcDbArc
 50
85.00000099999999
 51
5.0
  0
CIRCLE
  5
117
330
1E
100
AcDbEntity
  8
0
  6
CONTINUOUS
 62
     5
100
AcDbCircle
 10
6.687
 20
18.235
 30
0.0
 40
0.25
  0
CIRCLE
  5
118
330
1E
100
AcDbEntity
  8
0
  6
CONTINUOUS
 62
     5
100
AcDbCircle
 10
3.936999999999999
 20
19.641
 30
0.0
 40
0.211
  0
ARC
  5
119
330
1E
100
AcDbEntity
  8
0
  6
CONTINUOUS
 62
     5
100
AcDbCircle
 10
3.936999999999999
 20
19.641
 30
0.0
 40
0.247
100
AcDbArc
 50
85.00000099999999
 51
5.0
  0
CIRCLE
  5
11A
330
1E
100
AcDbEntity
  8
0
  6
CONTINUOUS
 62
     5
100
AcDbCircle
 10
3.936999999999999
 20
19.641
 30
0.0
 40
0.25
  0
LINE
  5
11B
330
1E
100
AcDbEntity
  8
0
  6
CONTINUOUS
 62
     5
100
AcDbLine
 10
3.636999999999996
 20
19.641
 30
0.0
 11
4.237
 21
19.641
 31
0.0
  0
LINE
  5
11C
330
1E
100
AcDbEntity
  8
0
  6
CONTINUOUS
 62
     5
100
AcDbLine
 10
3.636999999999996
 20
18.235
 30
0.0
 11
4.237
 21
18.235
 31
0.0
  0
CIRCLE
  5
11D
330
1E
100
AcDbEntity
  8
0
  6
CONTINUOUS
 62
     5
100
AcDbCircle
 10
3.936999999999999
 20
18.235
 30
0.0
 40
0.211
  0
LINE
  5
11E
330
1E
100
AcDbEntity
  8
0
  6
CONTINUOUS
 62
     5
100
AcDbLine
 10
5.312
 20
18.038
 30
0.0
 11
5.312
 21
19.838
 31
0.0
  0
LINE
  5
11F
330
1E
100
AcDbEntity
  8
0
  6
CONTINUOUS
 62
     5
100
AcDbLine
 10
3.936999999999999
 20
17.93499999999998
 30
0.0
 11
3.936999999999999
 21
18.535
 31
0.0
  0
ARC
  5
120
330
1E
100
AcDbEntity
  8
0
  6
CONTINUOUS
 62
     5
100
AcDbCircle
 10
3.936999999999999
 20
18.235
 30
0.0
 40
0.247
100
AcDbArc
 50
85.00000099999999
 51
5.0
  0
CIRCLE
  5
121
330
1E
100
AcDbEntity
  8
0
  6
CONTINUOUS
 62
     5
100
AcDbCircle
 10
3.936999999999999
 20
18.235
 30
0.0
 40
0.25
  0
LINE
  5
122
330
1E
100
AcDbEntity
  8
0
  6
CONTINUOUS
 62
     5
100
AcDbLine
 10
4.411999999999999
 20
18.93799999999998
 30
0.0
 11
6.211999999999997
 21
18.93799999999998
 31
0.0
  0
CIRCLE
  5
123
330
1E
100
AcDbEntity
  8
0
  6
CONTINUOUS
 62
     5
100
AcDbCircle
 10
5.312
 20
18.93799999999998
 30
0.0
 40
0.75
  0
LINE
  5
124
330
1E
100
AcDbEntity
  8
0
  6
CONTINUOUS
 62
     5
100
AcDbLine
 10
6.687
 20
19.34099999999998
 30
0.0
 11
6.687
 21
19.94099999999998
 31
0.0
  0
LINE
  5
125
330
1E
100
AcDbEntity
  8
0
  6
CONTINUOUS
 62
     5
100
AcDbLine
 10
3.936999999999999
 20
19.34099999999998
 30
0.0
 11
3.936999999999999
 21
19.94099999999998
 31
0.0
  0
LINE
  5
12B
330
1E
100
AcDbEntity
  8
0
  6
CONTINUOUS
 62
     5
100
AcDbLine
 10
6.217999999999999
 20
16.05
 30
0.0
 11
6.217999999999999
 21
16.576
 31
0.0
  0
CIRCLE
  5
12C
330
1E
100
AcDbEntity
  8
0
  6
CONTINUOUS
 62
     5
100
AcDbCircle
 10
6.217999999999999
 20
16.31299999999999
 30
0.0
 40
0.184
  0
ARC
  5
12D
330
1E
100
AcDbEntity
  8
0
  6
CONTINUOUS
 62
     5
100
AcDbCircle
 10
6.217999999999999
 20
16.31299999999999
 30
0.0
 40
0.215
100
AcDbArc
 50
85.00000099999999
 51
5.0
  0
CIRCLE
  5
12E
330
1E
100
AcDbEntity
  8
0
  6
CONTINUOUS
 62
     5
100
AcDbCircle
 10
6.217999999999999
 20
16.31299999999999
 30
0.0
 40
0.2189999999999999
  0
LINE
  5
12F
330
1E
100
AcDbEntity
  8
0
  6
CONTINUOUS
 62
     5
100
AcDbLine
 10
5.956
 20
16.31299999999999
 30
0.0
 11
6.480999999999997
 21
16.31299999999999
 31
0.0
  0
LINE
  5
130
330
1E
100
AcDbEntity
  8
0
  6
CONTINUOUS
 62
     5
100
AcDbLine
 10
6.218499999999997
 20
15.3875
 30
0.0
 11
6.218499999999997
 21
14.8625
 31
0.0
  0
CIRCLE
  5
131
330
1E
100
AcDbEntity
  8
0
  6
CONTINUOUS
 62
     5
100
AcDbCircle
 10
6.217999999999999
 20
15.125
 30
0.0
 40
0.184
  0
ARC
  5
132
330
1E
100
AcDbEntity
  8
0
  6
CONTINUOUS
 62
     5
100
AcDbCircle
 10
6.217999999999999
 20
15.125
 30
0.0
 40
0.215
100
AcDbArc
 50
85.00000099999999
 51
5.0
  0
CIRCLE
  5
133
330
1E
100
AcDbEntity
  8
0
  6
CONTINUOUS
 62
     5
100
AcDbCircle
 10
6.217999999999999
 20
15.125
 30
0.0
 40
0.2189999999999999
  0
LINE
  5
134
330
1E
100
AcDbEntity
  8
0
  6
CONTINUOUS
 62
     5
100
AcDbLine
 10
5.956
 20
15.125
 30
0.0
 11
6.480999999999997
 21
15.125
 31
0.0
  0
LINE
  5
135
330
1E
100
AcDbEntity
  8
0
  6
CONTINUOUS
 62
     5
100
AcDbLine
 10
3.905999999999997
 20
16.05
 30
0.0
 11
3.905999999999997
 21
16.576
 31
0.0
  0
ARC
  5
136
330
1E
100
AcDbEntity
  8
0
  6
CONTINUOUS
 62
     5
100
AcDbCircle
 10
3.905999999999997
 20
16.31299999999999
 30
0.0
 40
0.215
100
AcDbArc
 50
85.00000099999999
 51
5.0
  0
CIRCLE
  5
137
330
1E
100
AcDbEntity
  8
0
  6
CONTINUOUS
 62
     5
100
AcDbCircle
 10
3.905999999999997
 20
16.31299999999999
 30
0.0
 40
0.184
  0
CIRCLE
  5
138
330
1E
100
AcDbEntity
  8
0
  6
CONTINUOUS
 62
     5
100
AcDbCircle
 10
3.905999999999997
 20
16.31299999999999
 30
0.0
 40
0.2189999999999999
  0
LINE
  5
139
330
1E
100
AcDbEntity
  8
0
  6
CONTINUOUS
 62
     5
100
AcDbLine
 10
3.643999999999999
 20
16.31299999999999
 30
0.0
 11
4.167999999999998
 21
16.31299999999999
 31
0.0
  0
LINE
  5
13A
330
1E
100
AcDbEntity
  8
0
  6
CONTINUOUS
 62
     5
100
AcDbLine
 10
3.905999999999997
 20
14.86299999999999
 30
0.0
 11
3.905999999999997
 21
15.388
 31
0.0
  0
ARC
  5
13B
330
1E
100
AcDbEntity
  8
0
  6
CONTINUOUS
 62
     5
100
AcDbCircle
 10
3.905999999999997
 20
15.125
 30
0.0
 40
0.215
100
AcDbArc
 50
85.00000099999999
 51
5.0
  0
CIRCLE
  5
13C
330
1E
100
AcDbEntity
  8
0
  6
CONTINUOUS
 62
     5
100
AcDbCircle
 10
3.905999999999997
 20
15.125
 30
0.0
 40
0.184
  0
CIRCLE
  5
13D
330
1E
100
AcDbEntity
  8
0
  6
CONTINUOUS
 62
     5
100
AcDbCircle
 10
3.905999999999997
 20
15.125
 30
0.0
 40
0.2189999999999999
  0
LINE
  5
13E
330
1E
100
AcDbEntity
  8
0
  6
CONTINUOUS
 62
     5
100
AcDbLine
 10
3.642999999999998
 20
15.125
 30
0.0
 11
4.167999999999998
 21
15.125
 31
0.0
  0
LINE
  5
13F
330
1E
100
AcDbEntity
  8
0
  6
CONTINUOUS
 62
     5
100
AcDbLine
 10
5.062
 20
14.969
 30
0.0
 11
5.062
 21
16.469
 31
0.0
  0
LINE
  5
140
330
1E
100
AcDbEntity
  8
0
  6
CONTINUOUS
 62
     5
100
AcDbLine
 10
4.312
 20
15.719
 30
0.0
 11
5.812
 21
15.719
 31
0.0
  0
CIRCLE
  5
141
330
1E
100
AcDbEntity
  8
0
  6
CONTINUOUS
 62
     5
100
AcDbCircle
 10
5.062
 20
15.719
 30
0.0
 40
0.625
  0
TEXT
  5
148
330
1E
100
AcDbEntity
  8
0
 62
     5
100
AcDbText
 10
7.567482
 20
18.99643749999998
 30
0.0
 40
0.2125
  1
T
 50
270.0
 41
0.825
 72
     4
 11
7.673732000000001
 21
18.93799999999998
 31
0.0
100
AcDbText
  0
LINE
  5
149
330
1E
100
AcDbEntity
  8
0
  6
CONTINUOUS
 62
     5
100
AcDbLine
 10
2.061999999999998
 20
20.625
 30
0.0
 11
8.061999999999999
 21
20.625
 31
0.0
  0
TEXT
  5
14A
330
1E
100
AcDbEntity
  8
0
 62
     5
100
AcDbText
 10
7.567482
 20
15.7774375
 30
0.0
 40
0.2125
  1
P
 50
270.0
 41
0.825
 72
     4
 11
7.673732000000001
 21
15.719
 31
0.0
100
AcDbText
  0
LINE
  5
14B
330
1E
100
AcDbEntity
  8
0
  6
CONTINUOUS
 62
     5
100
AcDbLine
 10
8.061999999999999
 20
12.625
 30
0.0
 11
2.061999999999998
 21
12.625
 31
0.0
  0
TEXT
  5
14C
330
1E
100
AcDbEntity
  8
0
 62
     5
100
AcDbText
 10
16.2603905
 20
10.16301799999998
 30
0.0
 40
0.2125
  1
B
 41
0.825
 72
     4
 11
16.318828
 21
10.26926799999998
 31
0.0
100
AcDbText
  0
LINE
  5
14D
330
1E
100
AcDbEntity
  8
0
  6
CONTINUOUS
 62
     5
100
AcDbLine
 10
15.362
 20
9.687999999999997
 30
0.0
 11
15.887
 21
9.687999999999997
 31
0.0
  0
CIRCLE
  5
14E
330
1E
100
AcDbEntity
  8
0
  6
CONTINUOUS
 62
     5
100
AcDbCircle
 10
15.624
 20
9.687999999999997
 30
0.0
 40
0.184
  0
ARC
  5
14F
330
1E
100
AcDbEntity
  8
0
  6
CONTINUOUS
 62
     5
100
AcDbCircle
 10
15.624
 20
9.687999999999997
 30
0.0
 40
0.215
100
AcDbArc
 50
85.00000099999999
 51
5.0
  0
CIRCLE
  5
150
330
1E
100
AcDbEntity
  8
0
  6
CONTINUOUS
 62
     5
100
AcDbCircle
 10
15.624
 20
9.687999999999997
 30
0.0
 40
0.2189999999999999
  0
LINE
  5
151
330
1E
100
AcDbEntity
  8
0
  6
CONTINUOUS
 62
     5
100
AcDbLine
 10
15.624
 20
9.425
 30
0.0
 11
15.624
 21
9.949999999999999
 31
0.0
  0
LINE
  5
152
330
1E
100
AcDbEntity
  8
0
  6
CONTINUOUS
 62
     5
100
AcDbLine
 10
13.04899999999999
 20
9.687999999999997
 30
0.0
 11
13.574
 21
9.687999999999997
 31
0.0
  0
ARC
  5
153
330
1E
100
AcDbEntity
  8
0
  6
CONTINUOUS
 62
     5
100
AcDbCircle
 10
13.31199999999999
 20
9.687999999999997
 30
0.0
 40
0.215
100
AcDbArc
 50
85.00000099999999
 51
5.0
  0
CIRCLE
  5
154
330
1E
100
AcDbEntity
  8
0
  6
CONTINUOUS
 62
     5
100
AcDbCircle
 10
13.31199999999999
 20
9.687999999999997
 30
0.0
 40
0.184
  0
CIRCLE
  5
155
330
1E
100
AcDbEntity
  8
0
  6
CONTINUOUS
 62
     5
100
AcDbCircle
 10
13.31199999999999
 20
9.687999999999997
 30
0.0
 40
0.2189999999999999
  0
LINE
  5
156
330
1E
100
AcDbEntity
  8
0
  6
CONTINUOUS
 62
     5
100
AcDbLine
 10
13.31199999999999
 20
9.425
 30
0.0
 11
13.31199999999999
 21
9.949999999999999
 31
0.0
  0
LINE
  5
157
330
1E
100
AcDbEntity
  8
0
  6
CONTINUOUS
 62
     5
100
AcDbLine
 10
13.718
 20
9.093999999999999
 30
0.0
 11
15.21799999999999
 21
9.093999999999999
 31
0.0
  0
LINE
  5
158
330
1E
100
AcDbEntity
  8
0
  6
CONTINUOUS
 62
     5
100
AcDbLine
 10
15.361
 20
8.5
 30
0.0
 11
15.886
 21
8.5
 31
0.0
  0
TEXT
  5
159
330
1E
100
AcDbEntity
  8
0
 62
     5
100
AcDbText
 10
16.2603905
 20
7.194017999999998
 30
0.0
 40
0.2125
  1
A
 41
0.825
 72
     4
 11
16.318828
 21
7.300267999999999
 31
0.0
100
AcDbText
  0
LINE
  5
15A
330
1E
100
AcDbEntity
  8
0
  6
CONTINUOUS
 62
     5
100
AcDbLine
 10
15.362
 20
6.718999999999997
 30
0.0
 11
15.887
 21
6.718999999999997
 31
0.0
  0
LINE
  5
15B
330
1E
100
AcDbEntity
  8
0
  6
CONTINUOUS
 62
     5
100
AcDbLine
 10
15.624
 20
6.456999999999997
 30
0.0
 11
15.624
 21
6.980999999999997
 31
0.0
  0
CIRCLE
  5
15C
330
1E
100
AcDbEntity
  8
0
  6
CONTINUOUS
 62
     5
100
AcDbCircle
 10
15.624
 20
6.718999999999997
 30
0.0
 40
0.184
  0
ARC
  5
15D
330
1E
100
AcDbEntity
  8
0
  6
CONTINUOUS
 62
     5
100
AcDbCircle
 10
15.624
 20
6.718999999999997
 30
0.0
 40
0.215
100
AcDbArc
 50
85.00000099999999
 51
5.0
  0
CIRCLE
  5
15E
330
1E
100
AcDbEntity
  8
0
  6
CONTINUOUS
 62
     5
100
AcDbCircle
 10
15.624
 20
6.718999999999997
 30
0.0
 40
0.2189999999999999
  0
LINE
  5
15F
330
1E
100
AcDbEntity
  8
0
  6
CONTINUOUS
 62
     5
100
AcDbLine
 10
13.04899999999999
 20
8.5
 30
0.0
 11
13.574
 21
8.5
 31
0.0
  0
LINE
  5
160
330
1E
100
AcDbEntity
  8
0
  6
CONTINUOUS
 62
     5
100
AcDbLine
 10
13.04899999999999
 20
6.718999999999997
 30
0.0
 11
13.574
 21
6.718999999999997
 31
0.0
  0
LINE
  5
161
330
1E
100
AcDbEntity
  8
0
  6
CONTINUOUS
 62
     5
100
AcDbLine
 10
13.31199999999999
 20
6.456
 30
0.0
 11
13.31199999999999
 21
6.980999999999997
 31
0.0
  0
ARC
  5
162
330
1E
100
AcDbEntity
  8
0
  6
CONTINUOUS
 62
     5
100
AcDbCircle
 10
13.31199999999999
 20
6.718999999999997
 30
0.0
 40
0.215
100
AcDbArc
 50
85.00000099999999
 51
5.0
  0
CIRCLE
  5
163
330
1E
100
AcDbEntity
  8
0
  6
CONTINUOUS
 62
     5
100
AcDbCircle
 10
13.31199999999999
 20
6.718999999999997
 30
0.0
 40
0.184
  0
CIRCLE
  5
164
330
1E
100
AcDbEntity
  8
0
  6
CONTINUOUS
 62
     5
100
AcDbCircle
 10
13.31199999999999
 20
6.718999999999997
 30
0.0
 40
0.2189999999999999
  0
LINE
  5
165
330
1E
100
AcDbEntity
  8
0
  6
CONTINUOUS
 62
     5
100
AcDbLine
 10
13.718
 20
6.125
 30
0.0
 11
15.21799999999999
 21
6.125
 31
0.0
  0
LINE
  5
166
330
1E
100
AcDbEntity
  8
0
  6
CONTINUOUS
 62
     5
100
AcDbLine
 10
15.624
 20
8.237999999999999
 30
0.0
 11
15.624
 21
8.762999999999998
 31
0.0
  0
CIRCLE
  5
167
330
1E
100
AcDbEntity
  8
0
  6
CONTINUOUS
 62
     5
100
AcDbCircle
 10
15.624
 20
8.5
 30
0.0
 40
0.184
  0
ARC
  5
168
330
1E
100
AcDbEntity
  8
0
  6
CONTINUOUS
 62
     5
100
AcDbCircle
 10
15.624
 20
8.5
 30
0.0
 40
0.215
100
AcDbArc
 50
85.00000099999999
 51
5.0
  0
CIRCLE
  5
169
330
1E
100
AcDbEntity
  8
0
  6
CONTINUOUS
 62
     5
100
AcDbCircle
 10
15.624
 20
8.5
 30
0.0
 40
0.2189999999999999
  0
LINE
  5
16A
330
1E
100
AcDbEntity
  8
0
  6
CONTINUOUS
 62
     5
100
AcDbLine
 10
13.31199999999999
 20
8.237999999999999
 30
0.0
 11
13.31199999999999
 21
8.762999999999998
 31
0.0
  0
ARC
  5
16B
330
1E
100
AcDbEntity
  8
0
  6
CONTINUOUS
 62
     5
100
AcDbCircle
 10
13.31199999999999
 20
8.5
 30
0.0
 40
0.215
100
AcDbArc
 50
85.00000099999999
 51
5.0
  0
CIRCLE
  5
16C
330
1E
100
AcDbEntity
  8
0
  6
CONTINUOUS
 62
     5
100
AcDbCircle
 10
13.31199999999999
 20
8.5
 30
0.0
 40
0.184
  0
CIRCLE
  5
16D
330
1E
100
AcDbEntity
  8
0
  6
CONTINUOUS
 62
     5
100
AcDbCircle
 10
13.31199999999999
 20
8.5
 30
0.0
 40
0.2189999999999999
  0
LINE
  5
16E
330
1E
100
AcDbEntity
  8
0
  6
CONTINUOUS
 62
     5
100
AcDbLine
 10
14.468
 20
8.343999999999999
 30
0.0
 11
14.468
 21
9.843999999999999
 31
0.0
  0
CIRCLE
  5
16F
330
1E
100
AcDbEntity
  8
0
  6
CONTINUOUS
 62
     5
100
AcDbCircle
 10
14.468
 20
9.093999999999999
 30
0.0
 40
0.625
  0
TEXT
  5
170
330
1E
100
AcDbEntity
  8
0
 62
     5
100
AcDbText
 10
11.21055049999999
 20
8.714082999999998
 30
0.0
 40
0.2125
  1
Y
 41
0.825
 72
     4
 11
11.26898799999999
 21
8.820332999999997
 31
0.0
100
AcDbText
  0
LINE
  5
17A
330
1E
100
AcDbEntity
  8
0
  6
CONTINUOUS
 62
     5
100
AcDbLine
 10
15.361
 20
5.530999999999997
 30
0.0
 11
15.886
 21
5.530999999999997
 31
0.0
  0
LINE
  5
17B
330
1E
100
AcDbEntity
  8
0
  6
CONTINUOUS
 62
     5
100
AcDbLine
 10
13.04899999999999
 20
5.530999999999997
 30
0.0
 11
13.574
 21
5.530999999999997
 31
0.0
  0
CIRCLE
  5
17C
330
1E
100
AcDbEntity
  8
0
  6
CONTINUOUS
 62
     5
100
AcDbCircle
 10
15.624
 20
5.530999999999997
 30
0.0
 40
0.184
  0
LINE
  5
17D
330
1E
100
AcDbEntity
  8
0
  6
CONTINUOUS
 62
     5
100
AcDbLine
 10
15.624
 20
5.269
 30
0.0
 11
15.624
 21
5.793999999999997
 31
0.0
  0
ARC
  5
17E
330
1E
100
AcDbEntity
  8
0
  6
CONTINUOUS
 62
     5
100
AcDbCircle
 10
15.624
 20
5.530999999999997
 30
0.0
 40
0.215
100
AcDbArc
 50
85.00000099999999
 51
5.0
  0
CIRCLE
  5
17F
330
1E
100
AcDbEntity
  8
0
  6
CONTINUOUS
 62
     5
100
AcDbCircle
 10
15.624
 20
5.530999999999997
 30
0.0
 40
0.2189999999999999
  0
CIRCLE
  5
180
330
1E
100
AcDbEntity
  8
0
  6
CONTINUOUS
 62
     5
100
AcDbCircle
 10
13.31199999999999
 20
5.530999999999997
 30
0.0
 40
0.184
  0
LINE
  5
181
330
1E
100
AcDbEntity
  8
0
  6
CONTINUOUS
 62
     5
100
AcDbLine
 10
13.31199999999999
 20
5.269
 30
0.0
 11
13.31199999999999
 21
5.793999999999997
 31
0.0
  0
ARC
  5
182
330
1E
100
AcDbEntity
  8
0
  6
CONTINUOUS
 62
     5
100
AcDbCircle
 10
13.31199999999999
 20
5.530999999999997
 30
0.0
 40
0.215
100
AcDbArc
 50
85.00000099999999
 51
5.0
  0
CIRCLE
  5
183
330
1E
100
AcDbEntity
  8
0
  6
CONTINUOUS
 62
     5
100
AcDbCircle
 10
13.31199999999999
 20
5.530999999999997
 30
0.0
 40
0.2189999999999999
  0
TEXT
  5
184
330
1E
100
AcDbEntity
  8
0
 62
     5
100
AcDbText
 10
11.429975
 20
4.992539999999997
 30
0.0
 40
0.1872
  1
DAMAN ****
 50
90.0
 41
0.825
 72
     4
 11
11.336375
 21
5.738999999999997
 31
0.0
100
AcDbText
  0
LINE
  5
185
330
1E
100
AcDbEntity
  8
0
  6
CONTINUOUS
 62
     5
100
AcDbLine
 10
14.468
 20
5.375
 30
0.0
 11
14.468
 21
6.875
 31
0.0
  0
CIRCLE
  5
186
330
1E
100
AcDbEntity
  8
0
  6
CONTINUOUS
 62
     5
100
AcDbCircle
 10
14.468
 20
6.125
 30
0.0
 40
0.625
  0
LINE
  5
187
330
1E
100
AcDbEntity
  8
0
  6
CONTINUOUS
 62
     5
100
AcDbLine
 10
10.93699999999999
 20
4.625
 30
0.0
 11
10.93699999999999
 21
10.625
 31
0.0
  0
LINE
  5
188
330
1E
100
AcDbEntity
  8
0
  6
CONTINUOUS
 62
     5
100
AcDbLine
 10
29.06199999999998
 20
4.625
 30
0.0
 11
10.93699999999999
 21
4.625
 31
0.0
  0
LINE
  5
189
330
1E
100
AcDbEntity
  8
0
  6
CONTINUOUS
 62
     5
100
AcDbLine
 10
10.93699999999999
 20
10.625
 30
0.0
 11
29.06199999999998
 21
10.625
 31
0.0
  0
LINE
  5
18A
330
1E
100
AcDbEntity
  8
0
  6
CONTINUOUS
 62
     5
100
AcDbLine
 10
16.893
 20
15.657
 30
0.0
 11
17.23099999999999
 21
15.657
 31
0.0
  0
LINE
  5
18B
330
1E
100
AcDbEntity
  8
0
  6
CONTINUOUS
 62
     5
100
AcDbLine
 10
10.93699999999999
 20
12.625
 30
0.0
 11
29.06199999999998
 21
12.625
 31
0.0
  0
LINE
  5
18C
330
1E
100
AcDbEntity
  8
0
  6
CONTINUOUS
 62
     5
100
AcDbLine
 10
29.06199999999998
 20
20.625
 30
0.0
 11
10.93699999999999
 21
20.625
 31
0.0
  0
INSERT
  5
221
330
1E
100
AcDbEntity
  8
DAMAN
100
AcDbBlockReference
  2
08SAET
 10
11.93704668041391
 20
8.198
 30
0.0
  0
TEXT
  5
230
330
1E
100
AcDbEntity
  8
DAMAN
100
AcDbText
 10
17.59304012638771
 20
7.906711704845517
 30
0.0
 40
0.2
  1
GA
100
AcDbText
  0
INSERT
  5
231
330
1E
100
AcDbEntity
  8
DAMAN
100
AcDbBlockReference
  2
100CROSS
 10
17.09304012638771
 20
7.249961704845516
 30
0.0
 41
0.75
 42
0.75
 43
0.75
  0
CIRCLE
  5
232
330
1E
100
AcDbEntity
  8
DAMAN
100
AcDbCircle
 10
17.09304012638771
 20
7.249961704845516
 30
0.0
 40
0.28125
  0
CIRCLE
  5
233
330
1E
100
AcDbEntity
  8
DAMAN
100
AcDbCircle
 10
17.09304012638771
 20
7.249961704845516
 30
0.0
 40
0.5
  0
CIRCLE
  5
234
330
1E
100
AcDbEntity
  8
DAMAN
100
AcDbCircle
 10
17.09304012638771
 20
7.249961704845516
 30
0.0
 40
0.25
  0
ARC
  5
258
330
1E
100
AcDbEntity
  8
0
  6
CONTINUOUS
 62
     5
100
AcDbCircle
 10
23.75
 20
14.25
 30
0.0
 40
0.247
100
AcDbArc
 50
85.00000099999999
 51
5.0
  0
CIRCLE
  5
259
330
1E
100
AcDbEntity
  8
0
  6
CONTINUOUS
 62
     5
100
AcDbCircle
 10
23.75
 20
14.25
 30
0.0
 40
0.25
  0
CIRCLE
  5
25A
330
1E
100
AcDbEntity
  8
0
  6
CONTINUOUS
 62
     5
100
AcDbCircle
 10
23.75
 20
14.25
 30
0.0
 40
0.211
  0
LINE
  5
25B
330
1E
100
AcDbEntity
  8
0
  6
CONTINUOUS
 62
     5
100
AcDbLine
 10
23.44999999999998
 20
14.25
 30
0.0
 11
24.05
 21
14.25
 31
0.0
  0
CIRCLE
  5
25C
330
1E
100
AcDbEntity
  8
0
  6
CONTINUOUS
 62
     5
100
AcDbCircle
 10
23.75
 20
16.344
 30
0.0
 40
0.25
  0
ARC
  5
25D
330
1E
100
AcDbEntity
  8
0
  6
CONTINUOUS
 62
     5
100
AcDbCircle
 10
23.75
 20
16.344
 30
0.0
 40
0.247
100
AcDbArc
 50
85.00000099999999
 51
5.0
  0
CIRCLE
  5
25E
330
1E
100
AcDbEntity
  8
0
  6
CONTINUOUS
 62
     5
100
AcDbCircle
 10
23.75
 20
16.344
 30
0.0
 40
0.211
  0
LINE
  5
25F
330
1E
100
AcDbEntity
  8
0
  6
CONTINUOUS
 62
     5
100
AcDbLine
 10
23.44999999999998
 20
16.344
 30
0.0
 11
24.04899999999999
 21
16.344
 31
0.0
  0
CIRCLE
  5
260
330
1E
100
AcDbEntity
  8
0
  6
CONTINUOUS
 62
     5
100
AcDbCircle
 10
23.749
 20
18.219
 30
0.0
 40
0.14
  0
LINE
  5
261
330
1E
100
AcDbEntity
  8
0
  6
CONTINUOUS
 62
     5
100
AcDbLine
 10
23.58
 20
18.219
 30
0.0
 11
23.91799999999999
 21
18.219
 31
0.0
  0
CIRCLE
  5
262
330
1E
100
AcDbEntity
  8
0
  6
CONTINUOUS
 62
     5
100
AcDbCircle
 10
23.749
 20
19.375
 30
0.0
 40
0.25
  0
ARC
  5
263
330
1E
100
AcDbEntity
  8
0
  6
CONTINUOUS
 62
     5
100
AcDbCircle
 10
23.749
 20
19.375
 30
0.0
 40
0.247
100
AcDbArc
 50
85.00000099999999
 51
5.0
  0
LINE
  5
264
330
1E
100
AcDbEntity
  8
0
  6
CONTINUOUS
 62
     5
100
AcDbLine
 10
23.449
 20
19.375
 30
0.0
 11
24.04899999999999
 21
19.375
 31
0.0
  0
CIRCLE
  5
265
330
1E
100
AcDbEntity
  8
0
  6
CONTINUOUS
 62
     5
100
AcDbCircle
 10
23.749
 20
19.375
 30
0.0
 40
0.211
  0
LINE
  5
266
330
1E
100
AcDbEntity
  8
0
  6
CONTINUOUS
 62
     5
100
AcDbLine
 10
23.75
 20
13.95
 30
0.0
 11
23.75
 21
14.55
 31
0.0
  0
LINE
  5
267
330
1E
100
AcDbEntity
  8
0
  6
CONTINUOUS
 62
     5
100
AcDbLine
 10
23.75
 20
16.044
 30
0.0
 11
23.75
 21
16.64399999999999
 31
0.0
  0
LINE
  5
268
330
1E
100
AcDbEntity
  8
0
  6
CONTINUOUS
 62
     5
100
AcDbLine
 10
23.749
 20
18.05
 30
0.0
 11
23.749
 21
18.38799999999998
 31
0.0
  0
LINE
  5
269
330
1E
100
AcDbEntity
  8
0
  6
CONTINUOUS
 62
     5
100
AcDbLine
 10
23.749
 20
19.07499999999998
 30
0.0
 11
23.749
 21
19.675
 31
0.0
  0
LINE
  5
26A
330
1E
100
AcDbEntity
  8
0
  6
CONTINUOUS
 62
     5
100
AcDbLine
 10
24.43699999999999
 20
16.701
 30
0.0
 11
24.43699999999999
 21
17.86299999999998
 31
0.0
  0
CIRCLE
  5
26B
330
1E
100
AcDbEntity
  8
0
  6
CONTINUOUS
 62
     5
100
AcDbCircle
 10
26.68699999999999
 20
16.344
 30
0.0
 40
0.484
  0
LINE
  5
26C
330
1E
100
AcDbEntity
  8
0
  6
CONTINUOUS
 62
     5
100
AcDbLine
 10
26.68699999999999
 20
15.76299999999999
 30
0.0
 11
26.68699999999999
 21
16.925
 31
0.0
  0
CIRCLE
  5
26D
330
1E
100
AcDbEntity
  8
0
  6
CONTINUOUS
 62
     5
100
AcDbCircle
 10
24.43699999999999
 20
15.40599999999999
 30
0.0
 40
0.484
  0
LINE
  5
26E
330
1E
100
AcDbEntity
  8
0
  6
CONTINUOUS
 62
     5
100
AcDbLine
 10
24.43699999999999
 20
14.82499999999999
 30
0.0
 11
24.43699999999999
 21
15.987
 31
0.0
  0
LINE
  5
26F
330
1E
100
AcDbEntity
  8
0
  6
CONTINUOUS
 62
     5
100
AcDbLine
 10
23.85599999999999
 20
15.40599999999999
 30
0.0
 11
25.01799999999999
 21
15.40599999999999
 31
0.0
  0
LINE
  5
270
330
1E
100
AcDbEntity
  8
0
  6
CONTINUOUS
 62
     5
100
AcDbLine
 10
26.625
 20
14.713
 30
0.0
 11
26.625
 21
15.163
 31
0.0
  0
CIRCLE
  5
271
330
1E
100
AcDbEntity
  8
0
  6
CONTINUOUS
 62
     5
100
AcDbCircle
 10
26.625
 20
14.938
 30
0.0
 40
0.2189999999999999
  0
LINE
  5
272
330
1E
100
AcDbEntity
  8
0
  6
CONTINUOUS
 62
     5
100
AcDbLine
 10
26.4
 20
14.938
 30
0.0
 11
26.85
 21
14.938
 31
0.0
  0
CIRCLE
  5
273
330
1E
100
AcDbEntity
  8
0
  6
CONTINUOUS
 62
     5
100
AcDbCircle
 10
27.375
 20
14.25
 30
0.0
 40
0.25
  0
CIRCLE
  5
274
330
1E
100
AcDbEntity
  8
0
  6
CONTINUOUS
 62
     5
100
AcDbCircle
 10
27.375
 20
14.25
 30
0.0
 40
0.211
  0
ARC
  5
275
330
1E
100
AcDbEntity
  8
0
  6
CONTINUOUS
 62
     5
100
AcDbCircle
 10
27.375
 20
14.25
 30
0.0
 40
0.247
100
AcDbArc
 50
85.00000099999999
 51
5.0
  0
LINE
  5
276
330
1E
100
AcDbEntity
  8
0
  6
CONTINUOUS
 62
     5
100
AcDbLine
 10
27.375
 20
13.95
 30
0.0
 11
27.375
 21
14.55
 31
0.0
  0
LINE
  5
277
330
1E
100
AcDbEntity
  8
0
  6
CONTINUOUS
 62
     5
100
AcDbLine
 10
27.07499999999999
 20
14.25
 30
0.0
 11
27.674
 21
14.25
 31
0.0
  0
LINE
  5
278
330
1E
100
AcDbEntity
  8
0
  6
CONTINUOUS
 62
     5
100
AcDbLine
 10
26.10599999999999
 20
16.344
 30
0.0
 11
27.268
 21
16.344
 31
0.0
  0
LINE
  5
279
330
1E
100
AcDbEntity
  8
0
  6
CONTINUOUS
 62
     5
100
AcDbLine
 10
27.393
 20
15.657
 30
0.0
 11
27.73099999999999
 21
15.657
 31
0.0
  0
CIRCLE
  5
27A
330
1E
100
AcDbEntity
  8
0
  6
CONTINUOUS
 62
     5
100
AcDbCircle
 10
27.56199999999999
 20
15.657
 30
0.0
 40
0.14
  0
LINE
  5
27B
330
1E
100
AcDbEntity
  8
0
  6
CONTINUOUS
 62
     5
100
AcDbLine
 10
27.56199999999999
 20
15.48799999999999
 30
0.0
 11
27.56199999999999
 21
15.826
 31
0.0
  0
CIRCLE
  5
27C
330
1E
100
AcDbEntity
  8
0
  6
CONTINUOUS
 62
     5
100
AcDbCircle
 10
24.43699999999999
 20
17.282
 30
0.0
 40
0.484
  0
LINE
  5
27D
330
1E
100
AcDbEntity
  8
0
  6
CONTINUOUS
 62
     5
100
AcDbLine
 10
23.85599999999999
 20
17.282
 30
0.0
 11
25.01799999999999
 21
17.282
 31
0.0
  0
LINE
  5
27E
330
1E
100
AcDbEntity
  8
0
  6
CONTINUOUS
 62
     5
100
AcDbLine
 10
26.68699999999999
 20
17.63799999999998
 30
0.0
 11
26.68699999999999
 21
18.8
 31
0.0
  0
CIRCLE
  5
27F
330
1E
100
AcDbEntity
  8
0
  6
CONTINUOUS
 62
     5
100
AcDbCircle
 10
26.68699999999999
 20
18.219
 30
0.0
 40
0.484
  0
LINE
  5
280
330
1E
100
AcDbEntity
  8
0
  6
CONTINUOUS
 62
     5
100
AcDbLine
 10
26.10599999999999
 20
18.219
 30
0.0
 11
27.268
 21
18.219
 31
0.0
  0
LINE
  5
281
330
1E
100
AcDbEntity
  8
0
  6
CONTINUOUS
 62
     5
100
AcDbLine
 10
27.375
 20
16.98099999999999
 30
0.0
 11
27.375
 21
17.582
 31
0.0
  0
CIRCLE
  5
282
330
1E
100
AcDbEntity
  8
0
  6
CONTINUOUS
 62
     5
100
AcDbCircle
 10
27.375
 20
17.28099999999999
 30
0.0
 40
0.25
  0
ARC
  5
283
330
1E
100
AcDbEntity
  8
0
  6
CONTINUOUS
 62
     5
100
AcDbCircle
 10
27.375
 20
17.28099999999999
 30
0.0
 40
0.247
100
AcDbArc
 50
85.00000099999999
 51
5.0
  0
CIRCLE
  5
284
330
1E
100
AcDbEntity
  8
0
  6
CONTINUOUS
 62
     5
100
AcDbCircle
 10
27.375
 20
17.28099999999999
 30
0.0
 40
0.211
  0
LINE
  5
285
330
1E
100
AcDbEntity
  8
0
  6
CONTINUOUS
 62
     5
100
AcDbLine
 10
27.07499999999999
 20
17.28099999999999
 30
0.0
 11
27.674
 21
17.28099999999999
 31
0.0
  0
LINE
  5
286
330
1E
100
AcDbEntity
  8
0
  6
CONTINUOUS
 62
     5
100
AcDbLine
 10
27.375
 20
19.07499999999998
 30
0.0
 11
27.375
 21
19.675
 31
0.0
  0
CIRCLE
  5
287
330
1E
100
AcDbEntity
  8
0
  6
CONTINUOUS
 62
     5
100
AcDbCircle
 10
27.375
 20
19.375
 30
0.0
 40
0.25
  0
CIRCLE
  5
288
330
1E
100
AcDbEntity
  8
0
  6
CONTINUOUS
 62
     5
100
AcDbCircle
 10
27.375
 20
19.375
 30
0.0
 40
0.211
  0
ARC
  5
289
330
1E
100
AcDbEntity
  8
0
  6
CONTINUOUS
 62
     5
100
AcDbCircle
 10
27.375
 20
19.375
 30
0.0
 40
0.247
100
AcDbArc
 50
85.00000099999999
 51
5.0
  0
LINE
  5
28A
330
1E
100
AcDbEntity
  8
0
  6
CONTINUOUS
 62
     5
100
AcDbLine
 10
27.07499999999999
 20
19.375
 30
0.0
 11
27.674
 21
19.375
 31
0.0
  0
CIRCLE
  5
28B
330
1E
100
AcDbEntity
  8
0
  6
CONTINUOUS
 62
     5
100
AcDbCircle
 10
23.81199999999999
 20
5.530999999999997
 30
0.0
 40
0.2189999999999999
  0
ARC
  5
28C
330
1E
100
AcDbEntity
  8
0
  6
CONTINUOUS
 62
     5
100
AcDbCircle
 10
23.81199999999999
 20
5.530999999999997
 30
0.0
 40
0.215
100
AcDbArc
 50
85.00000099999999
 51
5.0
  0
CIRCLE
  5
28D
330
1E
100
AcDbEntity
  8
0
  6
CONTINUOUS
 62
     5
100
AcDbCircle
 10
23.81199999999999
 20
5.530999999999997
 30
0.0
 40
0.184
  0
LINE
  5
28E
330
1E
100
AcDbEntity
  8
0
  6
CONTINUOUS
 62
     5
100
AcDbLine
 10
23.54899999999998
 20
5.530999999999997
 30
0.0
 11
24.074
 21
5.530999999999997
 31
0.0
  0
CIRCLE
  5
28F
330
1E
100
AcDbEntity
  8
0
  6
CONTINUOUS
 62
     5
100
AcDbCircle
 10
23.81199999999999
 20
8.5
 30
0.0
 40
0.2189999999999999
  0
CIRCLE
  5
290
330
1E
100
AcDbEntity
  8
0
  6
CONTINUOUS
 62
     5
100
AcDbCircle
 10
23.81199999999999
 20
8.5
 30
0.0
 40
0.184
  0
ARC
  5
291
330
1E
100
AcDbEntity
  8
0
  6
CONTINUOUS
 62
     5
100
AcDbCircle
 10
23.81199999999999
 20
8.5
 30
0.0
 40
0.215
100
AcDbArc
 50
85.00000099999999
 51
5.0
  0
CIRCLE
  5
292
330
1E
100
AcDbEntity
  8
0
  6
CONTINUOUS
 62
     5
100
AcDbCircle
 10
23.81199999999999
 20
6.718999999999997
 30
0.0
 40
0.2189999999999999
  0
CIRCLE
  5
293
330
1E
100
AcDbEntity
  8
0
  6
CONTINUOUS
 62
     5
100
AcDbCircle
 10
23.81199999999999
 20
6.718999999999997
 30
0.0
 40
0.184
  0
ARC
  5
294
330
1E
100
AcDbEntity
  8
0
  6
CONTINUOUS
 62
     5
100
AcDbCircle
 10
23.81199999999999
 20
6.718999999999997
 30
0.0
 40
0.215
100
AcDbArc
 50
85.00000099999999
 51
5.0
  0
LINE
  5
295
330
1E
100
AcDbEntity
  8
0
  6
CONTINUOUS
 62
     5
100
AcDbLine
 10
23.54899999999998
 20
6.718999999999997
 30
0.0
 11
24.074
 21
6.718999999999997
 31
0.0
  0
LINE
  5
296
330
1E
100
AcDbEntity
  8
0
  6
CONTINUOUS
 62
     5
100
AcDbLine
 10
23.54899999999998
 20
8.5
 30
0.0
 11
24.074
 21
8.5
 31
0.0
  0
CIRCLE
  5
297
330
1E
100
AcDbEntity
  8
0
  6
CONTINUOUS
 62
     5
100
AcDbCircle
 10
23.81199999999999
 20
9.687999999999997
 30
0.0
 40
0.2189999999999999
  0
CIRCLE
  5
298
330
1E
100
AcDbEntity
  8
0
  6
CONTINUOUS
 62
     5
100
AcDbCircle
 10
23.81199999999999
 20
9.687999999999997
 30
0.0
 40
0.184
  0
ARC
  5
299
330
1E
100
AcDbEntity
  8
0
  6
CONTINUOUS
 62
     5
100
AcDbCircle
 10
23.81199999999999
 20
9.687999999999997
 30
0.0
 40
0.215
100
AcDbArc
 50
85.00000099999999
 51
5.0
  0
LINE
  5
29A
330
1E
100
AcDbEntity
  8
0
  6
CONTINUOUS
 62
     5
100
AcDbLine
 10
23.54899999999998
 20
9.687999999999997
 30
0.0
 11
24.074
 21
9.687999999999997
 31
0.0
  0
TEXT
  5
29B
330
1E
100
AcDbEntity
  8
0
 62
     5
100
AcDbText
 10
26.7603905
 20
10.16301799999998
 30
0.0
 40
0.2125
  1
B
 41
0.825
 72
     4
 11
26.818828
 21
10.26926799999998
 31
0.0
100
AcDbText
  0
LINE
  5
29C
330
1E
100
AcDbEntity
  8
0
  6
CONTINUOUS
 62
     5
100
AcDbLine
 10
24.968
 20
5.375
 30
0.0
 11
24.968
 21
6.875
 31
0.0
  0
LINE
  5
29D
330
1E
100
AcDbEntity
  8
0
  6
CONTINUOUS
 62
     5
100
AcDbLine
 10
23.81199999999999
 20
5.269
 30
0.0
 11
23.81199999999999
 21
5.793999999999997
 31
0.0
  0
CIRCLE
  5
29E
330
1E
100
AcDbEntity
  8
0
  6
CONTINUOUS
 62
     5
100
AcDbCircle
 10
24.968
 20
6.125
 30
0.0
 40
0.625
  0
LINE
  5
29F
330
1E
100
AcDbEntity
  8
0
  6
CONTINUOUS
 62
     5
100
AcDbLine
 10
24.218
 20
6.125
 30
0.0
 11
25.71799999999999
 21
6.125
 31
0.0
  0
LINE
  5
2A0
330
1E
100
AcDbEntity
  8
0
  6
CONTINUOUS
 62
     5
100
AcDbLine
 10
23.81199999999999
 20
6.456
 30
0.0
 11
23.81199999999999
 21
6.980999999999997
 31
0.0
  0
CIRCLE
  5
2A1
330
1E
100
AcDbEntity
  8
0
  6
CONTINUOUS
 62
     5
100
AcDbCircle
 10
26.124
 20
5.530999999999997
 30
0.0
 40
0.2189999999999999
  0
ARC
  5
2A2
330
1E
100
AcDbEntity
  8
0
  6
CONTINUOUS
 62
     5
100
AcDbCircle
 10
26.124
 20
5.530999999999997
 30
0.0
 40
0.215
100
AcDbArc
 50
85.00000099999999
 51
5.0
  0
LINE
  5
2A3
330
1E
100
AcDbEntity
  8
0
  6
CONTINUOUS
 62
     5
100
AcDbLine
 10
26.124
 20
5.269
 30
0.0
 11
26.124
 21
5.793999999999997
 31
0.0
  0
CIRCLE
  5
2A4
330
1E
100
AcDbEntity
  8
0
  6
CONTINUOUS
 62
     5
100
AcDbCircle
 10
26.124
 20
5.530999999999997
 30
0.0
 40
0.184
  0
LINE
  5
2A5
330
1E
100
AcDbEntity
  8
0
  6
CONTINUOUS
 62
     5
100
AcDbLine
 10
25.861
 20
5.530999999999997
 30
0.0
 11
26.386
 21
5.530999999999997
 31
0.0
  0
LINE
  5
2A6
330
1E
100
AcDbEntity
  8
0
  6
CONTINUOUS
 62
     5
100
AcDbLine
 10
25.86199999999999
 20
6.718999999999997
 30
0.0
 11
26.387
 21
6.718999999999997
 31
0.0
  0
CIRCLE
  5
2A7
330
1E
100
AcDbEntity
  8
0
  6
CONTINUOUS
 62
     5
100
AcDbCircle
 10
26.124
 20
6.718999999999997
 30
0.0
 40
0.2189999999999999
  0
ARC
  5
2A8
330
1E
100
AcDbEntity
  8
0
  6
CONTINUOUS
 62
     5
100
AcDbCircle
 10
26.124
 20
6.718999999999997
 30
0.0
 40
0.215
100
AcDbArc
 50
85.00000099999999
 51
5.0
  0
CIRCLE
  5
2A9
330
1E
100
AcDbEntity
  8
0
  6
CONTINUOUS
 62
     5
100
AcDbCircle
 10
26.124
 20
6.718999999999997
 30
0.0
 40
0.184
  0
LINE
  5
2AA
330
1E
100
AcDbEntity
  8
0
  6
CONTINUOUS
 62
     5
100
AcDbLine
 10
26.124
 20
6.456999999999997
 30
0.0
 11
26.124
 21
6.980999999999997
 31
0.0
  0
CIRCLE
  5
2AB
330
1E
100
AcDbEntity
  8
0
  6
CONTINUOUS
 62
     5
100
AcDbCircle
 10
24.968
 20
9.093999999999999
 30
0.0
 40
0.625
  0
LINE
  5
2AC
330
1E
100
AcDbEntity
  8
0
  6
CONTINUOUS
 62
     5
100
AcDbLine
 10
24.968
 20
8.343999999999999
 30
0.0
 11
24.968
 21
9.843999999999999
 31
0.0
  0
LINE
  5
2AD
330
1E
100
AcDbEntity
  8
0
  6
CONTINUOUS
 62
     5
100
AcDbLine
 10
23.81199999999999
 20
8.237999999999999
 30
0.0
 11
23.81199999999999
 21
8.762999999999998
 31
0.0
  0
LINE
  5
2AE
330
1E
100
AcDbEntity
  8
0
  6
CONTINUOUS
 62
     5
100
AcDbLine
 10
24.218
 20
9.093999999999999
 30
0.0
 11
25.71799999999999
 21
9.093999999999999
 31
0.0
  0
LINE
  5
2AF
330
1E
100
AcDbEntity
  8
0
  6
CONTINUOUS
 62
     5
100
AcDbLine
 10
23.81199999999999
 20
9.425
 30
0.0
 11
23.81199999999999
 21
9.949999999999999
 31
0.0
  0
CIRCLE
  5
2B0
330
1E
100
AcDbEntity
  8
0
  6
CONTINUOUS
 62
     5
100
AcDbCircle
 10
26.124
 20
8.5
 30
0.0
 40
0.2189999999999999
  0
ARC
  5
2B1
330
1E
100
AcDbEntity
  8
0
  6
CONTINUOUS
 62
     5
100
AcDbCircle
 10
26.124
 20
8.5
 30
0.0
 40
0.215
100
AcDbArc
 50
85.00000099999999
 51
5.0
  0
LINE
  5
2B2
330
1E
100
AcDbEntity
  8
0
  6
CONTINUOUS
 62
     5
100
AcDbLine
 10
26.124
 20
8.237999999999999
 30
0.0
 11
26.124
 21
8.762999999999998
 31
0.0
  0
TEXT
  5
2B3
330
1E
100
AcDbEntity
  8
0
 62
     5
100
AcDbText
 10
26.7603905
 20
7.194017999999998
 30
0.0
 40
0.2125
  1
A
 41
0.825
 72
     4
 11
26.818828
 21
7.300267999999999
 31
0.0
100
AcDbText
  0
LINE
  5
2B4
330
1E
100
AcDbEntity
  8
0
  6
CONTINUOUS
 62
     5
100
AcDbLine
 10
25.861
 20
8.5
 30
0.0
 11
26.386
 21
8.5
 31
0.0
  0
CIRCLE
  5
2B5
330
1E
100
AcDbEntity
  8
0
  6
CONTINUOUS
 62
     5
100
AcDbCircle
 10
26.124
 20
8.5
 30
0.0
 40
0.184
  0
LINE
  5
2B6
330
1E
100
AcDbEntity
  8
0
  6
CONTINUOUS
 62
     5
100
AcDbLine
 10
26.124
 20
9.425
 30
0.0
 11
26.124
 21
9.949999999999999
 31
0.0
  0
CIRCLE
  5
2B7
330
1E
100
AcDbEntity
  8
0
  6
CONTINUOUS
 62
     5
100
AcDbCircle
 10
26.124
 20
9.687999999999997
 30
0.0
 40
0.2189999999999999
  0
ARC
  5
2B8
330
1E
100
AcDbEntity
  8
0
  6
CONTINUOUS
 62
     5
100
AcDbCircle
 10
26.124
 20
9.687999999999997
 30
0.0
 40
0.215
100
AcDbArc
 50
85.00000099999999
 51
5.0
  0
CIRCLE
  5
2B9
330
1E
100
AcDbEntity
  8
0
  6
CONTINUOUS
 62
     5
100
AcDbCircle
 10
26.124
 20
9.687999999999997
 30
0.0
 40
0.184
  0
LINE
  5
2BA
330
1E
100
AcDbEntity
  8
0
  6
CONTINUOUS
 62
     5
100
AcDbLine
 10
25.86199999999999
 20
9.687999999999997
 30
0.0
 11
26.387
 21
9.687999999999997
 31
0.0
  0
INSERT
  5
2BB
330
1E
100
AcDbEntity
  8
DAMAN
100
AcDbBlockReference
  2
08SAET
 10
28.06204668041391
 20
8.198
 30
0.0
  0
TEXT
  5
2BC
330
1E
100
AcDbEntity
  8
0
 62
     5
100
AcDbText
 10
28.60513914367793
 20
8.71155773349286
 30
0.0
 40
0.2125
  1
Y
 41
0.825
 72
     4
 11
28.66357664367793
 21
8.817807733492859
 31
0.0
100
AcDbText
  0
ARC
  5
2E0
330
1E
100
AcDbEntity
  8
0
  6
CONTINUOUS
 62
     5
100
AcDbCircle
 10
18.5
 20
14.25
 30
0.0
 40
0.247
100
AcDbArc
 50
85.00000099999999
 51
5.0
  0
CIRCLE
  5
2E1
330
1E
100
AcDbEntity
  8
0
  6
CONTINUOUS
 62
     5
100
AcDbCircle
 10
18.5
 20
14.25
 30
0.0
 40
0.25
  0
CIRCLE
  5
2E2
330
1E
100
AcDbEntity
  8
0
  6
CONTINUOUS
 62
     5
100
AcDbCircle
 10
18.5
 20
14.25
 30
0.0
 40
0.211
  0
LINE
  5
2E3
330
1E
100
AcDbEntity
  8
0
  6
CONTINUOUS
 62
     5
100
AcDbLine
 10
18.19999999999998
 20
14.25
 30
0.0
 11
18.8
 21
14.25
 31
0.0
  0
CIRCLE
  5
2E4
330
1E
100
AcDbEntity
  8
0
  6
CONTINUOUS
 62
     5
100
AcDbCircle
 10
18.5
 20
16.344
 30
0.0
 40
0.25
  0
ARC
  5
2E5
330
1E
100
AcDbEntity
  8
0
  6
CONTINUOUS
 62
     5
100
AcDbCircle
 10
18.5
 20
16.344
 30
0.0
 40
0.247
100
AcDbArc
 50
85.00000099999999
 51
5.0
  0
CIRCLE
  5
2E6
330
1E
100
AcDbEntity
  8
0
  6
CONTINUOUS
 62
     5
100
AcDbCircle
 10
18.5
 20
16.344
 30
0.0
 40
0.211
  0
LINE
  5
2E7
330
1E
100
AcDbEntity
  8
0
  6
CONTINUOUS
 62
     5
100
AcDbLine
 10
18.19999999999998
 20
16.344
 30
0.0
 11
18.79899999999999
 21
16.344
 31
0.0
  0
CIRCLE
  5
2E8
330
1E
100
AcDbEntity
  8
0
  6
CONTINUOUS
 62
     5
100
AcDbCircle
 10
18.499
 20
18.219
 30
0.0
 40
0.14
  0
LINE
  5
2E9
330
1E
100
AcDbEntity
  8
0
  6
CONTINUOUS
 62
     5
100
AcDbLine
 10
18.33
 20
18.219
 30
0.0
 11
18.66799999999998
 21
18.219
 31
0.0
  0
CIRCLE
  5
2EA
330
1E
100
AcDbEntity
  8
0
  6
CONTINUOUS
 62
     5
100
AcDbCircle
 10
18.499
 20
19.375
 30
0.0
 40
0.25
  0
ARC
  5
2EB
330
1E
100
AcDbEntity
  8
0
  6
CONTINUOUS
 62
     5
100
AcDbCircle
 10
18.499
 20
19.375
 30
0.0
 40
0.247
100
AcDbArc
 50
85.00000099999999
 51
5.0
  0
LINE
  5
2EC
330
1E
100
AcDbEntity
  8
0
  6
CONTINUOUS
 62
     5
100
AcDbLine
 10
18.199
 20
19.375
 30
0.0
 11
18.79899999999999
 21
19.375
 31
0.0
  0
CIRCLE
  5
2ED
330
1E
100
AcDbEntity
  8
0
  6
CONTINUOUS
 62
     5
100
AcDbCircle
 10
18.499
 20
19.375
 30
0.0
 40
0.211
  0
LINE
  5
2EE
330
1E
100
AcDbEntity
  8
0
  6
CONTINUOUS
 62
     5
100
AcDbLine
 10
18.5
 20
13.95
 30
0.0
 11
18.5
 21
14.55
 31
0.0
  0
LINE
  5
2EF
330
1E
100
AcDbEntity
  8
0
  6
CONTINUOUS
 62
     5
100
AcDbLine
 10
18.5
 20
16.044
 30
0.0
 11
18.5
 21
16.64399999999999
 31
0.0
  0
LINE
  5
2F0
330
1E
100
AcDbEntity
  8
0
  6
CONTINUOUS
 62
     5
100
AcDbLine
 10
18.499
 20
18.05
 30
0.0
 11
18.499
 21
18.38799999999998
 31
0.0
  0
LINE
  5
2F1
330
1E
100
AcDbEntity
  8
0
  6
CONTINUOUS
 62
     5
100
AcDbLine
 10
18.499
 20
19.07499999999998
 30
0.0
 11
18.499
 21
19.675
 31
0.0
  0
LINE
  5
2F2
330
1E
100
AcDbEntity
  8
0
  6
CONTINUOUS
 62
     5
100
AcDbLine
 10
19.18699999999997
 20
16.701
 30
0.0
 11
19.18699999999997
 21
17.86299999999998
 31
0.0
  0
CIRCLE
  5
2F3
330
1E
100
AcDbEntity
  8
0
  6
CONTINUOUS
 62
     5
100
AcDbCircle
 10
21.43699999999998
 20
16.344
 30
0.0
 40
0.484
  0
LINE
  5
2F4
330
1E
100
AcDbEntity
  8
0
  6
CONTINUOUS
 62
     5
100
AcDbLine
 10
21.43699999999998
 20
15.76299999999999
 30
0.0
 11
21.43699999999998
 21
16.925
 31
0.0
  0
CIRCLE
  5
2F5
330
1E
100
AcDbEntity
  8
0
  6
CONTINUOUS
 62
     5
100
AcDbCircle
 10
19.18699999999997
 20
15.40599999999999
 30
0.0
 40
0.484
  0
LINE
  5
2F6
330
1E
100
AcDbEntity
  8
0
  6
CONTINUOUS
 62
     5
100
AcDbLine
 10
19.18699999999997
 20
14.82499999999999
 30
0.0
 11
19.18699999999997
 21
15.987
 31
0.0
  0
LINE
  5
2F7
330
1E
100
AcDbEntity
  8
0
  6
CONTINUOUS
 62
     5
100
AcDbLine
 10
18.60599999999998
 20
15.40599999999999
 30
0.0
 11
19.76799999999998
 21
15.40599999999999
 31
0.0
  0
LINE
  5
2F8
330
1E
100
AcDbEntity
  8
0
  6
CONTINUOUS
 62
     5
100
AcDbLine
 10
21.375
 20
14.713
 30
0.0
 11
21.375
 21
15.163
 31
0.0
  0
CIRCLE
  5
2F9
330
1E
100
AcDbEntity
  8
0
  6
CONTINUOUS
 62
     5
100
AcDbCircle
 10
21.375
 20
14.938
 30
0.0
 40
0.2189999999999999
  0
LINE
  5
2FA
330
1E
100
AcDbEntity
  8
0
  6
CONTINUOUS
 62
     5
100
AcDbLine
 10
21.14999999999997
 20
14.938
 30
0.0
 11
21.6
 21
14.938
 31
0.0
  0
CIRCLE
  5
2FB
330
1E
100
AcDbEntity
  8
0
  6
CONTINUOUS
 62
     5
100
AcDbCircle
 10
22.12499999999999
 20
14.25
 30
0.0
 40
0.25
  0
CIRCLE
  5
2FC
330
1E
100
AcDbEntity
  8
0
  6
CONTINUOUS
 62
     5
100
AcDbCircle
 10
22.12499999999999
 20
14.25
 30
0.0
 40
0.211
  0
ARC
  5
2FD
330
1E
100
AcDbEntity
  8
0
  6
CONTINUOUS
 62
     5
100
AcDbCircle
 10
22.12499999999999
 20
14.25
 30
0.0
 40
0.247
100
AcDbArc
 50
85.00000099999999
 51
5.0
  0
LINE
  5
2FE
330
1E
100
AcDbEntity
  8
0
  6
CONTINUOUS
 62
     5
100
AcDbLine
 10
22.12499999999999
 20
13.95
 30
0.0
 11
22.12499999999999
 21
14.55
 31
0.0
  0
LINE
  5
2FF
330
1E
100
AcDbEntity
  8
0
  6
CONTINUOUS
 62
     5
100
AcDbLine
 10
21.82499999999999
 20
14.25
 30
0.0
 11
22.42399999999999
 21
14.25
 31
0.0
  0
LINE
  5
300
330
1E
100
AcDbEntity
  8
0
  6
CONTINUOUS
 62
     5
100
AcDbLine
 10
20.85599999999999
 20
16.344
 30
0.0
 11
22.01799999999999
 21
16.344
 31
0.0
  0
LINE
  5
301
330
1E
100
AcDbEntity
  8
0
  6
CONTINUOUS
 62
     5
100
AcDbLine
 10
22.143
 20
15.657
 30
0.0
 11
22.48099999999999
 21
15.657
 31
0.0
  0
CIRCLE
  5
302
330
1E
100
AcDbEntity
  8
0
  6
CONTINUOUS
 62
     5
100
AcDbCircle
 10
22.31199999999998
 20
15.657
 30
0.0
 40
0.14
  0
LINE
  5
303
330
1E
100
AcDbEntity
  8
0
  6
CONTINUOUS
 62
     5
100
AcDbLine
 10
22.31199999999998
 20
15.48799999999999
 30
0.0
 11
22.31199999999998
 21
15.826
 31
0.0
  0
CIRCLE
  5
304
330
1E
100
AcDbEntity
  8
0
  6
CONTINUOUS
 62
     5
100
AcDbCircle
 10
19.18699999999997
 20
17.282
 30
0.0
 40
0.484
  0
LINE
  5
305
330
1E
100
AcDbEntity
  8
0
  6
CONTINUOUS
 62
     5
100
AcDbLine
 10
18.60599999999998
 20
17.282
 30
0.0
 11
19.76799999999998
 21
17.282
 31
0.0
  0
LINE
  5
306
330
1E
100
AcDbEntity
  8
0
  6
CONTINUOUS
 62
     5
100
AcDbLine
 10
21.43699999999998
 20
17.63799999999998
 30
0.0
 11
21.43699999999998
 21
18.8
 31
0.0
  0
CIRCLE
  5
307
330
1E
100
AcDbEntity
  8
0
  6
CONTINUOUS
 62
     5
100
AcDbCircle
 10
21.43699999999998
 20
18.219
 30
0.0
 40
0.484
  0
LINE
  5
308
330
1E
100
AcDbEntity
  8
0
  6
CONTINUOUS
 62
     5
100
AcDbLine
 10
20.85599999999999
 20
18.219
 30
0.0
 11
22.01799999999999
 21
18.219
 31
0.0
  0
LINE
  5
309
330
1E
100
AcDbEntity
  8
0
  6
CONTINUOUS
 62
     5
100
AcDbLine
 10
22.12499999999999
 20
16.98099999999999
 30
0.0
 11
22.12499999999999
 21
17.582
 31
0.0
  0
CIRCLE
  5
30A
330
1E
100
AcDbEntity
  8
0
  6
CONTINUOUS
 62
     5
100
AcDbCircle
 10
22.12499999999999
 20
17.28099999999999
 30
0.0
 40
0.25
  0
ARC
  5
30B
330
1E
100
AcDbEntity
  8
0
  6
CONTINUOUS
 62
     5
100
AcDbCircle
 10
22.12499999999999
 20
17.28099999999999
 30
0.0
 40
0.247
100
AcDbArc
 50
85.00000099999999
 51
5.0
  0
CIRCLE
  5
30C
330
1E
100
AcDbEntity
  8
0
  6
CONTINUOUS
 62
     5
100
AcDbCircle
 10
22.12499999999999
 20
17.28099999999999
 30
0.0
 40
0.211
  0
LINE
  5
30D
330
1E
100
AcDbEntity
  8
0
  6
CONTINUOUS
 62
     5
100
AcDbLine
 10
21.82499999999999
 20
17.28099999999999
 30
0.0
 11
22.42399999999999
 21
17.28099999999999
 31
0.0
  0
LINE
  5
30E
330
1E
100
AcDbEntity
  8
0
  6
CONTINUOUS
 62
     5
100
AcDbLine
 10
22.12499999999999
 20
19.07499999999998
 30
0.0
 11
22.12499999999999
 21
19.675
 31
0.0
  0
CIRCLE
  5
30F
330
1E
100
AcDbEntity
  8
0
  6
CONTINUOUS
 62
     5
100
AcDbCircle
 10
22.12499999999999
 20
19.375
 30
0.0
 40
0.25
  0
CIRCLE
  5
310
330
1E
100
AcDbEntity
  8
0
  6
CONTINUOUS
 62
     5
100
AcDbCircle
 10
22.12499999999999
 20
19.375
 30
0.0
 40
0.211
  0
ARC
  5
311
330
1E
100
AcDbEntity
  8
0
  6
CONTINUOUS
 62
     5
100
AcDbCircle
 10
22.12499999999999
 20
19.375
 30
0.0
 40
0.247
100
AcDbArc
 50
85.00000099999999
 51
5.0
  0
LINE
  5
312
330
1E
100
AcDbEntity
  8
0
  6
CONTINUOUS
 62
     5
100
AcDbLine
 10
21.82499999999999
 20
19.375
 30
0.0
 11
22.42399999999999
 21
19.375
 31
0.0
  0
CIRCLE
  5
313
330
1E
100
AcDbEntity
  8
0
  6
CONTINUOUS
 62
     5
100
AcDbCircle
 10
18.56199999999997
 20
5.530999999999997
 30
0.0
 40
0.2189999999999999
  0
ARC
  5
314
330
1E
100
AcDbEntity
  8
0
  6
CONTINUOUS
 62
     5
100
AcDbCircle
 10
18.56199999999997
 20
5.530999999999997
 30
0.0
 40
0.215
100
AcDbArc
 50
85.00000099999999
 51
5.0
  0
CIRCLE
  5
315
330
1E
100
AcDbEntity
  8
0
  6
CONTINUOUS
 62
     5
100
AcDbCircle
 10
18.56199999999997
 20
5.530999999999997
 30
0.0
 40
0.184
  0
LINE
  5
316
330
1E
100
AcDbEntity
  8
0
  6
CONTINUOUS
 62
     5
100
AcDbLine
 10
18.29899999999998
 20
5.530999999999997
 30
0.0
 11
18.824
 21
5.530999999999997
 31
0.0
  0
CIRCLE
  5
317
330
1E
100
AcDbEntity
  8
0
  6
CONTINUOUS
 62
     5
100
AcDbCircle
 10
18.56199999999997
 20
8.5
 30
0.0
 40
0.2189999999999999
  0
CIRCLE
  5
318
330
1E
100
AcDbEntity
  8
0
  6
CONTINUOUS
 62
     5
100
AcDbCircle
 10
18.56199999999997
 20
8.5
 30
0.0
 40
0.184
  0
ARC
  5
319
330
1E
100
AcDbEntity
  8
0
  6
CONTINUOUS
 62
     5
100
AcDbCircle
 10
18.56199999999997
 20
8.5
 30
0.0
 40
0.215
100
AcDbArc
 50
85.00000099999999
 51
5.0
  0
CIRCLE
  5
31A
330
1E
100
AcDbEntity
  8
0
  6
CONTINUOUS
 62
     5
100
AcDbCircle
 10
18.56199999999997
 20
6.718999999999997
 30
0.0
 40
0.2189999999999999
  0
CIRCLE
  5
31B
330
1E
100
AcDbEntity
  8
0
  6
CONTINUOUS
 62
     5
100
AcDbCircle
 10
18.56199999999997
 20
6.718999999999997
 30
0.0
 40
0.184
  0
ARC
  5
31C
330
1E
100
AcDbEntity
  8
0
  6
CONTINUOUS
 62
     5
100
AcDbCircle
 10
18.56199999999997
 20
6.718999999999997
 30
0.0
 40
0.215
100
AcDbArc
 50
85.00000099999999
 51
5.0
  0
LINE
  5
31D
330
1E
100
AcDbEntity
  8
0
  6
CONTINUOUS
 62
     5
100
AcDbLine
 10
18.29899999999998
 20
6.718999999999997
 30
0.0
 11
18.824
 21
6.718999999999997
 31
0.0
  0
LINE
  5
31E
330
1E
100
AcDbEntity
  8
0
  6
CONTINUOUS
 62
     5
100
AcDbLine
 10
18.29899999999998
 20
8.5
 30
0.0
 11
18.824
 21
8.5
 31
0.0
  0
CIRCLE
  5
31F
330
1E
100
AcDbEntity
  8
0
  6
CONTINUOUS
 62
     5
100
AcDbCircle
 10
18.56199999999997
 20
9.687999999999997
 30
0.0
 40
0.2189999999999999
  0
CIRCLE
  5
320
330
1E
100
AcDbEntity
  8
0
  6
CONTINUOUS
 62
     5
100
AcDbCircle
 10
18.56199999999997
 20
9.687999999999997
 30
0.0
 40
0.184
  0
ARC
  5
321
330
1E
100
AcDbEntity
  8
0
  6
CONTINUOUS
 62
     5
100
AcDbCircle
 10
18.56199999999997
 20
9.687999999999997
 30
0.0
 40
0.215
100
AcDbArc
 50
85.00000099999999
 51
5.0
  0
LINE
  5
322
330
1E
100
AcDbEntity
  8
0
  6
CONTINUOUS
 62
     5
100
AcDbLine
 10
18.29899999999998
 20
9.687999999999997
 30
0.0
 11
18.824
 21
9.687999999999997
 31
0.0
  0
TEXT
  5
323
330
1E
100
AcDbEntity
  8
0
 62
     5
100
AcDbText
 10
21.51039049999999
 20
10.16301799999998
 30
0.0
 40
0.2125
  1
B
 41
0.825
 72
     4
 11
21.56882799999999
 21
10.26926799999998
 31
0.0
100
AcDbText
  0
LINE
  5
324
330
1E
100
AcDbEntity
  8
0
  6
CONTINUOUS
 62
     5
100
AcDbLine
 10
19.71799999999999
 20
5.375
 30
0.0
 11
19.71799999999999
 21
6.875
 31
0.0
  0
LINE
  5
325
330
1E
100
AcDbEntity
  8
0
  6
CONTINUOUS
 62
     5
100
AcDbLine
 10
18.56199999999997
 20
5.269
 30
0.0
 11
18.56199999999997
 21
5.793999999999997
 31
0.0
  0
CIRCLE
  5
326
330
1E
100
AcDbEntity
  8
0
  6
CONTINUOUS
 62
     5
100
AcDbCircle
 10
19.71799999999999
 20
6.125
 30
0.0
 40
0.625
  0
LINE
  5
327
330
1E
100
AcDbEntity
  8
0
  6
CONTINUOUS
 62
     5
100
AcDbLine
 10
18.96799999999998
 20
6.125
 30
0.0
 11
20.46799999999998
 21
6.125
 31
0.0
  0
LINE
  5
328
330
1E
100
AcDbEntity
  8
0
  6
CONTINUOUS
 62
     5
100
AcDbLine
 10
18.56199999999997
 20
6.456
 30
0.0
 11
18.56199999999997
 21
6.980999999999997
 31
0.0
  0
CIRCLE
  5
329
330
1E
100
AcDbEntity
  8
0
  6
CONTINUOUS
 62
     5
100
AcDbCircle
 10
20.874
 20
5.530999999999997
 30
0.0
 40
0.2189999999999999
  0
ARC
  5
32A
330
1E
100
AcDbEntity
  8
0
  6
CONTINUOUS
 62
     5
100
AcDbCircle
 10
20.874
 20
5.530999999999997
 30
0.0
 40
0.215
100
AcDbArc
 50
85.00000099999999
 51
5.0
  0
LINE
  5
32B
330
1E
100
AcDbEntity
  8
0
  6
CONTINUOUS
 62
     5
100
AcDbLine
 10
20.874
 20
5.269
 30
0.0
 11
20.874
 21
5.793999999999997
 31
0.0
  0
CIRCLE
  5
32C
330
1E
100
AcDbEntity
  8
0
  6
CONTINUOUS
 62
     5
100
AcDbCircle
 10
20.874
 20
5.530999999999997
 30
0.0
 40
0.184
  0
LINE
  5
32D
330
1E
100
AcDbEntity
  8
0
  6
CONTINUOUS
 62
     5
100
AcDbLine
 10
20.61099999999997
 20
5.530999999999997
 30
0.0
 11
21.13599999999999
 21
5.530999999999997
 31
0.0
  0
LINE
  5
32E
330
1E
100
AcDbEntity
  8
0
  6
CONTINUOUS
 62
     5
100
AcDbLine
 10
20.61199999999999
 20
6.718999999999997
 30
0.0
 11
21.13699999999999
 21
6.718999999999997
 31
0.0
  0
CIRCLE
  5
32F
330
1E
100
AcDbEntity
  8
0
  6
CONTINUOUS
 62
     5
100
AcDbCircle
 10
20.874
 20
6.718999999999997
 30
0.0
 40
0.2189999999999999
  0
ARC
  5
330
330
1E
100
AcDbEntity
  8
0
  6
CONTINUOUS
 62
     5
100
AcDbCircle
 10
20.874
 20
6.718999999999997
 30
0.0
 40
0.215
100
AcDbArc
 50
85.00000099999999
 51
5.0
  0
CIRCLE
  5
331
330
1E
100
AcDbEntity
  8
0
  6
CONTINUOUS
 62
     5
100
AcDbCircle
 10
20.874
 20
6.718999999999997
 30
0.0
 40
0.184
  0
LINE
  5
332
330
1E
100
AcDbEntity
  8
0
  6
CONTINUOUS
 62
     5
100
AcDbLine
 10
20.874
 20
6.456999999999997
 30
0.0
 11
20.874
 21
6.980999999999997
 31
0.0
  0
CIRCLE
  5
333
330
1E
100
AcDbEntity
  8
0
  6
CONTINUOUS
 62
     5
100
AcDbCircle
 10
19.71799999999999
 20
9.093999999999999
 30
0.0
 40
0.625
  0
LINE
  5
334
330
1E
100
AcDbEntity
  8
0
  6
CONTINUOUS
 62
     5
100
AcDbLine
 10
19.71799999999999
 20
8.343999999999999
 30
0.0
 11
19.71799999999999
 21
9.843999999999999
 31
0.0
  0
LINE
  5
335
330
1E
100
AcDbEntity
  8
0
  6
CONTINUOUS
 62
     5
100
AcDbLine
 10
18.56199999999997
 20
8.237999999999999
 30
0.0
 11
18.56199999999997
 21
8.762999999999998
 31
0.0
  0
LINE
  5
336
330
1E
100
AcDbEntity
  8
0
  6
CONTINUOUS
 62
     5
100
AcDbLine
 10
18.96799999999998
 20
9.093999999999999
 30
0.0
 11
20.46799999999998
 21
9.093999999999999
 31
0.0
  0
LINE
  5
337
330
1E
100
AcDbEntity
  8
0
  6
CONTINUOUS
 62
     5
100
AcDbLine
 10
18.56199999999997
 20
9.425
 30
0.0
 11
18.56199999999997
 21
9.949999999999999
 31
0.0
  0
CIRCLE
  5
338
330
1E
100
AcDbEntity
  8
0
  6
CONTINUOUS
 62
     5
100
AcDbCircle
 10
20.874
 20
8.5
 30
0.0
 40
0.2189999999999999
  0
ARC
  5
339
330
1E
100
AcDbEntity
  8
0
  6
CONTINUOUS
 62
     5
100
AcDbCircle
 10
20.874
 20
8.5
 30
0.0
 40
0.215
100
AcDbArc
 50
85.00000099999999
 51
5.0
  0
LINE
  5
33A
330
1E
100
AcDbEntity
  8
0
  6
CONTINUOUS
 62
     5
100
AcDbLine
 10
20.874
 20
8.237999999999999
 30
0.0
 11
20.874
 21
8.762999999999998
 31
0.0
  0
TEXT
  5
33B
330
1E
100
AcDbEntity
  8
0
 62
     5
100
AcDbText
 10
21.51039049999999
 20
7.194017999999998
 30
0.0
 40
0.2125
  1
A
 41
0.825
 72
     4
 11
21.56882799999999
 21
7.300267999999999
 31
0.0
100
AcDbText
  0
LINE
  5
33C
330
1E
100
AcDbEntity
  8
0
  6
CONTINUOUS
 62
     5
100
AcDbLine
 10
20.61099999999997
 20
8.5
 30
0.0
 11
21.13599999999999
 21
8.5
 31
0.0
  0
CIRCLE
  5
33D
330
1E
100
AcDbEntity
  8
0
  6
CONTINUOUS
 62
     5
100
AcDbCircle
 10
20.874
 20
8.5
 30
0.0
 40
0.184
  0
LINE
  5
33E
330
1E
100
AcDbEntity
  8
0
  6
CONTINUOUS
 62
     5
100
AcDbLine
 10
20.874
 20
9.425
 30
0.0
 11
20.874
 21
9.949999999999999
 31
0.0
  0
CIRCLE
  5
33F
330
1E
100
AcDbEntity
  8
0
  6
CONTINUOUS
 62
     5
100
AcDbCircle
 10
20.874
 20
9.687999999999997
 30
0.0
 40
0.2189999999999999
  0
ARC
  5
340
330
1E
100
AcDbEntity
  8
0
  6
CONTINUOUS
 62
     5
100
AcDbCircle
 10
20.874
 20
9.687999999999997
 30
0.0
 40
0.215
100
AcDbArc
 50
85.00000099999999
 51
5.0
  0
CIRCLE
  5
341
330
1E
100
AcDbEntity
  8
0
  6
CONTINUOUS
 62
     5
100
AcDbCircle
 10
20.874
 20
9.687999999999997
 30
0.0
 40
0.184
  0
LINE
  5
342
330
1E
100
AcDbEntity
  8
0
  6
CONTINUOUS
 62
     5
100
AcDbLine
 10
20.61199999999999
 20
9.687999999999997
 30
0.0
 11
21.13699999999999
 21
9.687999999999997
 31
0.0
  0
INSERT
  5
3FE
330
1E
100
AcDbEntity
  8
DAMAN
100
AcDbBlockReference
  2
100CROSS
 10
2.561999999999997
 20
19.437
 30
0.0
 41
0.8000000000000007
 42
0.8000000000000007
  0
CIRCLE
  5
3FF
330
1E
100
AcDbEntity
  8
DAMAN
100
AcDbCircle
 10
2.561999999999997
 20
13.81299999999999
 30
0.0
 40
0.53125
  0
LINE
  5
400
330
1E
100
AcDbEntity
  8
DAMAN
100
AcDbLine
 10
1.749499999999996
 20
14.34425
 30
0.0
 11
1.749499999999996
 21
13.28175
 31
0.0
  0
INSERT
  5
401
330
1E
100
AcDbEntity
  8
DAMAN
100
AcDbBlockReference
  2
100CROSS
 10
2.561999999999997
 20
13.81299999999999
 30
0.0
 41
0.8000000000000007
 42
0.8000000000000007
  0
LINE
  5
402
330
1E
100
AcDbEntity
  8
DAMAN
100
AcDbLine
 10
1.686999999999996
 20
12.625
 30
0.0
 11
1.686999999999996
 21
20.62549999999998
 31
0.0
  0
LINE
  5
403
330
1E
100
AcDbEntity
  8
DAMAN
100
AcDbLine
 10
1.499499999999996
 20
12.625
 30
0.0
 11
1.499499999999996
 21
20.62549999999998
 31
0.0
  0
LINE
  5
404
330
1E
100
AcDbEntity
  8
DAMAN
100
AcDbLine
 10
3.124499999999997
 20
20.62549999999998
 30
0.0
 11
3.124499999999997
 21
12.625
 31
0.0
  0
LINE
  5
405
330
1E
100
AcDbEntity
  8
0
  6
HIDDEN
100
AcDbLine
 10
2.061999999999996
 20
20.625
 30
0.0
 11
2.061999999999996
 21
12.625
 31
0.0
  0
LINE
  5
406
330
1E
100
AcDbEntity
  8
DAMAN
100
AcDbLine
 10
0.7807499999999977
 20
13.563
 30
0.0
 11
1.499499999999996
 21
13.563
 31
0.0
  0
LINE
  5
407
330
1E
100
AcDbEntity
  8
DAMAN
100
AcDbLine
 10
1.499499999999996
 20
14.03175
 30
0.0
 11
0.7494999999999977
 21
14.03175
 31
0.0
  0
LINE
  5
408
330
1E
100
AcDbEntity
  8
DAMAN
100
AcDbLine
 10
1.499499999999996
 20
13.59425
 30
0.0
 11
0.7494999999999977
 21
13.59425
 31
0.0
  0
LINE
  5
409
330
1E
100
AcDbEntity
  8
DAMAN
100
AcDbLine
 10
1.499499999999996
 20
14.06299999999998
 30
0.0
 11
0.7807499999999977
 21
14.06299999999998
 31
0.0
  0
LINE
  5
40A
330
1E
100
AcDbEntity
  8
DAMAN
100
AcDbLine
 10
2.186999999999996
 20
13.81299999999999
 30
0.0
 11
0.6557499999999977
 21
13.81299999999999
 31
0.0
  0
LINE
  5
40B
330
1E
100
AcDbEntity
  8
DAMAN
100
AcDbLine
 10
0.7494999999999977
 20
14.03175
 30
0.0
 11
0.7494999999999977
 21
13.59425
 31
0.0
  0
LINE
  5
40C
330
1E
100
AcDbEntity
  8
DAMAN
100
AcDbLine
 10
0.7494999999999977
 20
13.59425
 30
0.0
 11
0.7807499999999977
 21
13.563
 31
0.0
  0
LINE
  5
40D
330
1E
100
AcDbEntity
  8
DAMAN
100
AcDbLine
 10
0.7807499999999977
 20
14.06299999999998
 30
0.0
 11
0.7494999999999977
 21
14.03175
 31
0.0
  0
LINE
  5
40E
330
1E
100
AcDbEntity
  8
DAMAN
100
AcDbLine
 10
3.124499999999997
 20
12.625
 30
0.0
 11
1.499499999999996
 21
12.625
 31
0.0
  0
LWPOLYLINE
  5
40F
330
1E
100
AcDbEntity
  8
DAMAN
100
AcDbPolyline
 90
        6
 70
     1
 43
0.0
 10
2.936999999999997
 20
14.029506
 10
2.561999999999997
 20
14.24601299999999
 10
2.186999999999996
 20
14.029506
 10
2.186999999999996
 20
13.596494
 10
2.561999999999997
 20
13.37998699999999
 10
2.936999999999997
 20
13.596494
  0
CIRCLE
  5
410
330
1E
100
AcDbEntity
  8
DAMAN
100
AcDbCircle
 10
2.561999999999997
 20
13.81299999999999
 30
0.0
 40
0.375
  0
LINE
  5
411
330
1E
100
AcDbEntity
  8
DAMAN
100
AcDbLine
 10
1.749499999999996
 20
13.28175
 30
0.0
 11
1.686999999999996
 21
13.28175
 31
0.0
  0
ARC
  5
412
330
1E
100
AcDbEntity
  8
DAMAN
100
AcDbCircle
 10
1.655749999999996
 20
13.81299999999999
 30
0.0
 40
0.40625
100
AcDbArc
 50
327.7957719999998
 51
32.20422799999993
  0
LINE
  5
413
330
1E
100
AcDbEntity
  8
DAMAN
100
AcDbLine
 10
2.061999999999996
 20
14.17182099999999
 30
0.0
 11
2.061999999999996
 21
13.454179
 31
0.0
  0
LINE
  5
414
330
1E
100
AcDbEntity
  8
DAMAN
100
AcDbLine
 10
2.019164999999996
 20
13.37998699999999
 30
0.0
 11
2.061999999999996
 21
13.454179
 31
0.0
  0
ARC
  5
415
330
1E
100
AcDbEntity
  8
DAMAN
100
AcDbCircle
 10
1.936999999999996
 20
13.48824
 30
0.0
 40
0.125
100
AcDbArc
 50
300.0
 51
59.99999999999997
  0
LINE
  5
416
330
1E
100
AcDbEntity
  8
DAMAN
100
AcDbLine
 10
1.749499999999996
 20
13.596494
 30
0.0
 11
1.999499999999996
 21
13.596494
 31
0.0
  0
LINE
  5
417
330
1E
100
AcDbEntity
  8
DAMAN
100
AcDbLine
 10
2.019164999999996
 20
13.37998699999999
 30
0.0
 11
1.749499999999996
 21
13.37998699999999
 31
0.0
  0
ARC
  5
418
330
1E
100
AcDbEntity
  8
DAMAN
100
AcDbCircle
 10
1.936999999999996
 20
14.13776
 30
0.0
 40
0.125
100
AcDbArc
 50
300.0
 51
59.99999999999997
  0
LINE
  5
419
330
1E
100
AcDbEntity
  8
DAMAN
100
AcDbLine
 10
2.019164999999996
 20
14.24601299999999
 30
0.0
 11
2.061999999999996
 21
14.17182099999999
 31
0.0
  0
LINE
  5
41A
330
1E
100
AcDbEntity
  8
DAMAN
100
AcDbLine
 10
1.749499999999996
 20
14.029506
 30
0.0
 11
1.999499999999996
 21
14.029506
 31
0.0
  0
LINE
  5
41B
330
1E
100
AcDbEntity
  8
DAMAN
100
AcDbLine
 10
1.749499999999996
 20
14.24601299999999
 30
0.0
 11
2.019164999999996
 21
14.24601299999999
 31
0.0
  0
LINE
  5
41C
330
1E
100
AcDbEntity
  8
DAMAN
100
AcDbLine
 10
1.499499999999996
 20
19.65575
 30
0.0
 11
0.7494999999999977
 21
19.65575
 31
0.0
  0
LINE
  5
41D
330
1E
100
AcDbEntity
  8
DAMAN
100
AcDbLine
 10
1.499499999999996
 20
19.687
 30
0.0
 11
0.7807499999999977
 21
19.687
 31
0.0
  0
LINE
  5
41E
330
1E
100
AcDbEntity
  8
DAMAN
100
AcDbLine
 10
1.499499999999996
 20
19.21825
 30
0.0
 11
0.7494999999999977
 21
19.21825
 31
0.0
  0
LINE
  5
41F
330
1E
100
AcDbEntity
  8
DAMAN
100
AcDbLine
 10
0.7807499999999977
 20
19.187
 30
0.0
 11
1.499499999999996
 21
19.187
 31
0.0
  0
LINE
  5
420
330
1E
100
AcDbEntity
  8
DAMAN
100
AcDbLine
 10
2.186999999999996
 20
19.437
 30
0.0
 11
0.6557499999999977
 21
19.437
 31
0.0
  0
LINE
  5
421
330
1E
100
AcDbEntity
  8
DAMAN
100
AcDbLine
 10
0.7494999999999977
 20
19.65575
 30
0.0
 11
0.7494999999999977
 21
19.21825
 31
0.0
  0
LINE
  5
422
330
1E
100
AcDbEntity
  8
DAMAN
100
AcDbLine
 10
0.7494999999999977
 20
19.21825
 30
0.0
 11
0.7807499999999977
 21
19.187
 31
0.0
  0
LINE
  5
423
330
1E
100
AcDbEntity
  8
DAMAN
100
AcDbLine
 10
0.7807499999999977
 20
19.687
 30
0.0
 11
0.7494999999999977
 21
19.65575
 31
0.0
  0
LINE
  5
424
330
1E
100
AcDbEntity
  8
DAMAN
100
AcDbLine
 10
1.686999999999996
 20
14.34425
 30
0.0
 11
1.749499999999996
 21
14.34425
 31
0.0
  0
LINE
  5
425
330
1E
100
AcDbEntity
  8
DAMAN
100
AcDbLine
 10
1.499499999999996
 20
20.62549999999998
 30
0.0
 11
3.124499999999997
 21
20.62549999999998
 31
0.0
  0
LWPOLYLINE
  5
426
330
1E
100
AcDbEntity
  8
DAMAN
100
AcDbPolyline
 90
        6
 70
     1
 43
0.0
 10
2.936999999999997
 20
19.653506
 10
2.561999999999997
 20
19.870013
 10
2.186999999999996
 20
19.653506
 10
2.186999999999996
 20
19.22049399999998
 10
2.561999999999997
 20
19.003987
 10
2.936999999999997
 20
19.22049399999998
  0
CIRCLE
  5
427
330
1E
100
AcDbEntity
  8
DAMAN
100
AcDbCircle
 10
2.561999999999997
 20
19.437
 30
0.0
 40
0.375
  0
CIRCLE
  5
428
330
1E
100
AcDbEntity
  8
DAMAN
100
AcDbCircle
 10
2.561999999999997
 20
19.437
 30
0.0
 40
0.53125
  0
LINE
  5
429
330
1E
100
AcDbEntity
  8
DAMAN
100
AcDbLine
 10
1.749499999999996
 20
19.96825
 30
0.0
 11
1.749499999999996
 21
18.90575
 31
0.0
  0
LINE
  5
42A
330
1E
100
AcDbEntity
  8
DAMAN
100
AcDbLine
 10
1.749499999999996
 20
18.90575
 30
0.0
 11
1.686999999999996
 21
18.90575
 31
0.0
  0
ARC
  5
42B
330
1E
100
AcDbEntity
  8
DAMAN
100
AcDbCircle
 10
1.655749999999996
 20
19.437
 30
0.0
 40
0.40625
100
AcDbArc
 50
327.7957719999998
 51
32.20422799999993
  0
LINE
  5
42C
330
1E
100
AcDbEntity
  8
DAMAN
100
AcDbLine
 10
2.061999999999996
 20
19.795821
 30
0.0
 11
2.061999999999996
 21
19.078179
 31
0.0
  0
LINE
  5
42D
330
1E
100
AcDbEntity
  8
DAMAN
100
AcDbLine
 10
2.019164999999996
 20
19.003987
 30
0.0
 11
2.061999999999996
 21
19.078179
 31
0.0
  0
ARC
  5
42E
330
1E
100
AcDbEntity
  8
DAMAN
100
AcDbCircle
 10
1.936999999999996
 20
19.11223999999998
 30
0.0
 40
0.125
100
AcDbArc
 50
300.0
 51
59.99999999999997
  0
LINE
  5
42F
330
1E
100
AcDbEntity
  8
DAMAN
100
AcDbLine
 10
1.749499999999996
 20
19.22049399999998
 30
0.0
 11
1.999499999999996
 21
19.22049399999998
 31
0.0
  0
LINE
  5
430
330
1E
100
AcDbEntity
  8
DAMAN
100
AcDbLine
 10
2.019164999999996
 20
19.003987
 30
0.0
 11
1.749499999999996
 21
19.003987
 31
0.0
  0
ARC
  5
431
330
1E
100
AcDbEntity
  8
DAMAN
100
AcDbCircle
 10
1.936999999999996
 20
19.76175999999998
 30
0.0
 40
0.125
100
AcDbArc
 50
300.0
 51
59.99999999999997
  0
LINE
  5
432
330
1E
100
AcDbEntity
  8
DAMAN
100
AcDbLine
 10
2.019164999999996
 20
19.870013
 30
0.0
 11
2.061999999999996
 21
19.795821
 31
0.0
  0
LINE
  5
433
330
1E
100
AcDbEntity
  8
DAMAN
100
AcDbLine
 10
1.749499999999996
 20
19.870013
 30
0.0
 11
2.019164999999996
 21
19.870013
 31
0.0
  0
LINE
  5
434
330
1E
100
AcDbEntity
  8
DAMAN
100
AcDbLine
 10
1.749499999999996
 20
19.653506
 30
0.0
 11
1.999499999999996
 21
19.653506
 31
0.0
  0
LINE
  5
435
330
1E
100
AcDbEntity
  8
DAMAN
100
AcDbLine
 10
1.686999999999996
 20
19.96825
 30
0.0
 11
1.749499999999996
 21
19.96825
 31
0.0
  0
LINE
  5
436
330
1E
100
AcDbEntity
  8
DAMAN
100
AcDbLine
 10
10.68699999999999
 20
13.28075
 30
0.0
 11
10.68699999999999
 21
14.34325
 31
0.0
  0
CIRCLE
  5
437
330
1E
100
AcDbEntity
  8
DAMAN
100
AcDbCircle
 10
9.87449999999999
 20
13.81199999999999
 30
0.0
 40
0.53125
  0
INSERT
  5
438
330
1E
100
AcDbEntity
  8
DAMAN
100
AcDbBlockReference
  2
100CROSS
 10
9.87449999999999
 20
13.81199999999999
 30
0.0
 41
0.8000000000000007
 42
0.8000000000000007
 50
180.0
  0
LINE
  5
439
330
1E
100
AcDbEntity
  8
DAMAN
100
AcDbLine
 10
10.74949999999999
 20
20.625
 30
0.0
 11
10.74949999999999
 21
12.625
 31
0.0
  0
LINE
  5
43A
330
1E
100
AcDbEntity
  8
DAMAN
100
AcDbLine
 10
10.93699999999999
 20
20.625
 30
0.0
 11
10.93699999999999
 21
12.625
 31
0.0
  0
LINE
  5
43B
330
1E
100
AcDbEntity
  8
DAMAN
100
AcDbLine
 10
9.31199999999999
 20
12.625
 30
0.0
 11
9.31199999999999
 21
20.625
 31
0.0
  0
LINE
  5
43C
330
1E
100
AcDbEntity
  8
0
  6
CONTINUOUS
 62
     5
100
AcDbLine
 10
10.93699999999999
 20
20.625
 30
0.0
 11
10.93699999999999
 21
12.625
 31
0.0
  0
LINE
  5
43D
330
1E
100
AcDbEntity
  8
DAMAN
100
AcDbLine
 10
10.93699999999999
 20
12.625
 30
0.0
 11
9.31199999999999
 21
12.625
 31
0.0
  0
LWPOLYLINE
  5
43E
330
1E
100
AcDbEntity
  8
DAMAN
100
AcDbPolyline
 90
        6
 70
     1
 43
0.0
 10
9.49949999999999
 20
13.595494
 10
9.87449999999999
 20
13.378987
 10
10.24949999999999
 20
13.595494
 10
10.24949999999999
 20
14.02850599999999
 10
9.87449999999999
 20
14.245013
 10
9.49949999999999
 20
14.02850599999999
  0
CIRCLE
  5
43F
330
1E
100
AcDbEntity
  8
DAMAN
100
AcDbCircle
 10
9.87449999999999
 20
13.81199999999999
 30
0.0
 40
0.375
  0
ARC
  5
440
330
1E
100
AcDbEntity
  8
DAMAN
100
AcDbCircle
 10
10.78074999999999
 20
13.81199999999999
 30
0.0
 40
0.40625
100
AcDbArc
 50
147.7957719999998
 51
212.2042279999999
  0
LINE
  5
441
330
1E
100
AcDbEntity
  8
DAMAN
100
AcDbLine
 10
10.37449999999999
 20
13.453179
 30
0.0
 11
10.37449999999999
 21
14.170821
 31
0.0
  0
LINE
  5
442
330
1E
100
AcDbEntity
  8
DAMAN
100
AcDbLine
 10
10.68699999999999
 20
13.595494
 30
0.0
 11
10.43699999999999
 21
13.595494
 31
0.0
  0
LINE
  5
443
330
1E
100
AcDbEntity
  8
DAMAN
100
AcDbLine
 10
10.68699999999999
 20
13.378987
 30
0.0
 11
10.41733499999999
 21
13.378987
 31
0.0
  0
LINE
  5
444
330
1E
100
AcDbEntity
  8
DAMAN
100
AcDbLine
 10
10.41733499999999
 20
13.378987
 30
0.0
 11
10.37449999999999
 21
13.453179
 31
0.0
  0
ARC
  5
445
330
1E
100
AcDbEntity
  8
DAMAN
100
AcDbCircle
 10
10.49949999999999
 20
13.48724
 30
0.0
 40
0.125
100
AcDbArc
 50
120.0000000000001
 51
239.9999999999999
  0
LINE
  5
446
330
1E
100
AcDbEntity
  8
DAMAN
100
AcDbLine
 10
10.74949999999999
 20
13.28075
 30
0.0
 11
10.68699999999999
 21
13.28075
 31
0.0
  0
LINE
  5
447
330
1E
100
AcDbEntity
  8
DAMAN
100
AcDbLine
 10
10.41733499999999
 20
14.245013
 30
0.0
 11
10.68699999999999
 21
14.245013
 31
0.0
  0
LINE
  5
448
330
1E
100
AcDbEntity
  8
DAMAN
100
AcDbLine
 10
10.68699999999999
 20
14.02850599999999
 30
0.0
 11
10.43699999999999
 21
14.02850599999999
 31
0.0
  0
ARC
  5
449
330
1E
100
AcDbEntity
  8
DAMAN
100
AcDbCircle
 10
10.49949999999999
 20
14.13675999999999
 30
0.0
 40
0.125
100
AcDbArc
 50
120.0000000000001
 51
239.9999999999999
  0
LINE
  5
44A
330
1E
100
AcDbEntity
  8
DAMAN
100
AcDbLine
 10
10.41733499999999
 20
14.245013
 30
0.0
 11
10.37449999999999
 21
14.170821
 31
0.0
  0
LINE
  5
44B
330
1E
100
AcDbEntity
  8
DAMAN
100
AcDbLine
 10
10.68699999999999
 20
14.34325
 30
0.0
 11
10.74949999999999
 21
14.34325
 31
0.0
  0
LINE
  5
44C
330
1E
100
AcDbEntity
  8
DAMAN
100
AcDbLine
 10
9.31199999999999
 20
20.625
 30
0.0
 11
10.93699999999999
 21
20.625
 31
0.0
  0
CIRCLE
  5
44D
330
1E
100
AcDbEntity
  8
DAMAN
100
AcDbCircle
 10
9.87449999999999
 20
19.437
 30
0.0
 40
0.53125
  0
CIRCLE
  5
44E
330
1E
100
AcDbEntity
  8
DAMAN
100
AcDbCircle
 10
9.87449999999999
 20
19.437
 30
0.0
 40
0.375
  0
LWPOLYLINE
  5
44F
330
1E
100
AcDbEntity
  8
DAMAN
100
AcDbPolyline
 90
        6
 70
     1
 43
0.0
 10
9.49949999999999
 20
19.22049399999998
 10
9.87449999999999
 20
19.003987
 10
10.24949999999999
 20
19.22049399999998
 10
10.24949999999999
 20
19.653506
 10
9.87449999999999
 20
19.870013
 10
9.49949999999999
 20
19.653506
  0
INSERT
  5
450
330
1E
100
AcDbEntity
  8
DAMAN
100
AcDbBlockReference
  2
100CROSS
 10
9.87449999999999
 20
19.437
 30
0.0
 41
0.8000000000000007
 42
0.8000000000000007
 50
180.0
  0
LINE
  5
451
330
1E
100
AcDbEntity
  8
DAMAN
100
AcDbLine
 10
10.68699999999999
 20
18.90575
 30
0.0
 11
10.68699999999999
 21
19.96825
 31
0.0
  0
ARC
  5
452
330
1E
100
AcDbEntity
  8
DAMAN
100
AcDbCircle
 10
10.78074999999999
 20
19.437
 30
0.0
 40
0.40625
100
AcDbArc
 50
147.7957719999998
 51
212.2042279999999
  0
LINE
  5
453
330
1E
100
AcDbEntity
  8
DAMAN
100
AcDbLine
 10
10.37449999999999
 20
19.078179
 30
0.0
 11
10.37449999999999
 21
19.795821
 31
0.0
  0
LINE
  5
454
330
1E
100
AcDbEntity
  8
DAMAN
100
AcDbLine
 10
10.68699999999999
 20
19.22049399999998
 30
0.0
 11
10.43699999999999
 21
19.22049399999998
 31
0.0
  0
LINE
  5
455
330
1E
100
AcDbEntity
  8
DAMAN
100
AcDbLine
 10
10.68699999999999
 20
19.003987
 30
0.0
 11
10.41733499999999
 21
19.003987
 31
0.0
  0
LINE
  5
456
330
1E
100
AcDbEntity
  8
DAMAN
100
AcDbLine
 10
10.41733499999999
 20
19.003987
 30
0.0
 11
10.37449999999999
 21
19.078179
 31
0.0
  0
ARC
  5
457
330
1E
100
AcDbEntity
  8
DAMAN
100
AcDbCircle
 10
10.49949999999999
 20
19.11223999999998
 30
0.0
 40
0.125
100
AcDbArc
 50
120.0000000000001
 51
239.9999999999999
  0
LINE
  5
458
330
1E
100
AcDbEntity
  8
DAMAN
100
AcDbLine
 10
10.74949999999999
 20
18.90575
 30
0.0
 11
10.68699999999999
 21
18.90575
 31
0.0
  0
LINE
  5
459
330
1E
100
AcDbEntity
  8
DAMAN
100
AcDbLine
 10
10.41733499999999
 20
19.870013
 30
0.0
 11
10.68699999999999
 21
19.870013
 31
0.0
  0
LINE
  5
45A
330
1E
100
AcDbEntity
  8
DAMAN
100
AcDbLine
 10
10.68699999999999
 20
19.653506
 30
0.0
 11
10.43699999999999
 21
19.653506
 31
0.0
  0
ARC
  5
45B
330
1E
100
AcDbEntity
  8
DAMAN
100
AcDbCircle
 10
10.49949999999999
 20
19.76175999999998
 30
0.0
 40
0.125
100
AcDbArc
 50
120.0000000000001
 51
239.9999999999999
  0
LINE
  5
45C
330
1E
100
AcDbEntity
  8
DAMAN
100
AcDbLine
 10
10.41733499999999
 20
19.870013
 30
0.0
 11
10.37449999999999
 21
19.795821
 31
0.0
  0
LINE
  5
45D
330
1E
100
AcDbEntity
  8
DAMAN
100
AcDbLine
 10
10.68699999999999
 20
19.96825
 30
0.0
 11
10.74949999999999
 21
19.96825
 31
0.0
  0
INSERT
  5
45E
330
1E
100
AcDbEntity
  8
DAMAN
100
AcDbBlockReference
  2
600MKS
 10
10.93699999999999
 20
4.625
 30
0.0
  0
LINE
  5
4EE
330
1E
100
AcDbEntity
  8
DAMAN
100
AcDbLine
 10
38.37449999999999
 20
14.34375
 30
0.0
 11
38.37449999999999
 21
13.28125
 31
0.0
  0
INSERT
  5
4EF
330
1E
100
AcDbEntity
  8
DAMAN
100
AcDbBlockReference
  2
100CROSS
 10
37.56199999999999
 20
13.8125
 30
0.0
 41
-0.8000000000000007
 42
0.8000000000000007
  0
CIRCLE
  5
4F0
330
1E
100
AcDbEntity
  8
DAMAN
100
AcDbCircle
 10
37.56199999999999
 20
13.8125
 30
0.0
 40
0.53125
  0
LINE
  5
4F1
330
1E
100
AcDbEntity
  8
DAMAN
100
AcDbLine
 10
36.99949999999999
 20
20.625
 30
0.0
 11
36.99949999999999
 21
12.6245
 31
0.0
  0
LINE
  5
4F2
330
1E
100
AcDbEntity
  8
0
  6
HIDDEN
100
AcDbLine
 10
38.06199999999999
 20
20.6245
 30
0.0
 11
38.06199999999999
 21
12.6245
 31
0.0
  0
LINE
  5
4F3
330
1E
100
AcDbEntity
  8
DAMAN
100
AcDbLine
 10
38.62449999999999
 20
12.6245
 30
0.0
 11
38.62449999999999
 21
20.625
 31
0.0
  0
LINE
  5
4F4
330
1E
100
AcDbEntity
  8
DAMAN
100
AcDbLine
 10
38.43699999999999
 20
12.6245
 30
0.0
 11
38.43699999999999
 21
20.625
 31
0.0
  0
CIRCLE
  5
4F5
330
1E
100
AcDbEntity
  8
DAMAN
100
AcDbCircle
 10
37.56199999999999
 20
13.8125
 30
0.0
 40
0.375
  0
LWPOLYLINE
  5
4F6
330
1E
100
AcDbEntity
  8
DAMAN
100
AcDbPolyline
 90
        6
 70
     1
 43
0.0
 10
37.18699999999999
 20
14.02900599999999
 10
37.56199999999999
 20
14.245513
 10
37.93699999999999
 20
14.02900599999999
 10
37.93699999999999
 20
13.595994
 10
37.56199999999999
 20
13.379487
 10
37.18699999999999
 20
13.595994
  0
LINE
  5
4F7
330
1E
100
AcDbEntity
  8
DAMAN
100
AcDbLine
 10
36.99949999999999
 20
12.6245
 30
0.0
 11
38.62449999999999
 21
12.6245
 31
0.0
  0
LINE
  5
4F8
330
1E
100
AcDbEntity
  8
DAMAN
100
AcDbLine
 10
38.62449999999999
 20
14.0625
 30
0.0
 11
39.34324999999999
 21
14.0625
 31
0.0
  0
LINE
  5
4F9
330
1E
100
AcDbEntity
  8
DAMAN
100
AcDbLine
 10
38.62449999999999
 20
13.59375
 30
0.0
 11
39.37449999999999
 21
13.59375
 31
0.0
  0
LINE
  5
4FA
330
1E
100
AcDbEntity
  8
DAMAN
100
AcDbLine
 10
38.62449999999999
 20
14.03125
 30
0.0
 11
39.37449999999999
 21
14.03125
 31
0.0
  0
LINE
  5
4FB
330
1E
100
AcDbEntity
  8
DAMAN
100
AcDbLine
 10
39.34324999999999
 20
13.5625
 30
0.0
 11
38.62449999999999
 21
13.5625
 31
0.0
  0
LINE
  5
4FC
330
1E
100
AcDbEntity
  8
DAMAN
100
AcDbLine
 10
37.93699999999999
 20
13.8125
 30
0.0
 11
39.46824999999999
 21
13.8125
 31
0.0
  0
LINE
  5
4FD
330
1E
100
AcDbEntity
  8
DAMAN
100
AcDbLine
 10
38.10483499999997
 20
13.379487
 30
0.0
 11
38.37449999999999
 21
13.379487
 31
0.0
  0
LINE
  5
4FE
330
1E
100
AcDbEntity
  8
DAMAN
100
AcDbLine
 10
38.37449999999999
 20
13.595994
 30
0.0
 11
38.12449999999999
 21
13.595994
 31
0.0
  0
LINE
  5
4FF
330
1E
100
AcDbEntity
  8
DAMAN
100
AcDbLine
 10
38.37449999999999
 20
14.245513
 30
0.0
 11
38.10483499999997
 21
14.245513
 31
0.0
  0
LINE
  5
500
330
1E
100
AcDbEntity
  8
DAMAN
100
AcDbLine
 10
38.37449999999999
 20
14.02900599999999
 30
0.0
 11
38.12449999999999
 21
14.02900599999999
 31
0.0
  0
ARC
  5
501
330
1E
100
AcDbEntity
  8
DAMAN
100
AcDbCircle
 10
38.46824999999999
 20
13.8125
 30
0.0
 40
0.40625
100
AcDbArc
 50
147.7957720000001
 51
212.2042279999998
  0
LINE
  5
502
330
1E
100
AcDbEntity
  8
DAMAN
100
AcDbLine
 10
38.06199999999999
 20
14.17132099999999
 30
0.0
 11
38.06199999999999
 21
13.453679
 31
0.0
  0
LINE
  5
503
330
1E
100
AcDbEntity
  8
DAMAN
100
AcDbLine
 10
38.10483499999997
 20
13.379487
 30
0.0
 11
38.06199999999999
 21
13.453679
 31
0.0
  0
ARC
  5
504
330
1E
100
AcDbEntity
  8
DAMAN
100
AcDbCircle
 10
38.18699999999999
 20
13.48773999999999
 30
0.0
 40
0.125
100
AcDbArc
 50
120.0
 51
239.9999999999998
  0
LINE
  5
505
330
1E
100
AcDbEntity
  8
DAMAN
100
AcDbLine
 10
38.10483499999997
 20
14.245513
 30
0.0
 11
38.06199999999999
 21
14.17132099999999
 31
0.0
  0
ARC
  5
506
330
1E
100
AcDbEntity
  8
DAMAN
100
AcDbCircle
 10
38.18699999999999
 20
14.13726
 30
0.0
 40
0.125
100
AcDbArc
 50
120.0
 51
239.9999999999998
  0
LINE
  5
507
330
1E
100
AcDbEntity
  8
DAMAN
100
AcDbLine
 10
38.37449999999999
 20
13.28125
 30
0.0
 11
38.43699999999999
 21
13.28125
 31
0.0
  0
LINE
  5
508
330
1E
100
AcDbEntity
  8
DAMAN
100
AcDbLine
 10
39.37449999999999
 20
14.03125
 30
0.0
 11
39.37449999999999
 21
13.59375
 31
0.0
  0
LINE
  5
509
330
1E
100
AcDbEntity
  8
DAMAN
100
AcDbLine
 10
39.37449999999999
 20
13.59375
 30
0.0
 11
39.34324999999999
 21
13.5625
 31
0.0
  0
LINE
  5
50A
330
1E
100
AcDbEntity
  8
DAMAN
100
AcDbLine
 10
39.34324999999999
 20
14.0625
 30
0.0
 11
39.37449999999999
 21
14.03125
 31
0.0
  0
INSERT
  5
50B
330
1E
100
AcDbEntity
  8
DAMAN
100
AcDbBlockReference
  2
100CROSS
 10
37.56199999999999
 20
19.43649999999999
 30
0.0
 41
-0.8000000000000007
 42
0.8000000000000007
  0
LINE
  5
50C
330
1E
100
AcDbEntity
  8
DAMAN
100
AcDbLine
 10
38.43699999999999
 20
14.34375
 30
0.0
 11
38.37449999999999
 21
14.34375
 31
0.0
  0
CIRCLE
  5
50D
330
1E
100
AcDbEntity
  8
DAMAN
100
AcDbCircle
 10
37.56199999999999
 20
19.43649999999999
 30
0.0
 40
0.53125
  0
CIRCLE
  5
50E
330
1E
100
AcDbEntity
  8
DAMAN
100
AcDbCircle
 10
37.56199999999999
 20
19.43649999999999
 30
0.0
 40
0.375
  0
LWPOLYLINE
  5
50F
330
1E
100
AcDbEntity
  8
DAMAN
100
AcDbPolyline
 90
        6
 70
     1
 43
0.0
 10
37.18699999999999
 20
19.653006
 10
37.56199999999999
 20
19.869513
 10
37.93699999999999
 20
19.653006
 10
37.93699999999999
 20
19.21999399999999
 10
37.56199999999999
 20
19.003487
 10
37.18699999999999
 20
19.21999399999999
  0
LINE
  5
510
330
1E
100
AcDbEntity
  8
DAMAN
100
AcDbLine
 10
38.62449999999999
 20
20.625
 30
0.0
 11
36.99949999999999
 21
20.625
 31
0.0
  0
LINE
  5
511
330
1E
100
AcDbEntity
  8
DAMAN
100
AcDbLine
 10
39.34324999999999
 20
19.18649999999999
 30
0.0
 11
38.62449999999999
 21
19.18649999999999
 31
0.0
  0
LINE
  5
512
330
1E
100
AcDbEntity
  8
DAMAN
100
AcDbLine
 10
38.62449999999999
 20
19.21775
 30
0.0
 11
39.37449999999999
 21
19.21775
 31
0.0
  0
LINE
  5
513
330
1E
100
AcDbEntity
  8
DAMAN
100
AcDbLine
 10
38.62449999999999
 20
19.6865
 30
0.0
 11
39.34324999999999
 21
19.6865
 31
0.0
  0
LINE
  5
514
330
1E
100
AcDbEntity
  8
DAMAN
100
AcDbLine
 10
38.62449999999999
 20
19.65524999999999
 30
0.0
 11
39.37449999999999
 21
19.65524999999999
 31
0.0
  0
LINE
  5
515
330
1E
100
AcDbEntity
  8
DAMAN
100
AcDbLine
 10
37.93699999999999
 20
19.43649999999999
 30
0.0
 11
39.46824999999999
 21
19.43649999999999
 31
0.0
  0
LINE
  5
516
330
1E
100
AcDbEntity
  8
DAMAN
100
AcDbLine
 10
38.37449999999999
 20
19.96774999999999
 30
0.0
 11
38.37449999999999
 21
18.90525
 31
0.0
  0
LINE
  5
517
330
1E
100
AcDbEntity
  8
DAMAN
100
AcDbLine
 10
38.10483499999997
 20
19.003487
 30
0.0
 11
38.37449999999999
 21
19.003487
 31
0.0
  0
LINE
  5
518
330
1E
100
AcDbEntity
  8
DAMAN
100
AcDbLine
 10
38.37449999999999
 20
19.21999399999999
 30
0.0
 11
38.12449999999999
 21
19.21999399999999
 31
0.0
  0
LINE
  5
519
330
1E
100
AcDbEntity
  8
DAMAN
100
AcDbLine
 10
38.37449999999999
 20
19.653006
 30
0.0
 11
38.12449999999999
 21
19.653006
 31
0.0
  0
LINE
  5
51A
330
1E
100
AcDbEntity
  8
DAMAN
100
AcDbLine
 10
38.37449999999999
 20
19.869513
 30
0.0
 11
38.10483499999997
 21
19.869513
 31
0.0
  0
ARC
  5
51B
330
1E
100
AcDbEntity
  8
DAMAN
100
AcDbCircle
 10
38.46824999999999
 20
19.43649999999999
 30
0.0
 40
0.40625
100
AcDbArc
 50
147.7957720000001
 51
212.2042279999998
  0
LINE
  5
51C
330
1E
100
AcDbEntity
  8
DAMAN
100
AcDbLine
 10
38.06199999999999
 20
19.79532099999999
 30
0.0
 11
38.06199999999999
 21
19.07767899999999
 31
0.0
  0
LINE
  5
51D
330
1E
100
AcDbEntity
  8
DAMAN
100
AcDbLine
 10
38.10483499999997
 20
19.003487
 30
0.0
 11
38.06199999999999
 21
19.07767899999999
 31
0.0
  0
ARC
  5
51E
330
1E
100
AcDbEntity
  8
DAMAN
100
AcDbCircle
 10
38.18699999999999
 20
19.11174
 30
0.0
 40
0.125
100
AcDbArc
 50
120.0
 51
239.9999999999998
  0
LINE
  5
51F
330
1E
100
AcDbEntity
  8
DAMAN
100
AcDbLine
 10
38.10483499999997
 20
19.869513
 30
0.0
 11
38.06199999999999
 21
19.79532099999999
 31
0.0
  0
ARC
  5
520
330
1E
100
AcDbEntity
  8
DAMAN
100
AcDbCircle
 10
38.18699999999999
 20
19.76126
 30
0.0
 40
0.125
100
AcDbArc
 50
120.0
 51
239.9999999999998
  0
LINE
  5
521
330
1E
100
AcDbEntity
  8
DAMAN
100
AcDbLine
 10
38.37449999999999
 20
18.90525
 30
0.0
 11
38.43699999999999
 21
18.90525
 31
0.0
  0
LINE
  5
522
330
1E
100
AcDbEntity
  8
DAMAN
100
AcDbLine
 10
38.43699999999999
 20
19.96774999999999
 30
0.0
 11
38.37449999999999
 21
19.96774999999999
 31
0.0
  0
LINE
  5
523
330
1E
100
AcDbEntity
  8
DAMAN
100
AcDbLine
 10
39.37449999999999
 20
19.65524999999999
 30
0.0
 11
39.37449999999999
 21
19.21775
 31
0.0
  0
LINE
  5
524
330
1E
100
AcDbEntity
  8
DAMAN
100
AcDbLine
 10
39.37449999999999
 20
19.21775
 30
0.0
 11
39.34324999999999
 21
19.18649999999999
 31
0.0
  0
LINE
  5
525
330
1E
100
AcDbEntity
  8
DAMAN
100
AcDbLine
 10
39.34324999999999
 20
19.6865
 30
0.0
 11
39.37449999999999
 21
19.65524999999999
 31
0.0
  0
INSERT
  5
526
330
1E
100
AcDbEntity
  8
DAMAN
100
AcDbBlockReference
  2
100CROSS
 10
30.12449999999996
 20
13.81199999999999
 30
0.0
 41
-0.8000000000000042
 42
0.8000000000000007
 50
180.0
  0
CIRCLE
  5
527
330
1E
100
AcDbEntity
  8
DAMAN
100
AcDbCircle
 10
30.12449999999996
 20
13.81199999999999
 30
0.0
 40
0.53125
  0
LINE
  5
528
330
1E
100
AcDbEntity
  8
DAMAN
100
AcDbLine
 10
29.31199999999996
 20
13.28075
 30
0.0
 11
29.31199999999996
 21
14.34325
 31
0.0
  0
LINE
  5
529
330
1E
100
AcDbEntity
  8
0
  6
CONTINUOUS
 62
     5
100
AcDbLine
 10
29.06199999999996
 20
20.625
 30
0.0
 11
29.06199999999996
 21
12.625
 31
0.0
  0
LINE
  5
52A
330
1E
100
AcDbEntity
  8
DAMAN
100
AcDbLine
 10
30.68699999999996
 20
12.625
 30
0.0
 11
30.68699999999996
 21
20.625
 31
0.0
  0
LINE
  5
52B
330
1E
100
AcDbEntity
  8
DAMAN
100
AcDbLine
 10
29.06199999999996
 20
20.625
 30
0.0
 11
29.06199999999996
 21
12.625
 31
0.0
  0
LINE
  5
52C
330
1E
100
AcDbEntity
  8
DAMAN
100
AcDbLine
 10
29.24949999999996
 20
20.625
 30
0.0
 11
29.24949999999996
 21
12.625
 31
0.0
  0
LINE
  5
52D
330
1E
100
AcDbEntity
  8
0
  6
CONTINUOUS
 62
     5
100
AcDbLine
 10
29.06199999999996
 20
12.625
 30
0.0
 11
29.06199999999996
 21
20.625
 31
0.0
  0
LINE
  5
52E
330
1E
100
AcDbEntity
  8
DAMAN
100
AcDbLine
 10
29.58166499999996
 20
14.245013
 30
0.0
 11
29.31199999999996
 21
14.245013
 31
0.0
  0
LINE
  5
52F
330
1E
100
AcDbEntity
  8
DAMAN
100
AcDbLine
 10
29.31199999999996
 20
14.02850599999999
 30
0.0
 11
29.56199999999996
 21
14.02850599999999
 31
0.0
  0
LINE
  5
530
330
1E
100
AcDbEntity
  8
DAMAN
100
AcDbLine
 10
29.31199999999996
 20
13.595494
 30
0.0
 11
29.56199999999996
 21
13.595494
 31
0.0
  0
LINE
  5
531
330
1E
100
AcDbEntity
  8
DAMAN
100
AcDbLine
 10
29.31199999999996
 20
13.378987
 30
0.0
 11
29.58166499999996
 21
13.378987
 31
0.0
  0
LINE
  5
532
330
1E
100
AcDbEntity
  8
DAMAN
100
AcDbLine
 10
29.06199999999996
 20
12.625
 30
0.0
 11
30.68699999999996
 21
12.625
 31
0.0
  0
LINE
  5
533
330
1E
100
AcDbEntity
  8
DAMAN
100
AcDbLine
 10
29.24949999999996
 20
13.28075
 30
0.0
 11
29.31199999999996
 21
13.28075
 31
0.0
  0
CIRCLE
  5
534
330
1E
100
AcDbEntity
  8
DAMAN
100
AcDbCircle
 10
30.12449999999996
 20
13.81199999999999
 30
0.0
 40
0.375
  0
LWPOLYLINE
  5
535
330
1E
100
AcDbEntity
  8
DAMAN
100
AcDbPolyline
 90
        6
 70
     1
 43
0.0
 10
30.49949999999996
 20
13.595494
 10
30.12449999999996
 20
13.378987
 10
29.74949999999996
 20
13.595494
 10
29.74949999999996
 20
14.02850599999999
 10
30.12449999999996
 20
14.245013
 10
30.49949999999996
 20
14.02850599999999
  0
ARC
  5
536
330
1E
100
AcDbEntity
  8
DAMAN
100
AcDbCircle
 10
29.21824999999996
 20
13.81199999999999
 30
0.0
 40
0.40625
100
AcDbArc
 50
327.7957719999999
 51
32.20422799999999
  0
LINE
  5
537
330
1E
100
AcDbEntity
  8
DAMAN
100
AcDbLine
 10
29.62449999999996
 20
13.453179
 30
0.0
 11
29.62449999999996
 21
14.170821
 31
0.0
  0
LINE
  5
538
330
1E
100
AcDbEntity
  8
DAMAN
100
AcDbLine
 10
29.58166499999996
 20
13.378987
 30
0.0
 11
29.62449999999996
 21
13.453179
 31
0.0
  0
ARC
  5
539
330
1E
100
AcDbEntity
  8
DAMAN
100
AcDbCircle
 10
29.49949999999996
 20
13.48724
 30
0.0
 40
0.125
100
AcDbArc
 50
300.0
 51
59.99999999999997
  0
ARC
  5
53A
330
1E
100
AcDbEntity
  8
DAMAN
100
AcDbCircle
 10
29.49949999999996
 20
14.13675999999999
 30
0.0
 40
0.125
100
AcDbArc
 50
300.0
 51
59.99999999999997
  0
LINE
  5
53B
330
1E
100
AcDbEntity
  8
DAMAN
100
AcDbLine
 10
29.58166499999996
 20
14.245013
 30
0.0
 11
29.62449999999996
 21
14.170821
 31
0.0
  0
INSERT
  5
53C
330
1E
100
AcDbEntity
  8
DAMAN
100
AcDbBlockReference
  2
100CROSS
 10
30.12449999999996
 20
19.437
 30
0.0
 41
-0.8000000000000042
 42
0.8000000000000007
 50
180.0
  0
LINE
  5
53D
330
1E
100
AcDbEntity
  8
DAMAN
100
AcDbLine
 10
29.31199999999996
 20
14.34325
 30
0.0
 11
29.24949999999996
 21
14.34325
 31
0.0
  0
LINE
  5
53E
330
1E
100
AcDbEntity
  8
DAMAN
100
AcDbLine
 10
30.68699999999996
 20
20.625
 30
0.0
 11
29.06199999999996
 21
20.625
 31
0.0
  0
LINE
  5
53F
330
1E
100
AcDbEntity
  8
DAMAN
100
AcDbLine
 10
29.58166499999996
 20
19.870013
 30
0.0
 11
29.31199999999996
 21
19.870013
 31
0.0
  0
LINE
  5
540
330
1E
100
AcDbEntity
  8
DAMAN
100
AcDbLine
 10
29.31199999999996
 20
19.653506
 30
0.0
 11
29.56199999999996
 21
19.653506
 31
0.0
  0
LINE
  5
541
330
1E
100
AcDbEntity
  8
DAMAN
100
AcDbLine
 10
29.31199999999996
 20
19.22049399999999
 30
0.0
 11
29.56199999999996
 21
19.22049399999999
 31
0.0
  0
LINE
  5
542
330
1E
100
AcDbEntity
  8
DAMAN
100
AcDbLine
 10
29.31199999999996
 20
19.003987
 30
0.0
 11
29.58166499999996
 21
19.003987
 31
0.0
  0
LINE
  5
543
330
1E
100
AcDbEntity
  8
DAMAN
100
AcDbLine
 10
29.31199999999996
 20
18.90575
 30
0.0
 11
29.31199999999996
 21
19.96825
 31
0.0
  0
LINE
  5
544
330
1E
100
AcDbEntity
  8
DAMAN
100
AcDbLine
 10
29.24949999999996
 20
18.90575
 30
0.0
 11
29.31199999999996
 21
18.90575
 31
0.0
  0
LINE
  5
545
330
1E
100
AcDbEntity
  8
DAMAN
100
AcDbLine
 10
29.31199999999996
 20
19.96825
 30
0.0
 11
29.24949999999996
 21
19.96825
 31
0.0
  0
CIRCLE
  5
546
330
1E
100
AcDbEntity
  8
DAMAN
100
AcDbCircle
 10
30.12449999999996
 20
19.437
 30
0.0
 40
0.53125
  0
LWPOLYLINE
  5
547
330
1E
100
AcDbEntity
  8
DAMAN
100
AcDbPolyline
 90
        6
 70
     1
 43
0.0
 10
30.49949999999996
 20
19.22049399999999
 10
30.12449999999996
 20
19.003987
 10
29.74949999999996
 20
19.22049399999999
 10
29.74949999999996
 20
19.653506
 10
30.12449999999996
 20
19.870013
 10
30.49949999999996
 20
19.653506
  0
CIRCLE
  5
548
330
1E
100
AcDbEntity
  8
DAMAN
100
AcDbCircle
 10
30.12449999999996
 20
19.437
 30
0.0
 40
0.375
  0
ARC
  5
549
330
1E
100
AcDbEntity
  8
DAMAN
100
AcDbCircle
 10
29.21824999999996
 20
19.437
 30
0.0
 40
0.40625
100
AcDbArc
 50
327.7957719999999
 51
32.20422799999999
  0
LINE
  5
54A
330
1E
100
AcDbEntity
  8
DAMAN
100
AcDbLine
 10
29.62449999999996
 20
19.078179
 30
0.0
 11
29.62449999999996
 21
19.795821
 31
0.0
  0
LINE
  5
54B
330
1E
100
AcDbEntity
  8
DAMAN
100
AcDbLine
 10
29.58166499999996
 20
19.003987
 30
0.0
 11
29.62449999999996
 21
19.078179
 31
0.0
  0
ARC
  5
54C
330
1E
100
AcDbEntity
  8
DAMAN
100
AcDbCircle
 10
29.49949999999996
 20
19.11223999999998
 30
0.0
 40
0.125
100
AcDbArc
 50
300.0
 51
59.99999999999997
  0
ARC
  5
54D
330
1E
100
AcDbEntity
  8
DAMAN
100
AcDbCircle
 10
29.49949999999996
 20
19.76175999999999
 30
0.0
 40
0.125
100
AcDbArc
 50
300.0
 51
59.99999999999997
  0
LINE
  5
54E
330
1E
100
AcDbEntity
  8
DAMAN
100
AcDbLine
 10
29.58166499999996
 20
19.870013
 30
0.0
 11
29.62449999999996
 21
19.795821
 31
0.0
  0
INSERT
  5
54F
330
1E
100
AcDbEntity
  8
DAMAN
100
AcDbBlockReference
  2
600MKS
 10
29.06199999999996
 20
4.625
 30
0.0
 41
-1.0
  0
ENDSEC
  0
SECTION
  2
OBJECTS
  0
DICTIONARY
  5
C
330
0
100
AcDbDictionary
  3
ACAD_GROUP
350
D
  3
ACAD_LAYOUT
350
19
  3
ACAD_MLINESTYLE
350
16
  3
ACAD_PLOTSETTINGS
350
18
  3
ACAD_PLOTSTYLENAME
350
E
  3
ACDBHEADERROUNDTRIPXREC
350
551
  0
DICTIONARY
  5
1B2
330
1E
100
AcDbDictionary
280
     1
  3
ACAD_LAYOUTSELFREF
360
572
  0
DICTIONARY
  5
1B0
330
1A
100
AcDbDictionary
280
     1
  3
ACAD_LAYOUTSELFREF
360
571
  0
DICTIONARY
  5
D
102
{ACAD_REACTORS
330
C
102
}
330
C
100
AcDbDictionary
  0
DICTIONARY
  5
19
102
{ACAD_REACTORS
330
C
102
}
330
C
100
AcDbDictionary
  0
DICTIONARY
  5
16
102
{ACAD_REACTORS
330
C
102
}
330
C
100
AcDbDictionary
  3
STANDARD
350
17
  0
DICTIONARY
  5
18
102
{ACAD_REACTORS
330
C
102
}
330
C
100
AcDbDictionary
  0
ACDBDICTIONARYWDFLT
  5
E
102
{ACAD_REACTORS
330
C
102
}
330
C
100
AcDbDictionary
281
     1
  3
Normal
350
F
100
AcDbDictionaryWithDefault
340
F
  0
DICTIONARY
  5
551
102
{ACAD_REACTORS
330
C
102
}
330
C
100
AcDbDictionary
  3
CEPSNTYPE
350
55B
  3
FINGERPRINTGUID
350
55C
  3
HYPERLINKBASE
350
554
  3
INSUNITS
350
55A
  3
LAYOUTDICT
350
556
  3
LWETCUNION
350
559
  3
PLOTSETDICT
350
557
  3
PLOTSTYLNAMDICT
350
558
  3
PSVPSCALE
350
55E
  3
PUCSBASE
350
561
  3
PUCSORGBACK
350
567
  3
PUCSORGBOTTOM
350
563
  3
PUCSORGFRONT
350
566
  3
PUCSORGLEFT
350
564
  3
PUCSORGRIGHT
350
565
  3
PUCSORGTOP
350
562
  3
PUCSORTHOREF
350
55F
  3
PUCSORTHOVIEW
350
560
  3
STYLESHEET
350
555
  3
TSTACKALIGN
350
552
  3
TSTACKSIZE
350
553
  3
UCSBASE
350
56A
  3
UCSORGBACK
350
570
  3
UCSORGBOTTOM
350
56C
  3
UCSORGFRONT
350
56F
  3
UCSORGLEFT
350
56D
  3
UCSORGRIGHT
350
56E
  3
UCSORGTOP
350
56B
  3
UCSORTHOREF
350
568
  3
UCSORTHOVIEW
350
569
  3
VERSIONGUID
350
55D
  0
XRECORD
  5
572
102
{ACAD_REACTORS
330
1B2
102
}
330
1B2
100
AcDbXrecord
340
1E
  0
XRECORD
  5
571
102
{ACAD_REACTORS
330
1B0
102
}
330
1B0
100
AcDbXrecord
340
1A
  0
MLINESTYLE
  5
17
102
{ACAD_REACTORS
330
16
102
}
330
16
100
AcDbMlineStyle
  2
STANDARD
 70
     0
  3

 62
   256
 51
90.0
 52
90.0
 71
     2
 49
0.5
 62
   256
  6
BYLAYER
 49
-0.5
 62
   256
  6
BYLAYER
  0
ACDBPLACEHOLDER
  5
F
102
{ACAD_REACTORS
330
E
102
}
330
E
100
AcDbPlaceHolder
280
     0
  0
XRECORD
  5
55B
102
{ACAD_REACTORS
330
551
102
}
330
551
100
AcDbXrecord
 90
        0
  0
XRECORD
  5
55C
102
{ACAD_REACTORS
330
551
102
}
330
551
100
AcDbXrecord
  1
{016C4546-4DAC-4B42-8BDB-867DC4F0702B}
  0
XRECORD
  5
554
102
{ACAD_REACTORS
330
551
102
}
330
551
100
AcDbXrecord
  1

  0
XRECORD
  5
55A
102
{ACAD_REACTORS
330
551
102
}
330
551
100
AcDbXrecord
 90
        0
  0
XRECORD
  5
556
102
{ACAD_REACTORS
330
551
102
}
330
551
100
AcDbXrecord
340
19
  0
XRECORD
  5
559
102
{ACAD_REACTORS
330
551
102
}
330
551
100
AcDbXrecord
 90
    10781
  0
XRECORD
  5
557
102
{ACAD_REACTORS
330
551
102
}
330
551
100
AcDbXrecord
340
18
  0
XRECORD
  5
558
102
{ACAD_REACTORS
330
551
102
}
330
551
100
AcDbXrecord
340
E
  0
XRECORD
  5
55E
102
{ACAD_REACTORS
330
551
102
}
330
551
100
AcDbXrecord
 40
0.0
  0
XRECORD
  5
561
102
{ACAD_REACTORS
330
551
102
}
330
551
100
AcDbXrecord
340
0
  0
XRECORD
  5
567
102
{ACAD_REACTORS
330
551
102
}
330
551
100
AcDbXrecord
 10
0.0
 20
0.0
 30
0.0
  0
XRECORD
  5
563
102
{ACAD_REACTORS
330
551
102
}
330
551
100
AcDbXrecord
 10
0.0
 20
0.0
 30
0.0
  0
XRECORD
  5
566
102
{ACAD_REACTORS
330
551
102
}
330
551
100
AcDbXrecord
 10
0.0
 20
0.0
 30
0.0
  0
XRECORD
  5
564
102
{ACAD_REACTORS
330
551
102
}
330
551
100
AcDbXrecord
 10
0.0
 20
0.0
 30
0.0
  0
XRECORD
  5
565
102
{ACAD_REACTORS
330
551
102
}
330
551
100
AcDbXrecord
 10
0.0
 20
0.0
 30
0.0
  0
XRECORD
  5
562
102
{ACAD_REACTORS
330
551
102
}
330
551
100
AcDbXrecord
 10
0.0
 20
0.0
 30
0.0
  0
XRECORD
  5
55F
102
{ACAD_REACTORS
330
551
102
}
330
551
100
AcDbXrecord
340
0
  0
XRECORD
  5
560
102
{ACAD_REACTORS
330
551
102
}
330
551
100
AcDbXrecord
 70
     0
  0
XRECORD
  5
555
102
{ACAD_REACTORS
330
551
102
}
330
551
100
AcDbXrecord
  1

  0
XRECORD
  5
552
102
{ACAD_REACTORS
330
551
102
}
330
551
100
AcDbXrecord
 90
        1
  0
XRECORD
  5
553
102
{ACAD_REACTORS
330
551
102
}
330
551
100
AcDbXrecord
 90
       70
  0
XRECORD
  5
56A
102
{ACAD_REACTORS
330
551
102
}
330
551
100
AcDbXrecord
340
0
  0
XRECORD
  5
570
102
{ACAD_REACTORS
330
551
102
}
330
551
100
AcDbXrecord
 10
0.0
 20
0.0
 30
0.0
  0
XRECORD
  5
56C
102
{ACAD_REACTORS
330
551
102
}
330
551
100
AcDbXrecord
 10
0.0
 20
0.0
 30
0.0
  0
XRECORD
  5
56F
102
{ACAD_REACTORS
330
551
102
}
330
551
100
AcDbXrecord
 10
0.0
 20
0.0
 30
0.0
  0
XRECORD
  5
56D
102
{ACAD_REACTORS
330
551
102
}
330
551
100
AcDbXrecord
 10
0.0
 20
0.0
 30
0.0
  0
XRECORD
  5
56E
102
{ACAD_REACTORS
330
551
102
}
330
551
100
AcDbXrecord
 10
0.0
 20
0.0
 30
0.0
  0
XRECORD
  5
56B
102
{ACAD_REACTORS
330
551
102
}
330
551
100
AcDbXrecord
 10
0.0
 20
0.0
 30
0.0
  0
XRECORD
  5
568
102
{ACAD_REACTORS
330
551
102
}
330
551
100
AcDbXrecord
340
0
  0
XRECORD
  5
569
102
{ACAD_REACTORS
330
551
102
}
330
551
100
AcDbXrecord
 70
     0
  0
XRECORD
  5
55D
102
{ACAD_REACTORS
330
551
102
}
330
551
100
AcDbXrecord
  1
{9AFB29A4-4262-4F61-86BE-A27DA8295814}
  0
ENDSEC
  0
EOF
