  0
SECTION
  2
HEADER
  9
$ACADVER
  1
AC1014
  9
$ACADMAINTVER
 70
     9
  9
$DWGCODEPAGE
  3
ANSI_1252
  9
$INSBASE
 10
0.0
 20
0.0
 30
0.0
  9
$EXTMIN
 10
7.159559080515151
 20
4.631835998771521
 30
-0.0015258207003583
  9
$EXTMAX
 10
30.34489936847757
 20
18.06811528334873
 30
0.0000000349246037
  9
$LIMMIN
 10
0.0
 20
0.0
  9
$LIMMAX
 10
24.0
 20
24.0
  9
$ORTHOMODE
 70
     0
  9
$REGENMODE
 70
     1
  9
$FILLMODE
 70
     1
  9
$QTEXTMODE
 70
     0
  9
$MIRRTEXT
 70
     1
  9
$DRAGMODE
 70
     2
  9
$LTSCALE
 40
1.0
  9
$OSMODE
 70
    37
  9
$ATTMODE
 70
     1
  9
$TEXTSIZE
 40
0.2
  9
$TRACEWID
 40
0.05
  9
$TEXTSTYLE
  7
STANDARD
  9
$CLAYER
  8
DAMAN
  9
$CELTYPE
  6
BYLAYER
  9
$CECOLOR
 62
   256
  9
$CELTSCALE
 40
1.0
  9
$DELOBJ
 70
     1
  9
$DISPSILH
 70
     0
  9
$DIMSCALE
 40
1.0
  9
$DIMASZ
 40
0.18
  9
$DIMEXO
 40
0.0625
  9
$DIMDLI
 40
0.38
  9
$DIMRND
 40
0.0
  9
$DIMDLE
 40
0.0
  9
$DIMEXE
 40
0.18
  9
$DIMTP
 40
0.0
  9
$DIMTM
 40
0.0
  9
$DIMTXT
 40
0.18
  9
$DIMCEN
 40
0.09
  9
$DIMTSZ
 40
0.0
  9
$DIMTOL
 70
     0
  9
$DIMLIM
 70
     0
  9
$DIMTIH
 70
     1
  9
$DIMTOH
 70
     1
  9
$DIMSE1
 70
     0
  9
$DIMSE2
 70
     0
  9
$DIMTAD
 70
     0
  9
$DIMZIN
 70
     0
  9
$DIMBLK
  1

  9
$DIMASO
 70
     1
  9
$DIMSHO
 70
     1
  9
$DIMPOST
  1

  9
$DIMAPOST
  1

  9
$DIMALT
 70
     0
  9
$DIMALTD
 70
     2
  9
$DIMALTF
 40
25.4
  9
$DIMLFAC
 40
1.0
  9
$DIMTOFL
 70
     0
  9
$DIMTVP
 40
0.0
  9
$DIMTIX
 70
     0
  9
$DIMSOXD
 70
     0
  9
$DIMSAH
 70
     0
  9
$DIMBLK1
  1

  9
$DIMBLK2
  1

  9
$DIMSTYLE
  2
STANDARD
  9
$DIMCLRD
 70
     0
  9
$DIMCLRE
 70
     0
  9
$DIMCLRT
 70
     0
  9
$DIMTFAC
 40
1.0
  9
$DIMGAP
 40
0.09
  9
$DIMJUST
 70
     0
  9
$DIMSD1
 70
     0
  9
$DIMSD2
 70
     0
  9
$DIMTOLJ
 70
     1
  9
$DIMTZIN
 70
     0
  9
$DIMALTZ
 70
     0
  9
$DIMALTTZ
 70
     0
  9
$DIMFIT
 70
     3
  9
$DIMUPT
 70
     0
  9
$DIMUNIT
 70
     2
  9
$DIMDEC
 70
     4
  9
$DIMTDEC
 70
     4
  9
$DIMALTU
 70
     2
  9
$DIMALTTD
 70
     2
  9
$DIMTXSTY
  7
STANDARD
  9
$DIMAUNIT
 70
     0
  9
$LUNITS
 70
     2
  9
$LUPREC
 70
     4
  9
$SKETCHINC
 40
0.1
  9
$FILLETRAD
 40
0.0
  9
$AUNITS
 70
     0
  9
$AUPREC
 70
     0
  9
$MENU
  1
tom
  9
$ELEVATION
 40
0.0
  9
$PELEVATION
 40
0.0
  9
$THICKNESS
 40
0.0
  9
$LIMCHECK
 70
     0
  9
$BLIPMODE
 70
     0
  9
$CHAMFERA
 40
0.0
  9
$CHAMFERB
 40
0.0
  9
$CHAMFERC
 40
0.0
  9
$CHAMFERD
 40
0.0
  9
$SKPOLY
 70
     0
  9
$TDCREATE
 40
2450463.421260787
  9
$TDUPDATE
 40
2453419.453003703
  9
$TDINDWG
 40
0.0015847338
  9
$TDUSRTIMER
 40
0.0015847338
  9
$USRTIMER
 70
     1
  9
$ANGBASE
 50
0.0
  9
$ANGDIR
 70
     0
  9
$PDMODE
 70
     0
  9
$PDSIZE
 40
0.0
  9
$PLINEWID
 40
0.0
  9
$COORDS
 70
     1
  9
$SPLFRAME
 70
     0
  9
$SPLINETYPE
 70
     6
  9
$SPLINESEGS
 70
     8
  9
$ATTDIA
 70
     0
  9
$ATTREQ
 70
     1
  9
$HANDLING
 70
-16383
  9
$HANDSEED
  5
79A
  9
$SURFTAB1
 70
     6
  9
$SURFTAB2
 70
     6
  9
$SURFTYPE
 70
     6
  9
$SURFU
 70
     6
  9
$SURFV
 70
     6
  9
$UCSNAME
  2

  9
$UCSORG
 10
0.0
 20
0.0
 30
0.0
  9
$UCSXDIR
 10
1.0
 20
0.0
 30
0.0
  9
$UCSYDIR
 10
0.0
 20
1.0
 30
0.0
  9
$PUCSNAME
  2

  9
$PUCSORG
 10
0.0
 20
0.0
 30
0.0
  9
$PUCSXDIR
 10
1.0
 20
0.0
 30
0.0
  9
$PUCSYDIR
 10
0.0
 20
1.0
 30
0.0
  9
$USERI1
 70
     0
  9
$USERI2
 70
     0
  9
$USERI3
 70
     0
  9
$USERI4
 70
     0
  9
$USERI5
 70
     0
  9
$USERR1
 40
0.0
  9
$USERR2
 40
0.0
  9
$USERR3
 40
0.0
  9
$USERR4
 40
0.0
  9
$USERR5
 40
0.0
  9
$WORLDVIEW
 70
     1
  9
$SHADEDGE
 70
     3
  9
$SHADEDIF
 70
    70
  9
$TILEMODE
 70
     1
  9
$MAXACTVP
 70
    16
  9
$PINSBASE
 10
0.0
 20
0.0
 30
0.0
  9
$PLIMCHECK
 70
     0
  9
$PEXTMIN
 10
1.000000000000000E+20
 20
1.000000000000000E+20
 30
1.000000000000000E+20
  9
$PEXTMAX
 10
-1.000000000000000E+20
 20
-1.000000000000000E+20
 30
-1.000000000000000E+20
  9
$PLIMMIN
 10
0.0
 20
0.0
  9
$PLIMMAX
 10
12.0
 20
9.0
  9
$UNITMODE
 70
     0
  9
$VISRETAIN
 70
     0
  9
$PLINEGEN
 70
     0
  9
$PSLTSCALE
 70
     1
  9
$TREEDEPTH
 70
  3020
  9
$PICKSTYLE
 70
     1
  9
$CMLSTYLE
  2
STANDARD
  9
$CMLJUST
 70
     0
  9
$CMLSCALE
 40
1.0
  9
$PROXYGRAPHICS
 70
     1
  9
$MEASUREMENT
 70
     0
  0
ENDSEC
  0
SECTION
  2
CLASSES
  0
CLASS
  1
ACDBDICTIONARYWDFLT
  2
AcDbDictionaryWithDefault
  3
AutoCAD 2000
 90
        0
280
     0
281
     0
  0
CLASS
  1
ACDBPLACEHOLDER
  2
AcDbPlaceHolder
  3
AutoCAD 2000
 90
        0
280
     0
281
     0
  0
CLASS
  1
LAYOUT
  2
AcDbLayout
  3
AutoCAD 2000
 90
        0
280
     0
281
     0
  0
CLASS
  1
LONG_TRANSACTION
  2
AcDbLongTransaction
  3
AutoCAD 2000
 90
        0
280
     0
281
     0
  0
CLASS
  1
LWPOLYLINE
  2
AcDbPolyline
  3
AutoCAD 2000
 90
        0
280
     0
281
     1
  0
CLASS
  1
HATCH
  2
AcDbHatch
  3
AutoCAD 2000
 90
        0
280
     0
281
     1
  0
CLASS
  1
XRECORD
  2
AcDbXrecord
  3
AutoCAD 2000
 90
        0
280
     0
281
     0
  0
ENDSEC
  0
SECTION
  2
TABLES
  0
TABLE
  2
VPORT
  5
573
330
0
100
AcDbSymbolTable
 70
     2
  0
VPORT
  5
775
330
573
100
AcDbSymbolTableRecord
100
AcDbViewportTableRecord
  2
*ACTIVE
 70
     0
 10
0.0
 20
0.0
 11
1.0
 21
1.0
 12
18.75222922449636
 22
11.34997564106012
 13
0.0
 23
0.0
 14
1.0
 24
1.0
 15
0.0
 25
0.0
 16
0.0
 26
0.0
 36
1.0
 17
0.0
 27
0.0
 37
0.0
 40
14.1612691021396
 41
1.647569444444444
 42
50.0
 43
0.0
 44
0.0
 50
0.0
 51
0.0
 71
     0
 72
   100
 73
     1
 74
     1
 75
     0
 76
     0
 77
     0
 78
     0
  0
ENDTAB
  0
TABLE
  2
LTYPE
  5
570
330
0
100
AcDbSymbolTable
 70
     2
  0
LTYPE
  5
57E
330
570
100
AcDbSymbolTableRecord
100
AcDbLinetypeTableRecord
  2
BYBLOCK
 70
     0
  3

 72
    65
 73
     0
 40
0.0
  0
LTYPE
  5
57F
330
570
100
AcDbSymbolTableRecord
100
AcDbLinetypeTableRecord
  2
BYLAYER
 70
     0
  3

 72
    65
 73
     0
 40
0.0
  0
LTYPE
  5
580
330
570
100
AcDbSymbolTableRecord
100
AcDbLinetypeTableRecord
  2
CONTINUOUS
 70
     0
  3
Solid line
 72
    65
 73
     0
 40
0.0
  0
LTYPE
  5
58F
330
570
100
AcDbSymbolTableRecord
100
AcDbLinetypeTableRecord
  2
HIDDEN
 70
     0
  3
_ _ _ _ _ _ _ _ _ _ _ _ _ _ _ _ _ _ _ _ _ _ _
 72
    65
 73
     2
 40
0.375
 49
0.25
 74
     0
 49
-0.125
 74
     0
  0
ENDTAB
  0
TABLE
  2
LAYER
  5
56D
330
0
100
AcDbSymbolTable
 70
     6
  0
LAYER
  5
57B
330
56D
100
AcDbSymbolTableRecord
100
AcDbLayerTableRecord
  2
0
 70
     0
 62
     7
  6
CONTINUOUS
  0
LAYER
  5
58D
330
56D
100
AcDbSymbolTableRecord
100
AcDbLayerTableRecord
  2
DAMAN
 70
     0
 62
     5
  6
CONTINUOUS
  0
LAYER
  5
590
330
56D
100
AcDbSymbolTableRecord
100
AcDbLayerTableRecord
  2
ISO
 70
     1
 62
     5
  6
CONTINUOUS
  0
LAYER
  5
591
330
56D
100
AcDbSymbolTableRecord
100
AcDbLayerTableRecord
  2
PIPE
 70
     1
 62
     5
  6
CONTINUOUS
  0
LAYER
  5
592
330
56D
100
AcDbSymbolTableRecord
100
AcDbLayerTableRecord
  2
SAE
 70
     0
 62
     5
  6
CONTINUOUS
  0
LAYER
  5
593
330
56D
100
AcDbSymbolTableRecord
100
AcDbLayerTableRecord
  2
BSPP
 70
     1
 62
     5
  6
CONTINUOUS
  0
ENDTAB
  0
TABLE
  2
STYLE
  5
56E
330
0
100
AcDbSymbolTable
 70
     1
  0
STYLE
  5
57C
330
56E
100
AcDbSymbolTableRecord
100
AcDbTextStyleTableRecord
  2
STANDARD
 70
     0
 40
0.0
 41
1.0
 50
0.0
 71
     0
 42
0.2
  3
txt
  4

  0
ENDTAB
  0
TABLE
  2
VIEW
  5
571
330
0
100
AcDbSymbolTable
 70
     0
  0
ENDTAB
  0
TABLE
  2
UCS
  5
572
330
0
100
AcDbSymbolTable
 70
     0
  0
ENDTAB
  0
TABLE
  2
APPID
  5
574
330
0
100
AcDbSymbolTable
 70
     1
  0
APPID
  5
57D
330
574
100
AcDbSymbolTableRecord
100
AcDbRegAppTableRecord
  2
ACAD
 70
     0
  0
ENDTAB
  0
TABLE
  2
DIMSTYLE
  5
575
330
0
100
AcDbSymbolTable
 70
     1
  0
DIMSTYLE
105
594
330
575
100
AcDbSymbolTableRecord
100
AcDbDimStyleTableRecord
  2
STANDARD
 70
     0
  3

  4

  5

  6

  7

 40
1.0
 41
0.18
 42
0.0625
 43
0.38
 44
0.18
 45
0.0
 46
0.0
 47
0.0
 48
0.0
140
0.18
141
0.09
142
0.0
143
25.4
144
1.0
145
0.0
146
1.0
147
0.09
 71
     0
 72
     0
 73
     1
 74
     1
 75
     0
 76
     0
 77
     0
 78
     0
170
     0
171
     2
172
     0
173
     0
174
     0
175
     0
176
     0
177
     0
178
     0
270
     2
271
     4
272
     4
273
     2
274
     2
340
57C
275
     0
280
     0
281
     0
282
     0
283
     1
284
     0
285
     0
286
     0
287
     5
288
     0
  0
ENDTAB
  0
TABLE
  2
BLOCK_RECORD
  5
56C
330
0
100
AcDbSymbolTable
 70
    20
  0
BLOCK_RECORD
  5
589
102
{ACAD_XDICTIONARY
360
798
102
}
330
56C
100
AcDbSymbolTableRecord
100
AcDbBlockTableRecord
  2
*MODEL_SPACE
  0
BLOCK_RECORD
  5
585
102
{ACAD_XDICTIONARY
360
796
102
}
330
56C
100
AcDbSymbolTableRecord
100
AcDbBlockTableRecord
  2
*PAPER_SPACE
  0
BLOCK_RECORD
  5
596
330
56C
100
AcDbSymbolTableRecord
100
AcDbBlockTableRecord
  2
$MODEL_SPACE
  0
BLOCK_RECORD
  5
599
330
56C
100
AcDbSymbolTableRecord
100
AcDbBlockTableRecord
  2
$PAPER_SPACE
  0
BLOCK_RECORD
  5
59C
330
56C
100
AcDbSymbolTableRecord
100
AcDbBlockTableRecord
  2
100CROSS
  0
BLOCK_RECORD
  5
59E
330
56C
100
AcDbSymbolTableRecord
100
AcDbBlockTableRecord
  2
050CROSS
  0
BLOCK_RECORD
  5
5A9
330
56C
100
AcDbSymbolTableRecord
100
AcDbBlockTableRecord
  2
100NPTFT
  0
BLOCK_RECORD
  5
5B0
330
56C
100
AcDbSymbolTableRecord
100
AcDbBlockTableRecord
  2
16SAET
  0
BLOCK_RECORD
  5
5B8
330
56C
100
AcDbSymbolTableRecord
100
AcDbBlockTableRecord
  2
100BSPPT
  0
BLOCK_RECORD
  5
5C0
330
56C
100
AcDbSymbolTableRecord
100
AcDbBlockTableRecord
  2
M33T
  0
BLOCK_RECORD
  5
5C9
330
56C
100
AcDbSymbolTableRecord
100
AcDbBlockTableRecord
  2
M14T
  0
BLOCK_RECORD
  5
5D2
330
56C
100
AcDbSymbolTableRecord
100
AcDbBlockTableRecord
  2
D07
  0
BLOCK_RECORD
  5
5FA
330
56C
100
AcDbSymbolTableRecord
100
AcDbBlockTableRecord
  2
600MKT
  0
BLOCK_RECORD
  5
640
330
56C
100
AcDbSymbolTableRecord
100
AcDbBlockTableRecord
  2
08SAET
  0
BLOCK_RECORD
  5
648
330
56C
100
AcDbSymbolTableRecord
100
AcDbBlockTableRecord
  2
600MKST
  0
BLOCK_RECORD
  5
675
330
56C
100
AcDbSymbolTableRecord
100
AcDbBlockTableRecord
  2
125NPTFT
  0
BLOCK_RECORD
  5
67C
330
56C
100
AcDbSymbolTableRecord
100
AcDbBlockTableRecord
  2
050NPTFT
  0
BLOCK_RECORD
  5
67E
330
56C
100
AcDbSymbolTableRecord
100
AcDbBlockTableRecord
  2
500NPTFT
  0
BLOCK_RECORD
  5
687
330
56C
100
AcDbSymbolTableRecord
100
AcDbBlockTableRecord
  2
20SAET
  0
BLOCK_RECORD
  5
68E
330
56C
100
AcDbSymbolTableRecord
100
AcDbBlockTableRecord
  2
125BSPPT
  0
BLOCK_RECORD
  5
696
330
56C
100
AcDbSymbolTableRecord
100
AcDbBlockTableRecord
  2
0500BSPPT
  0
BLOCK_RECORD
  5
69E
330
56C
100
AcDbSymbolTableRecord
100
AcDbBlockTableRecord
  2
M42T
  0
ENDTAB
  0
ENDSEC
  0
SECTION
  2
BLOCKS
  0
BLOCK
  5
58A
330
589
100
AcDbEntity
  8
0
100
AcDbBlockBegin
  2
*MODEL_SPACE
 70
     0
 10
0.0
 20
0.0
 30
0.0
  3
*MODEL_SPACE
  1

  0
ENDBLK
  5
58B
330
589
100
AcDbEntity
  8
0
100
AcDbBlockEnd
  0
BLOCK
  5
586
330
585
100
AcDbEntity
 67
     1
  8
0
100
AcDbBlockBegin
  2
*PAPER_SPACE
 70
     0
 10
0.0
 20
0.0
 30
0.0
  3
*PAPER_SPACE
  1

  0
ENDBLK
  5
587
330
585
100
AcDbEntity
 67
     1
  8
0
100
AcDbBlockEnd
  0
BLOCK
  5
597
330
596
100
AcDbEntity
  8
0
100
AcDbBlockBegin
  2
$MODEL_SPACE
 70
     0
 10
0.0
 20
0.0
 30
0.0
  3
$MODEL_SPACE
  1

  0
ENDBLK
  5
598
330
596
100
AcDbEntity
  8
0
100
AcDbBlockEnd
  0
BLOCK
  5
59A
330
599
100
AcDbEntity
  8
0
100
AcDbBlockBegin
  2
$PAPER_SPACE
 70
     0
 10
0.0
 20
0.0
 30
0.0
  3
$PAPER_SPACE
  1

  0
ENDBLK
  5
59B
330
599
100
AcDbEntity
  8
0
100
AcDbBlockEnd
  0
BLOCK
  5
59D
330
59C
100
AcDbEntity
  8
0
100
AcDbBlockBegin
  2
100CROSS
 70
     0
 10
5.62500000000004
 20
4.593750000000039
 30
0.0
  3
100CROSS
  1

  0
INSERT
  5
59F
330
59C
100
AcDbEntity
  8
0
100
AcDbBlockReference
  2
050CROSS
 10
5.62500000000004
 20
4.593750000000039
 30
0.0
  0
ENDBLK
  5
5A0
330
59C
100
AcDbEntity
  8
0
100
AcDbBlockEnd
  0
BLOCK
  5
5A1
330
59E
100
AcDbEntity
  8
0
100
AcDbBlockBegin
  2
050CROSS
 70
     0
 10
5.000000000000039
 20
5.000000000000039
 30
0.0
  3
050CROSS
  1

  0
LINE
  5
5A2
330
59E
100
AcDbEntity
  8
0
100
AcDbLine
 10
5.000000000000039
 20
5.281250000000039
 30
0.0
 11
5.000000000000079
 21
5.78125000000004
 31
0.0
  0
LINE
  5
5A3
330
59E
100
AcDbEntity
  8
0
100
AcDbLine
 10
5.000000000000039
 20
4.875000000000039
 30
0.0
 11
5.000000000000079
 21
5.125000000000039
 31
0.0
  0
LINE
  5
5A4
330
59E
100
AcDbEntity
  8
0
100
AcDbLine
 10
5.000000000000039
 20
4.156250000000039
 30
0.0
 11
5.000000000000079
 21
4.718750000000039
 31
0.0
  0
LINE
  5
5A5
330
59E
100
AcDbEntity
  8
0
100
AcDbLine
 10
5.250000000000039
 20
5.000000000000039
 30
0.0
 11
5.81250000000004
 21
5.000000000000079
 31
0.0
  0
LINE
  5
5A6
330
59E
100
AcDbEntity
  8
0
100
AcDbLine
 10
4.906250000000039
 20
5.000000000000039
 30
0.0
 11
5.093750000000039
 21
5.000000000000079
 31
0.0
  0
LINE
  5
5A7
330
59E
100
AcDbEntity
  8
0
100
AcDbLine
 10
4.187500000000039
 20
5.000000000000039
 30
0.0
 11
4.750000000000039
 21
5.000000000000079
 31
0.0
  0
ENDBLK
  5
5A8
330
59E
100
AcDbEntity
  8
0
100
AcDbBlockEnd
  0
BLOCK
  5
5AA
330
5A9
100
AcDbEntity
  8
0
100
AcDbBlockBegin
  2
100NPTFT
 70
     0
 10
0.0
 20
0.0
 30
0.0
  3
100NPTFT
  1

  0
CIRCLE
  5
5AB
330
5A9
100
AcDbEntity
  8
DAMAN
100
AcDbCircle
 10
0.0
 20
0.0
 30
0.0
 40
0.5625
  0
CIRCLE
  5
5AC
330
5A9
100
AcDbEntity
  8
DAMAN
100
AcDbCircle
 10
0.0
 20
0.0
 30
0.0
 40
0.6720000000000002
  0
INSERT
  5
5AD
330
5A9
100
AcDbEntity
  8
DAMAN
100
AcDbBlockReference
  2
100CROSS
 10
0.0
 20
0.0
 30
0.0
 41
1.199999999999999
 42
1.199999999999999
  0
CIRCLE
  5
5AE
330
5A9
100
AcDbEntity
  8
DAMAN
100
AcDbCircle
 10
-0.0000000000000409
 20
-0.00000000000004
 30
0.0
 40
0.625
  0
ENDBLK
  5
5AF
330
5A9
100
AcDbEntity
  8
0
100
AcDbBlockEnd
  0
BLOCK
  5
5B1
330
5B0
100
AcDbEntity
  8
0
100
AcDbBlockBegin
  2
16SAET
 70
     0
 10
0.0
 20
0.0
 30
0.0
  3
16SAET
  1

  0
CIRCLE
  5
5B2
330
5B0
100
AcDbEntity
  8
DAMAN
100
AcDbCircle
 10
0.0
 20
0.0
 30
0.0
 40
0.6125
  0
CIRCLE
  5
5B3
330
5B0
100
AcDbEntity
  8
DAMAN
100
AcDbCircle
 10
0.0
 20
0.0
 30
0.0
 40
0.5620000000000001
  0
CIRCLE
  5
5B4
330
5B0
100
AcDbEntity
  8
DAMAN
100
AcDbCircle
 10
0.0
 20
0.0
 30
0.0
 40
1.0
  0
INSERT
  5
5B5
330
5B0
100
AcDbEntity
  8
DAMAN
100
AcDbBlockReference
  2
100CROSS
 10
0.0
 20
0.0
 30
0.0
 41
1.6
 42
1.6
  0
CIRCLE
  5
5B6
330
5B0
100
AcDbEntity
  8
DAMAN
100
AcDbCircle
 10
0.0
 20
0.0
 30
0.0
 40
0.65625
  0
ENDBLK
  5
5B7
330
5B0
100
AcDbEntity
  8
0
100
AcDbBlockEnd
  0
BLOCK
  5
5B9
330
5B8
100
AcDbEntity
  8
0
100
AcDbBlockBegin
  2
100BSPPT
 70
     0
 10
0.0
 20
0.0
 30
0.0
  3
100BSPPT
  1

  0
CIRCLE
  5
5BA
330
5B8
100
AcDbEntity
  8
DAMAN
  6
HIDDEN
100
AcDbCircle
 10
0.0
 20
0.0
 30
0.0
 40
0.6545
  0
CIRCLE
  5
5BB
330
5B8
100
AcDbEntity
  8
DAMAN
100
AcDbCircle
 10
0.0
 20
0.0
 30
0.0
 40
0.6125
  0
CIRCLE
  5
5BC
330
5B8
100
AcDbEntity
  8
DAMAN
100
AcDbCircle
 10
0.0
 20
0.0
 30
0.0
 40
0.915
  0
INSERT
  5
5BD
330
5B8
100
AcDbEntity
  8
DAMAN
100
AcDbBlockReference
  2
100CROSS
 10
0.0
 20
0.0
 30
0.0
 41
1.33
 42
1.33
  0
CIRCLE
  5
5BE
330
5B8
100
AcDbEntity
  8
DAMAN
100
AcDbCircle
 10
0.0000000000000266
 20
0.0000000000000266
 30
0.0
 40
0.6575
  0
ENDBLK
  5
5BF
330
5B8
100
AcDbEntity
  8
0
100
AcDbBlockEnd
  0
BLOCK
  5
5C1
330
5C0
100
AcDbEntity
  8
0
100
AcDbBlockBegin
  2
M33T
 70
     0
 10
0.0
 20
0.0
 30
0.0
  3
M33T
  1

  0
CIRCLE
  5
5C2
330
5C0
100
AcDbEntity
  8
DAMAN
100
AcDbCircle
 10
0.0
 20
0.0
 30
0.0
 40
0.6970000000000001
  0
CIRCLE
  5
5C3
330
5C0
100
AcDbEntity
  8
DAMAN
  6
HIDDEN
100
AcDbCircle
 10
0.0
 20
0.0
 30
0.0
 40
0.649606
  0
CIRCLE
  5
5C4
330
5C0
100
AcDbEntity
  8
DAMAN
100
AcDbCircle
 10
0.0
 20
0.0
 30
0.0
 40
0.9644999999999999
  0
INSERT
  5
5C5
330
5C0
100
AcDbEntity
  8
DAMAN
100
AcDbBlockReference
  2
100CROSS
 10
0.0
 20
0.0
 30
0.0
 41
1.33
 42
1.33
  0
CIRCLE
  5
5C6
330
5C0
100
AcDbEntity
  8
DAMAN
100
AcDbCircle
 10
0.0000000000000266
 20
0.0000000000000266
 30
0.0
 40
0.8464999999999999
  0
CIRCLE
  5
5C7
330
5C0
100
AcDbEntity
  8
DAMAN
100
AcDbCircle
 10
0.0
 20
0.0
 30
0.0
 40
0.614
  0
ENDBLK
  5
5C8
330
5C0
100
AcDbEntity
  8
0
100
AcDbBlockEnd
  0
BLOCK
  5
5CA
330
5C9
100
AcDbEntity
  8
0
100
AcDbBlockBegin
  2
M14T
 70
     0
 10
0.0
 20
0.0
 30
0.0
  3
M14T
  1

  0
CIRCLE
  5
5CB
330
5C9
100
AcDbEntity
  8
DAMAN
  6
HIDDEN
100
AcDbCircle
 10
0.0
 20
0.0
 30
0.0
 40
0.2755
  0
CIRCLE
  5
5CC
330
5C9
100
AcDbEntity
  8
DAMAN
100
AcDbCircle
 10
0.0
 20
0.0
 30
0.0
 40
0.4920000000000001
  0
CIRCLE
  5
5CD
330
5C9
100
AcDbEntity
  8
DAMAN
100
AcDbCircle
 10
0.0
 20
0.0
 30
0.0
 40
0.413
  0
CIRCLE
  5
5CE
330
5C9
100
AcDbEntity
  8
DAMAN
100
AcDbCircle
 10
0.0
 20
0.0
 30
0.0
 40
0.311
  0
CIRCLE
  5
5CF
330
5C9
100
AcDbEntity
  8
DAMAN
100
AcDbCircle
 10
0.0
 20
0.0
 30
0.0
 40
0.25
  0
INSERT
  5
5D0
330
5C9
100
AcDbEntity
  8
DAMAN
100
AcDbBlockReference
  2
100CROSS
 10
-0.0000000000000169
 20
-0.000000000000016
 30
0.0
 41
0.8259999999999998
 42
0.8259999999999998
  0
ENDBLK
  5
5D1
330
5C9
100
AcDbEntity
  8
0
100
AcDbBlockEnd
  0
BLOCK
  5
5D3
330
5D2
100
AcDbEntity
  8
0
100
AcDbBlockBegin
  2
D07
 70
     0
 10
0.0
 20
0.0
 30
0.0
  3
D07
  1

  0
CIRCLE
  5
5D4
330
5D2
100
AcDbEntity
  8
DAMAN
100
AcDbCircle
 10
0.0
 20
1.249
 30
0.0
 40
0.3439999999999999
  0
CIRCLE
  5
5D5
330
5D2
100
AcDbEntity
  8
DAMAN
100
AcDbCircle
 10
0.0
 20
0.0
 30
0.0
 40
0.3439999999999999
  0
INSERT
  5
5D6
330
5D2
100
AcDbEntity
  8
DAMAN
100
AcDbBlockReference
  2
100CROSS
 10
0.0
 20
1.249
 30
0.0
 41
0.5625
 42
0.5625
  0
INSERT
  5
5D7
330
5D2
100
AcDbEntity
  8
DAMAN
100
AcDbBlockReference
  2
100CROSS
 10
0.0
 20
0.0
 30
0.0
 41
0.5625
 42
0.5625
  0
INSERT
  5
5D8
330
5D2
100
AcDbEntity
  8
DAMAN
100
AcDbBlockReference
  2
100CROSS
 10
-2.2505
 20
-0.0009999999999999
 30
0.0
 41
0.25
 42
0.25
  0
CIRCLE
  5
5D9
330
5D2
100
AcDbEntity
  8
DAMAN
100
AcDbCircle
 10
-2.188
 20
-2.032
 30
0.0
 40
0.1875
  0
CIRCLE
  5
5DA
330
5D2
100
AcDbEntity
  8
DAMAN
100
AcDbCircle
 10
-2.188
 20
-2.032
 30
0.0
 40
0.15625
  0
INSERT
  5
5DB
330
5D2
100
AcDbEntity
  8
DAMAN
100
AcDbBlockReference
  2
100CROSS
 10
-2.188
 20
-2.032
 30
0.0
 41
0.375
 42
0.375
  0
CIRCLE
  5
5DC
330
5D2
100
AcDbEntity
  8
DAMAN
100
AcDbCircle
 10
-2.250999999999999
 20
-0.0007500000000005
 30
0.0
 40
0.125
  0
CIRCLE
  5
5DD
330
5D2
100
AcDbEntity
  8
DAMAN
100
AcDbCircle
 10
-2.2505
 20
-0.0009999999999999
 30
0.0
 40
0.1055
  0
CIRCLE
  5
5DE
330
5D2
100
AcDbEntity
  8
DAMAN
100
AcDbCircle
 10
-1.625999999999999
 20
-0.6259999999999997
 30
0.0
 40
0.3439999999999999
  0
INSERT
  5
5DF
330
5D2
100
AcDbEntity
  8
DAMAN
100
AcDbBlockReference
  2
100CROSS
 10
-1.625999999999999
 20
-0.6259999999999997
 30
0.0
 41
0.5625
 42
0.5625
  0
CIRCLE
  5
5E0
330
5D2
100
AcDbEntity
  8
DAMAN
100
AcDbCircle
 10
-1.687999999999999
 20
-1.499999999999998
 30
0.0
 40
0.125
  0
INSERT
  5
5E1
330
5D2
100
AcDbEntity
  8
DAMAN
100
AcDbBlockReference
  2
100CROSS
 10
-1.687999999999999
 20
-1.499999999999998
 30
0.0
 41
0.375
 42
0.375
  0
TEXT
  5
5E2
330
5D2
100
AcDbEntity
  8
DAMAN
100
AcDbText
 10
-1.562999999999999
 20
-1.313249999999998
 30
0.0
 40
0.12
  1
Y
100
AcDbText
  0
TEXT
  5
5E3
330
5D2
100
AcDbEntity
  8
DAMAN
100
AcDbText
 10
-1.312999999999999
 20
-0.2194999999999998
 30
0.0
 40
0.12
  1
B
100
AcDbText
  0
CIRCLE
  5
5E4
330
5D2
100
AcDbEntity
  8
DAMAN
100
AcDbCircle
 10
-2.188
 20
1.249
 30
0.0
 40
0.0845
  0
CIRCLE
  5
5E5
330
5D2
100
AcDbEntity
  8
DAMAN
100
AcDbCircle
 10
-2.188
 20
1.968
 30
0.0
 40
0.1875
  0
CIRCLE
  5
5E6
330
5D2
100
AcDbEntity
  8
DAMAN
100
AcDbCircle
 10
-2.188
 20
1.968
 30
0.0
 40
0.15625
  0
INSERT
  5
5E7
330
5D2
100
AcDbEntity
  8
DAMAN
100
AcDbBlockReference
  2
100CROSS
 10
-2.188
 20
1.968
 30
0.0
 41
0.375
 42
0.375
  0
INSERT
  5
5E8
330
5D2
100
AcDbEntity
  8
DAMAN
100
AcDbBlockReference
  2
100CROSS
 10
-2.188
 20
1.249
 30
0.0
 41
0.25
 42
0.25
  0
CIRCLE
  5
5E9
330
5D2
100
AcDbEntity
  8
DAMAN
100
AcDbCircle
 10
-1.625999999999999
 20
0.6240000000000001
 30
0.0
 40
0.3439999999999999
  0
INSERT
  5
5EA
330
5D2
100
AcDbEntity
  8
DAMAN
100
AcDbBlockReference
  2
100CROSS
 10
-1.625999999999999
 20
0.6240000000000001
 30
0.0
 41
0.5625
 42
0.5625
  0
TEXT
  5
5EB
330
5D2
100
AcDbEntity
  8
DAMAN
100
AcDbText
 10
-1.344249999999999
 20
1.030499999999999
 30
0.0
 40
0.12
  1
A
100
AcDbText
  0
INSERT
  5
5EC
330
5D2
100
AcDbEntity
  8
DAMAN
100
AcDbBlockReference
  2
100CROSS
 10
0.562
 20
-2.032
 30
0.0
 41
0.375
 42
0.375
  0
CIRCLE
  5
5ED
330
5D2
100
AcDbEntity
  8
DAMAN
100
AcDbCircle
 10
0.562
 20
-2.032
 30
0.0
 40
0.1875
  0
CIRCLE
  5
5EE
330
5D2
100
AcDbEntity
  8
DAMAN
100
AcDbCircle
 10
0.562
 20
-2.032
 30
0.0
 40
0.15625
  0
INSERT
  5
5EF
330
5D2
100
AcDbEntity
  8
DAMAN
100
AcDbBlockReference
  2
100CROSS
 10
0.562
 20
-1.046999999999999
 30
0.0
 41
0.25
 42
0.25
  0
CIRCLE
  5
5F0
330
5D2
100
AcDbEntity
  8
DAMAN
100
AcDbCircle
 10
0.562
 20
-1.046999999999999
 30
0.0
 40
0.0845
  0
INSERT
  5
5F1
330
5D2
100
AcDbEntity
  8
DAMAN
100
AcDbBlockReference
  2
100CROSS
 10
0.562
 20
1.968
 30
0.0
 41
0.375
 42
0.375
  0
INSERT
  5
5F2
330
5D2
100
AcDbEntity
  8
DAMAN
100
AcDbBlockReference
  2
100CROSS
 10
0.6245
 20
0.6240000000000001
 30
0.0
 41
0.25
 42
0.25
  0
TEXT
  5
5F3
330
5D2
100
AcDbEntity
  8
DAMAN
100
AcDbText
 10
0.2182499999999998
 20
0.4680000000000002
 30
0.0
 40
0.12
  1
P
100
AcDbText
  0
CIRCLE
  5
5F4
330
5D2
100
AcDbEntity
  8
DAMAN
100
AcDbCircle
 10
0.6239999999999993
 20
0.6242499999999997
 30
0.0
 40
0.125
  0
CIRCLE
  5
5F5
330
5D2
100
AcDbEntity
  8
DAMAN
100
AcDbCircle
 10
0.6245
 20
0.6240000000000001
 30
0.0
 40
0.1055
  0
TEXT
  5
5F6
330
5D2
100
AcDbEntity
  8
DAMAN
100
AcDbText
 10
0.2494999999999998
 20
1.718
 30
0.0
 40
0.12
  1
T
100
AcDbText
  0
CIRCLE
  5
5F7
330
5D2
100
AcDbEntity
  8
DAMAN
100
AcDbCircle
 10
0.562
 20
1.968
 30
0.0
 40
0.1875
  0
CIRCLE
  5
5F8
330
5D2
100
AcDbEntity
  8
DAMAN
100
AcDbCircle
 10
0.562
 20
1.968
 30
0.0
 40
0.15625
  0
ENDBLK
  5
5F9
330
5D2
100
AcDbEntity
  8
0
100
AcDbBlockEnd
  0
BLOCK
  5
5FB
330
5FA
100
AcDbEntity
  8
0
100
AcDbBlockBegin
  2
600MKT
 70
     0
 10
0.0
 20
0.0
 30
0.0
  3
600MKT
  1

  0
LINE
  5
5FC
330
5FA
100
AcDbEntity
  8
DAMAN
100
AcDbLine
 10
-0.5625
 20
6.0
 30
0.0
 11
1.0625
 21
6.0
 31
0.0
  0
LINE
  5
5FD
330
5FA
100
AcDbEntity
  8
DAMAN
100
AcDbLine
 10
1.0625
 20
6.0
 30
0.0
 11
1.0625
 21
0.0
 31
0.0
  0
LINE
  5
5FE
330
5FA
100
AcDbEntity
  8
DAMAN
100
AcDbLine
 10
1.0625
 20
0.0
 30
0.0
 11
-0.5625
 21
0.0
 31
0.0
  0
LINE
  5
5FF
330
5FA
100
AcDbEntity
  8
DAMAN
100
AcDbLine
 10
-0.5625
 20
0.0
 30
0.0
 11
-0.5625
 21
6.0
 31
0.0
  0
LINE
  5
600
330
5FA
100
AcDbEntity
  8
DAMAN
100
AcDbLine
 10
-0.375
 20
0.0
 30
0.0
 11
-0.375
 21
6.0
 31
0.0
  0
LINE
  5
601
330
5FA
100
AcDbEntity
  8
DAMAN
100
AcDbLine
 10
-0.375
 20
1.09375
 30
0.0
 11
-0.3125
 21
1.09375
 31
0.0
  0
LINE
  5
602
330
5FA
100
AcDbEntity
  8
DAMAN
100
AcDbLine
 10
-0.3125
 20
1.09375
 30
0.0
 11
-0.3125
 21
0.03125
 31
0.0
  0
LINE
  5
603
330
5FA
100
AcDbEntity
  8
DAMAN
100
AcDbLine
 10
-0.3125
 20
0.03125
 30
0.0
 11
-0.375
 21
0.03125
 31
0.0
  0
LINE
  5
604
330
5FA
100
AcDbEntity
  8
DAMAN
100
AcDbLine
 10
-0.3125
 20
0.9955127018922189
 30
0.0
 11
-0.0428346394726904
 21
0.9955127018922189
 31
0.0
  0
LINE
  5
605
330
5FA
100
AcDbEntity
  8
DAMAN
100
AcDbLine
 10
-0.0000000000000004
 20
0.921320930001624
 30
0.0
 11
0.0000000000000004
 21
0.2036790699983779
 31
0.0
  0
LINE
  5
606
330
5FA
100
AcDbEntity
  8
DAMAN
100
AcDbLine
 10
-0.0428346394726904
 20
0.1294872981077813
 30
0.0
 11
-0.3125
 21
0.1294872981077813
 31
0.0
  0
LINE
  5
607
330
5FA
100
AcDbEntity
  8
DAMAN
100
AcDbLine
 10
-0.3125
 20
0.7790063509461103
 30
0.0
 11
-0.0625000000000462
 21
0.7790063509461103
 31
0.0
  0
LINE
  5
608
330
5FA
100
AcDbEntity
  8
DAMAN
100
AcDbLine
 10
-0.3125
 20
0.3459936490538915
 30
0.0
 11
-0.0624999999999894
 21
0.3459936490538915
 31
0.0
  0
ARC
  5
609
330
5FA
100
AcDbEntity
  8
DAMAN
100
AcDbCircle
 10
-0.4062499999999966
 20
0.5625000000000018
 30
0.0
 40
0.4062499999999964
100
AcDbArc
 50
327.7957724960277
 51
32.20422750397212
  0
ARC
  5
60A
330
5FA
100
AcDbEntity
  8
DAMAN
100
AcDbCircle
 10
-0.1250000000000004
 20
0.2377404735808355
 30
0.0
 40
0.1250000000000008
100
AcDbArc
 50
300.0000000000003
 51
60.00000000000041
  0
ARC
  5
60B
330
5FA
100
AcDbEntity
  8
DAMAN
100
AcDbCircle
 10
-0.1250000000000004
 20
0.8872595264191645
 30
0.0
 40
0.1250000000000008
100
AcDbArc
 50
299.9999999999996
 51
59.99999999999973
  0
LINE
  5
60C
330
5FA
100
AcDbEntity
  8
DAMAN
100
AcDbLine
 10
-0.0428346394726904
 20
0.9955127018922189
 30
0.0
 11
-0.0000000000000004
 21
0.921320930001624
 31
0.0
  0
LINE
  5
60D
330
5FA
100
AcDbEntity
  8
DAMAN
100
AcDbLine
 10
-0.0428346394726904
 20
0.1294872981077813
 30
0.0
 11
0.0000000000000004
 21
0.2036790699983779
 31
0.0
  0
LINE
  5
60E
330
5FA
100
AcDbEntity
  8
DAMAN
100
AcDbLine
 10
-0.5625
 20
0.8125
 30
0.0
 11
-1.28125
 21
0.8125
 31
0.0
  0
LINE
  5
60F
330
5FA
100
AcDbEntity
  8
DAMAN
100
AcDbLine
 10
-1.28125
 20
0.8125
 30
0.0
 11
-1.3125
 21
0.78125
 31
0.0
  0
LINE
  5
610
330
5FA
100
AcDbEntity
  8
DAMAN
100
AcDbLine
 10
-1.3125
 20
0.78125
 30
0.0
 11
-1.3125
 21
0.34375
 31
0.0
  0
LINE
  5
611
330
5FA
100
AcDbEntity
  8
DAMAN
100
AcDbLine
 10
-1.3125
 20
0.34375
 30
0.0
 11
-1.28125
 21
0.3125
 31
0.0
  0
LINE
  5
612
330
5FA
100
AcDbEntity
  8
DAMAN
100
AcDbLine
 10
-1.28125
 20
0.3125
 30
0.0
 11
-0.5625
 21
0.3125
 31
0.0
  0
LINE
  5
613
330
5FA
100
AcDbEntity
  8
DAMAN
100
AcDbLine
 10
-0.5625
 20
0.78125
 30
0.0
 11
-1.3125
 21
0.78125
 31
0.0
  0
LINE
  5
614
330
5FA
100
AcDbEntity
  8
DAMAN
100
AcDbLine
 10
-0.5625
 20
0.34375
 30
0.0
 11
-1.3125
 21
0.34375
 31
0.0
  0
LINE
  5
615
330
5FA
100
AcDbEntity
  8
DAMAN
100
AcDbLine
 10
0.125
 20
0.5625
 30
0.0
 11
-1.40625
 21
0.5625
 31
0.0
  0
LINE
  5
616
330
5FA
100
AcDbEntity
  8
DAMAN
100
AcDbLine
 10
0.125
 20
5.4375
 30
0.0
 11
-1.40625
 21
5.4375
 31
0.0
  0
LINE
  5
617
330
5FA
100
AcDbEntity
  8
DAMAN
100
AcDbLine
 10
-0.5625
 20
5.21875
 30
0.0
 11
-1.3125
 21
5.21875
 31
0.0
  0
LINE
  5
618
330
5FA
100
AcDbEntity
  8
DAMAN
100
AcDbLine
 10
-1.28125
 20
5.1875
 30
0.0
 11
-0.5625
 21
5.1875
 31
0.0
  0
LINE
  5
619
330
5FA
100
AcDbEntity
  8
DAMAN
100
AcDbLine
 10
-0.5625
 20
5.65625
 30
0.0
 11
-1.3125
 21
5.65625
 31
0.0
  0
LINE
  5
61A
330
5FA
100
AcDbEntity
  8
DAMAN
100
AcDbLine
 10
-0.5625
 20
5.6875
 30
0.0
 11
-1.28125
 21
5.6875
 31
0.0
  0
LINE
  5
61B
330
5FA
100
AcDbEntity
  8
DAMAN
100
AcDbLine
 10
-1.3125
 20
5.65625
 30
0.0
 11
-1.3125
 21
5.21875
 31
0.0
  0
LINE
  5
61C
330
5FA
100
AcDbEntity
  8
DAMAN
100
AcDbLine
 10
-1.28125
 20
5.6875
 30
0.0
 11
-1.3125
 21
5.65625
 31
0.0
  0
LINE
  5
61D
330
5FA
100
AcDbEntity
  8
DAMAN
100
AcDbLine
 10
-1.3125
 20
5.21875
 30
0.0
 11
-1.28125
 21
5.1875
 31
0.0
  0
ARC
  5
61E
330
5FA
100
AcDbEntity
  8
DAMAN
100
AcDbCircle
 10
-0.4062499999999966
 20
5.4375
 30
0.0
 40
0.4062499999999964
100
AcDbArc
 50
327.7957724960277
 51
32.20422750397212
  0
LINE
  5
61F
330
5FA
100
AcDbEntity
  8
DAMAN
100
AcDbLine
 10
-0.3125
 20
5.96875
 30
0.0
 11
-0.3125
 21
4.90625
 31
0.0
  0
LINE
  5
620
330
5FA
100
AcDbEntity
  8
DAMAN
100
AcDbLine
 10
-0.0000000000000004
 20
5.796320930001622
 30
0.0
 11
0.0000000000000004
 21
5.078679069998377
 31
0.0
  0
ARC
  5
621
330
5FA
100
AcDbEntity
  8
DAMAN
100
AcDbCircle
 10
-0.1250000000000004
 20
5.762259526419163
 30
0.0
 40
0.1250000000000008
100
AcDbArc
 50
299.9999999999996
 51
59.99999999999973
  0
LINE
  5
622
330
5FA
100
AcDbEntity
  8
DAMAN
100
AcDbLine
 10
-0.0428346394726904
 20
5.870512701892217
 30
0.0
 11
-0.0000000000000004
 21
5.796320930001622
 31
0.0
  0
LINE
  5
623
330
5FA
100
AcDbEntity
  8
DAMAN
100
AcDbLine
 10
-0.3125
 20
5.870512701892217
 30
0.0
 11
-0.0428346394726904
 21
5.870512701892217
 31
0.0
  0
LINE
  5
624
330
5FA
100
AcDbEntity
  8
DAMAN
100
AcDbLine
 10
-0.375
 20
5.96875
 30
0.0
 11
-0.3125
 21
5.96875
 31
0.0
  0
LINE
  5
625
330
5FA
100
AcDbEntity
  8
DAMAN
100
AcDbLine
 10
-0.3125
 20
5.65400635094611
 30
0.0
 11
-0.0625000000000462
 21
5.65400635094611
 31
0.0
  0
ARC
  5
626
330
5FA
100
AcDbEntity
  8
DAMAN
100
AcDbCircle
 10
-0.1250000000000004
 20
5.112740473580834
 30
0.0
 40
0.1250000000000008
100
AcDbArc
 50
300.0000000000003
 51
60.00000000000041
  0
LINE
  5
627
330
5FA
100
AcDbEntity
  8
DAMAN
100
AcDbLine
 10
-0.3125
 20
5.22099364905389
 30
0.0
 11
-0.0624999999999894
 21
5.22099364905389
 31
0.0
  0
LINE
  5
628
330
5FA
100
AcDbEntity
  8
DAMAN
100
AcDbLine
 10
-0.0428346394726904
 20
5.00448729810778
 30
0.0
 11
-0.3125
 21
5.00448729810778
 31
0.0
  0
LINE
  5
629
330
5FA
100
AcDbEntity
  8
DAMAN
100
AcDbLine
 10
-0.3125
 20
4.90625
 30
0.0
 11
-0.375
 21
4.90625
 31
0.0
  0
LINE
  5
62A
330
5FA
100
AcDbEntity
  8
DAMAN
100
AcDbLine
 10
-0.0428346394726904
 20
5.00448729810778
 30
0.0
 11
0.0000000000000004
 21
5.078679069998377
 31
0.0
  0
CIRCLE
  5
62B
330
5FA
100
AcDbEntity
  8
DAMAN
100
AcDbCircle
 10
0.5
 20
5.4375
 30
0.0
 40
0.53125
  0
CIRCLE
  5
62C
330
5FA
100
AcDbEntity
  8
DAMAN
100
AcDbCircle
 10
0.5
 20
0.5625
 30
0.0
 40
0.53125
  0
LWPOLYLINE
  5
62D
330
5FA
100
AcDbEntity
  8
DAMAN
100
AcDbPolyline
 90
        6
 70
     1
 43
0.0
 10
0.875
 20
5.654006350946108
 10
0.5
 20
5.870512701892218
 10
0.125
 20
5.654006350946108
 10
0.125
 20
5.220993649053889
 10
0.4999999999999997
 20
5.00448729810778
 10
0.8749999999999998
 20
5.220993649053888
  0
CIRCLE
  5
635
330
5FA
100
AcDbEntity
  8
DAMAN
100
AcDbCircle
 10
0.5
 20
5.4375
 30
0.0
 40
0.375
  0
CIRCLE
  5
636
330
5FA
100
AcDbEntity
  8
DAMAN
100
AcDbCircle
 10
0.5
 20
0.5625
 30
0.0
 40
0.375
  0
LWPOLYLINE
  5
637
330
5FA
100
AcDbEntity
  8
DAMAN
100
AcDbPolyline
 90
        6
 70
     1
 43
0.0
 10
0.875
 20
0.7790063509461094
 10
0.5
 20
0.9955127018922196
 10
0.125
 20
0.7790063509461094
 10
0.125
 20
0.3459936490538906
 10
0.4999999999999997
 20
0.1294872981077804
 10
0.8749999999999998
 20
0.3459936490538897
  0
ENDBLK
  5
63F
330
5FA
100
AcDbEntity
  8
0
100
AcDbBlockEnd
  0
BLOCK
  5
641
330
640
100
AcDbEntity
  8
0
100
AcDbBlockBegin
  2
08SAET
 70
     0
 10
0.0
 20
0.0
 30
0.0
  3
08SAET
  1

  0
CIRCLE
  5
642
330
640
100
AcDbEntity
  8
DAMAN
100
AcDbCircle
 10
0.0
 20
0.0
 30
0.0
 40
0.375
  0
CIRCLE
  5
643
330
640
100
AcDbEntity
  8
DAMAN
100
AcDbCircle
 10
-0.0000000000000391
 20
-0.00000000000004
 30
0.0
 40
0.3125
  0
CIRCLE
  5
644
330
640
100
AcDbEntity
  8
DAMAN
  6
HIDDEN
100
AcDbCircle
 10
-0.0000000000000391
 20
-0.00000000000004
 30
0.0
 40
0.3439999999999999
  0
INSERT
  5
645
330
640
100
AcDbEntity
  8
DAMAN
100
AcDbBlockReference
  2
100CROSS
 10
0.0
 20
0.0
 30
0.0
 41
0.88
 42
0.88
  0
CIRCLE
  5
646
330
640
100
AcDbEntity
  8
DAMAN
100
AcDbCircle
 10
0.0
 20
0.0
 30
0.0
 40
0.594
  0
ENDBLK
  5
647
330
640
100
AcDbEntity
  8
0
100
AcDbBlockEnd
  0
BLOCK
  5
649
330
648
100
AcDbEntity
  8
0
100
AcDbBlockBegin
  2
600MKST
 70
     0
 10
0.0
 20
0.0
 30
0.0
  3
600MKST
  1

  0
LINE
  5
64A
330
648
100
AcDbEntity
  8
DAMAN
100
AcDbLine
 10
-1.625
 20
-0.5625
 30
0.0
 11
-1.625
 21
-0.375
 31
0.0
  0
LINE
  5
64B
330
648
100
AcDbEntity
  8
DAMAN
100
AcDbLine
 10
-1.625
 20
-0.375
 30
0.0
 11
-0.4375
 21
-0.375
 31
0.0
  0
LINE
  5
64C
330
648
100
AcDbEntity
  8
DAMAN
100
AcDbLine
 10
-0.1875
 20
-0.125
 30
0.0
 11
-0.1875
 21
1.0625
 31
0.0
  0
LINE
  5
64D
330
648
100
AcDbEntity
  8
DAMAN
100
AcDbLine
 10
-0.1875
 20
1.0625
 30
0.0
 11
0.0
 21
1.0625
 31
0.0
  0
LINE
  5
64E
330
648
100
AcDbEntity
  8
DAMAN
100
AcDbLine
 10
0.0
 20
1.0625
 30
0.0
 11
0.0
 21
-0.125
 31
0.0
  0
LINE
  5
64F
330
648
100
AcDbEntity
  8
DAMAN
100
AcDbLine
 10
-0.4375
 20
-0.5625
 30
0.0
 11
-1.625
 21
-0.5625
 31
0.0
  0
ARC
  5
650
330
648
100
AcDbEntity
  8
DAMAN
100
AcDbCircle
 10
-0.4375
 20
-0.125
 30
0.0
 40
0.25
100
AcDbArc
 50
270.0
 51
0.0
  0
ARC
  5
651
330
648
100
AcDbEntity
  8
DAMAN
100
AcDbCircle
 10
-0.4375
 20
-0.125
 30
0.0
 40
0.4375
100
AcDbArc
 50
270.0
 51
0.0
  0
LINE
  5
652
330
648
100
AcDbEntity
  8
DAMAN
100
AcDbLine
 10
-1.59375
 20
-0.375
 30
0.0
 11
-1.59375
 21
-0.3125
 31
0.0
  0
LINE
  5
653
330
648
100
AcDbEntity
  8
DAMAN
100
AcDbLine
 10
-1.59375
 20
-0.3125
 30
0.0
 11
-0.53125
 21
-0.3125
 31
0.0
  0
LINE
  5
654
330
648
100
AcDbEntity
  8
DAMAN
100
AcDbLine
 10
-0.53125
 20
-0.3125
 30
0.0
 11
-0.53125
 21
-0.375
 31
0.0
  0
LINE
  5
655
330
648
100
AcDbEntity
  8
DAMAN
100
AcDbLine
 10
-1.495512701892218
 20
-0.3125
 30
0.0
 11
-1.495512701892218
 21
-0.0428346394726904
 31
0.0
  0
LINE
  5
656
330
648
100
AcDbEntity
  8
DAMAN
100
AcDbLine
 10
-1.421320930001622
 20
-0.0000000000000004
 30
0.0
 11
-0.7036790699983779
 21
0.0000000000000004
 31
0.0
  0
LINE
  5
657
330
648
100
AcDbEntity
  8
DAMAN
100
AcDbLine
 10
-0.6294872981077813
 20
-0.0428346394726904
 30
0.0
 11
-0.6294872981077813
 21
-0.3125
 31
0.0
  0
LINE
  5
658
330
648
100
AcDbEntity
  8
DAMAN
100
AcDbLine
 10
-1.27900635094611
 20
-0.3125
 30
0.0
 11
-1.27900635094611
 21
-0.0625000000000462
 31
0.0
  0
LINE
  5
659
330
648
100
AcDbEntity
  8
DAMAN
100
AcDbLine
 10
-0.8459936490538915
 20
-0.3125
 30
0.0
 11
-0.8459936490538915
 21
-0.0624999999999894
 31
0.0
  0
ARC
  5
65A
330
648
100
AcDbEntity
  8
DAMAN
100
AcDbCircle
 10
-1.062500000000001
 20
-0.4062499999999966
 30
0.0
 40
0.4062499999999964
100
AcDbArc
 50
57.79577249602763
 51
122.2042275039721
  0
ARC
  5
65B
330
648
100
AcDbEntity
  8
DAMAN
100
AcDbCircle
 10
-0.7377404735808355
 20
-0.1250000000000004
 30
0.0
 40
0.1250000000000008
100
AcDbArc
 50
30.00000000000031
 51
150.0000000000003
  0
ARC
  5
65C
330
648
100
AcDbEntity
  8
DAMAN
100
AcDbCircle
 10
-1.387259526419164
 20
-0.1250000000000004
 30
0.0
 40
0.1250000000000008
100
AcDbArc
 50
29.9999999999996
 51
149.9999999999997
  0
LINE
  5
65D
330
648
100
AcDbEntity
  8
DAMAN
100
AcDbLine
 10
-1.495512701892218
 20
-0.0428346394726904
 30
0.0
 11
-1.421320930001622
 21
-0.0000000000000004
 31
0.0
  0
LINE
  5
65E
330
648
100
AcDbEntity
  8
DAMAN
100
AcDbLine
 10
-0.6294872981077813
 20
-0.0428346394726904
 30
0.0
 11
-0.7036790699983779
 21
0.0000000000000004
 31
0.0
  0
LINE
  5
65F
330
648
100
AcDbEntity
  8
DAMAN
100
AcDbLine
 10
-1.3125
 20
-0.5625
 30
0.0
 11
-1.3125
 21
-1.28125
 31
0.0
  0
LINE
  5
660
330
648
100
AcDbEntity
  8
DAMAN
100
AcDbLine
 10
-1.3125
 20
-1.28125
 30
0.0
 11
-1.28125
 21
-1.3125
 31
0.0
  0
LINE
  5
661
330
648
100
AcDbEntity
  8
DAMAN
100
AcDbLine
 10
-1.28125
 20
-1.3125
 30
0.0
 11
-0.84375
 21
-1.3125
 31
0.0
  0
LINE
  5
662
330
648
100
AcDbEntity
  8
DAMAN
100
AcDbLine
 10
-0.84375
 20
-1.3125
 30
0.0
 11
-0.8125
 21
-1.28125
 31
0.0
  0
LINE
  5
663
330
648
100
AcDbEntity
  8
DAMAN
100
AcDbLine
 10
-0.8125
 20
-1.28125
 30
0.0
 11
-0.8125
 21
-0.5625
 31
0.0
  0
LINE
  5
664
330
648
100
AcDbEntity
  8
DAMAN
100
AcDbLine
 10
-1.28125
 20
-0.5625
 30
0.0
 11
-1.28125
 21
-1.3125
 31
0.0
  0
LINE
  5
665
330
648
100
AcDbEntity
  8
DAMAN
100
AcDbLine
 10
-0.84375
 20
-0.5625
 30
0.0
 11
-0.84375
 21
-1.3125
 31
0.0
  0
LINE
  5
666
330
648
100
AcDbEntity
  8
DAMAN
100
AcDbLine
 10
-1.0625
 20
0.125
 30
0.0
 11
-1.0625
 21
-1.40625
 31
0.0
  0
LINE
  5
667
330
648
100
AcDbEntity
  8
DAMAN
100
AcDbLine
 10
-0.5196653605273092
 20
0.9330127018922189
 30
0.0
 11
-0.5625
 21
0.8588209300016222
 31
0.0
  0
LINE
  5
668
330
648
100
AcDbEntity
  8
DAMAN
100
AcDbLine
 10
-0.5196653605273092
 20
0.0669872981077813
 30
0.0
 11
-0.5624999999999984
 21
0.1411790699983761
 31
0.0
  0
ARC
  5
669
330
648
100
AcDbEntity
  8
DAMAN
100
AcDbCircle
 10
-0.4374999999999984
 20
0.1752404735808355
 30
0.0
 40
0.1250000000000008
100
AcDbArc
 50
119.9999999999996
 51
239.9999999999996
  0
ARC
  5
66A
330
648
100
AcDbEntity
  8
DAMAN
100
AcDbCircle
 10
-0.4374999999999984
 20
0.8247595264191645
 30
0.0
 40
0.1250000000000008
100
AcDbArc
 50
120.0000000000003
 51
240.0000000000004
  0
ARC
  5
66B
330
648
100
AcDbEntity
  8
DAMAN
100
AcDbCircle
 10
-0.1562500000000035
 20
0.4999999999999984
 30
0.0
 40
0.4062499999999964
100
AcDbArc
 50
147.7957724960276
 51
212.204227503972
  0
LINE
  5
66C
330
648
100
AcDbEntity
  8
DAMAN
100
AcDbLine
 10
-0.25
 20
0.7165063509461085
 30
0.0
 11
-0.5000000000000107
 21
0.7165063509461085
 31
0.0
  0
LINE
  5
66D
330
648
100
AcDbEntity
  8
DAMAN
100
AcDbLine
 10
-0.25
 20
0.2834936490538897
 30
0.0
 11
-0.4999999999999539
 21
0.2834936490538897
 31
0.0
  0
LINE
  5
66E
330
648
100
AcDbEntity
  8
DAMAN
100
AcDbLine
 10
-0.5196653605273092
 20
0.9330127018922189
 30
0.0
 11
-0.25
 21
0.9330127018922189
 31
0.0
  0
LINE
  5
66F
330
648
100
AcDbEntity
  8
DAMAN
100
AcDbLine
 10
-0.5624999999999984
 20
0.1411790699983761
 30
0.0
 11
-0.5625
 21
0.8588209300016222
 31
0.0
  0
LINE
  5
670
330
648
100
AcDbEntity
  8
DAMAN
100
AcDbLine
 10
-0.25
 20
0.0669872981077813
 30
0.0
 11
-0.5196653605273092
 21
0.0669872981077813
 31
0.0
  0
LINE
  5
671
330
648
100
AcDbEntity
  8
DAMAN
100
AcDbLine
 10
-0.25
 20
1.03125
 30
0.0
 11
-0.1875
 21
1.03125
 31
0.0
  0
LINE
  5
672
330
648
100
AcDbEntity
  8
DAMAN
100
AcDbLine
 10
-0.25
 20
-0.03125
 30
0.0
 11
-0.25
 21
1.03125
 31
0.0
  0
LINE
  5
673
330
648
100
AcDbEntity
  8
DAMAN
100
AcDbLine
 10
-0.1875
 20
-0.03125
 30
0.0
 11
-0.25
 21
-0.03125
 31
0.0
  0
ENDBLK
  5
674
330
648
100
AcDbEntity
  8
0
100
AcDbBlockEnd
  0
BLOCK
  5
676
330
675
100
AcDbEntity
  8
0
100
AcDbBlockBegin
  2
125NPTFT
 70
     0
 10
0.0
 20
0.0
 30
0.0
  3
125NPTFT
  1

  0
CIRCLE
  5
677
330
675
100
AcDbEntity
  8
DAMAN
100
AcDbCircle
 10
0.00000000000004
 20
0.0000000000003997
 30
0.0
 40
0.8440000000000001
  0
CIRCLE
  5
678
330
675
100
AcDbEntity
  8
DAMAN
100
AcDbCircle
 10
0.00000000000004
 20
0.0000000000003997
 30
0.0
 40
0.7265000000000002
  0
INSERT
  5
679
330
675
100
AcDbEntity
  8
DAMAN
100
AcDbBlockReference
  2
100CROSS
 10
0.00000000000004
 20
0.0000000000003997
 30
0.0
 41
1.399999999999999
 42
1.399999999999999
  0
CIRCLE
  5
67A
330
675
100
AcDbEntity
  8
DAMAN
100
AcDbCircle
 10
0.0
 20
0.0
 30
0.0
 40
0.78125
  0
ENDBLK
  5
67B
330
675
100
AcDbEntity
  8
0
100
AcDbBlockEnd
  0
BLOCK
  5
67D
330
67C
100
AcDbEntity
  8
0
100
AcDbBlockBegin
  2
050NPTFT
 70
     0
 10
0.0
 20
0.0
 30
0.0
  3
050NPTFT
  1

  0
INSERT
  5
67F
330
67C
100
AcDbEntity
  8
DAMAN
100
AcDbBlockReference
  2
500NPTFT
 10
0.0
 20
0.0
 30
0.0
  0
ENDBLK
  5
680
330
67C
100
AcDbEntity
  8
0
100
AcDbBlockEnd
  0
BLOCK
  5
681
330
67E
100
AcDbEntity
  8
0
100
AcDbBlockBegin
  2
500NPTFT
 70
     0
 10
0.0
 20
0.0
 30
0.0
  3
500NPTFT
  1

  0
INSERT
  5
682
330
67E
100
AcDbEntity
  8
DAMAN
 62
     5
100
AcDbBlockReference
  2
100CROSS
 10
0.0
 20
0.0
 30
0.0
 41
0.84
 42
0.84
  0
CIRCLE
  5
683
330
67E
100
AcDbEntity
  8
DAMAN
 62
     5
100
AcDbCircle
 10
-0.0000000000003979
 20
-0.0000000000000497
 30
0.0
 40
0.3846266739788397
  0
CIRCLE
  5
684
330
67E
100
AcDbEntity
  8
DAMAN
 62
     5
100
AcDbCircle
 10
0.0
 20
0.0
 30
0.0
 40
0.3439999999999999
  0
CIRCLE
  5
685
330
67E
100
AcDbEntity
  8
DAMAN
 62
     5
100
AcDbCircle
 10
0.0
 20
0.0
 30
0.0
 40
0.4295000000000001
  0
ENDBLK
  5
686
330
67E
100
AcDbEntity
  8
0
100
AcDbBlockEnd
  0
BLOCK
  5
688
330
687
100
AcDbEntity
  8
0
100
AcDbBlockBegin
  2
20SAET
 70
     0
 10
0.0
 20
0.0
 30
0.0
  3
20SAET
  1

  0
INSERT
  5
689
330
687
100
AcDbEntity
  8
DAMAN
100
AcDbBlockReference
  2
100CROSS
 10
0.0
 20
0.0
 30
0.0
 41
1.7
 42
1.7
  0
CIRCLE
  5
68A
330
687
100
AcDbEntity
  8
DAMAN
100
AcDbCircle
 10
0.0
 20
0.0
 30
0.0
 40
0.8125
  0
CIRCLE
  5
68B
330
687
100
AcDbEntity
  8
DAMAN
100
AcDbCircle
 10
0.0
 20
0.0
 30
0.0
 40
1.125
  0
CIRCLE
  5
68C
330
687
100
AcDbEntity
  8
DAMAN
100
AcDbCircle
 10
0.0
 20
0.0
 30
0.0
 40
0.75
  0
ENDBLK
  5
68D
330
687
100
AcDbEntity
  8
0
100
AcDbBlockEnd
  0
BLOCK
  5
68F
330
68E
100
AcDbEntity
  8
0
100
AcDbBlockBegin
  2
125BSPPT
 70
     0
 10
0.0
 20
0.0
 30
0.0
  3
125BSPPT
  1

  0
CIRCLE
  5
690
330
68E
100
AcDbEntity
  8
DAMAN
100
AcDbCircle
 10
0.0
 20
0.0
 30
0.0
 40
0.703
  0
CIRCLE
  5
691
330
68E
100
AcDbEntity
  8
DAMAN
100
AcDbCircle
 10
0.0
 20
0.0
 30
0.0
 40
0.7700000000000001
  0
CIRCLE
  5
692
330
68E
100
AcDbEntity
  8
DAMAN
  6
HIDDEN
100
AcDbCircle
 10
0.0
 20
0.0
 30
0.0
 40
0.825
  0
CIRCLE
  5
693
330
68E
100
AcDbEntity
  8
DAMAN
100
AcDbCircle
 10
0.0
 20
0.0
 30
0.0
 40
1.125
  0
INSERT
  5
694
330
68E
100
AcDbEntity
  8
DAMAN
100
AcDbBlockReference
  2
100CROSS
 10
0.0000000000000586
 20
0.0000000000005995
 30
0.0
 41
2.099999999999999
 42
2.099999999999999
  0
ENDBLK
  5
695
330
68E
100
AcDbEntity
  8
0
100
AcDbBlockEnd
  0
BLOCK
  5
697
330
696
100
AcDbEntity
  8
0
100
AcDbBlockBegin
  2
0500BSPPT
 70
     0
 10
0.0
 20
0.0
 30
0.0
  3
0500BSPPT
  1

  0
CIRCLE
  5
698
330
696
100
AcDbEntity
  8
DAMAN
100
AcDbCircle
 10
-0.0000000000000391
 20
-0.0000000000000391
 30
0.0
 40
0.3795
  0
INSERT
  5
699
330
696
100
AcDbEntity
  8
DAMAN
100
AcDbBlockReference
  2
100CROSS
 10
-0.0000000000000391
 20
-0.0000000000000391
 30
0.0
 41
1.199999999999999
 42
1.199999999999999
  0
CIRCLE
  5
69A
330
696
100
AcDbEntity
  8
DAMAN
100
AcDbCircle
 10
-0.0000000000000391
 20
-0.0000000000000391
 30
0.0
 40
0.605
  0
CIRCLE
  5
69B
330
696
100
AcDbEntity
  8
DAMAN
  6
HIDDEN
100
AcDbCircle
 10
-0.0000000000000391
 20
-0.0000000000000391
 30
0.0
 40
0.4125
  0
CIRCLE
  5
69C
330
696
100
AcDbEntity
  8
DAMAN
100
AcDbCircle
 10
-0.0000000000000142
 20
-0.000000000000016
 30
0.0
 40
0.4175
  0
ENDBLK
  5
69D
330
696
100
AcDbEntity
  8
0
100
AcDbBlockEnd
  0
BLOCK
  5
69F
330
69E
100
AcDbEntity
  8
0
100
AcDbBlockBegin
  2
M42T
 70
     0
 10
0.0
 20
0.0
 30
0.0
  3
M42T
  1

  0
CIRCLE
  5
6A0
330
69E
100
AcDbEntity
  8
DAMAN
100
AcDbCircle
 10
0.0
 20
0.0
 30
0.0
 40
1.179999999999999
  0
CIRCLE
  5
6A1
330
69E
100
AcDbEntity
  8
DAMAN
100
AcDbCircle
 10
0.0
 20
0.0
 30
0.0
 40
1.023499999999998
  0
CIRCLE
  5
6A2
330
69E
100
AcDbEntity
  8
DAMAN
100
AcDbCircle
 10
0.0
 20
0.0
 30
0.0
 40
0.8740000000000001
  0
CIRCLE
  5
6A3
330
69E
100
AcDbEntity
  8
DAMAN
  6
HIDDEN
100
AcDbCircle
 10
0.0
 20
0.0
 30
0.0
 40
0.8265
  0
CIRCLE
  5
6A4
330
69E
100
AcDbEntity
  8
DAMAN
100
AcDbCircle
 10
0.0
 20
0.0
 30
0.0
 40
0.7900000000000002
  0
CIRCLE
  5
6A5
330
69E
100
AcDbEntity
  8
DAMAN
100
AcDbCircle
 10
0.0
 20
0.0
 30
0.0
 40
0.625
  0
INSERT
  5
6A6
330
69E
100
AcDbEntity
  8
DAMAN
100
AcDbBlockReference
  2
100CROSS
 10
0.0
 20
0.0
 30
0.0
 41
1.75
 42
1.75
  0
ENDBLK
  5
6A7
330
69E
100
AcDbEntity
  8
0
100
AcDbBlockEnd
  0
ENDSEC
  0
SECTION
  2
ENTITIES
  0
LINE
  5
6A9
330
589
100
AcDbEntity
  8
DAMAN
  6
HIDDEN
100
AcDbLine
 10
8.565223273251429
 20
11.78818874420988
 30
0.0
 11
8.565223273251429
 21
18.03818874420987
 31
0.0
  0
LINE
  5
6AA
330
589
100
AcDbEntity
  8
DAMAN
100
AcDbLine
 10
8.565223273251429
 20
18.03818874420987
 30
0.0
 11
13.31522327325142
 21
18.03818874420987
 31
0.0
  0
LINE
  5
6AB
330
589
100
AcDbEntity
  8
DAMAN
100
AcDbLine
 10
13.31522327325142
 20
11.78818874420988
 30
0.0
 11
13.31522327325142
 21
18.03818874420987
 31
0.0
  0
LINE
  5
6AC
330
589
100
AcDbEntity
  8
DAMAN
100
AcDbLine
 10
8.565223273251429
 20
11.78818874420988
 30
0.0
 11
13.31522327325142
 21
11.78818874420988
 31
0.0
  0
LINE
  5
6AD
330
589
100
AcDbEntity
  8
DAMAN
100
AcDbLine
 10
15.94022327325142
 20
11.78818874420988
 30
0.0
 11
15.94022327325142
 21
18.03818874420987
 31
0.0
  0
LINE
  5
6AE
330
589
100
AcDbEntity
  8
DAMAN
100
AcDbLine
 10
21.56522327325143
 20
11.78818874420988
 30
0.0
 11
21.56522327325143
 21
18.03818874420987
 31
0.0
  0
LINE
  5
6AF
330
589
100
AcDbEntity
  8
DAMAN
100
AcDbLine
 10
15.94022327325142
 20
18.03818874420987
 30
0.0
 11
21.56522327325143
 21
18.03818874420987
 31
0.0
  0
LINE
  5
6B0
330
589
100
AcDbEntity
  8
DAMAN
100
AcDbLine
 10
15.94022327325142
 20
11.78818874420988
 30
0.0
 11
21.56522327325143
 21
11.78818874420988
 31
0.0
  0
INSERT
  5
6B1
330
589
100
AcDbEntity
  8
DAMAN
100
AcDbBlockReference
  2
600MKT
 10
8.567723273251431
 20
11.91318874420988
 30
0.0
  0
INSERT
  5
6B2
330
589
100
AcDbEntity
  8
DAMAN
100
AcDbBlockReference
  2
600MKST
 10
15.94022327325142
 20
6.038188744209881
 30
0.0
  0
LINE
  5
6B3
330
589
100
AcDbEntity
  8
DAMAN
100
AcDbLine
 10
15.94022327325142
 20
11.91318874420988
 30
0.0
 11
14.31522327325142
 21
11.91318874420988
 31
0.0
  0
LINE
  5
6B4
330
589
100
AcDbEntity
  8
DAMAN
100
AcDbLine
 10
14.31522327325142
 20
11.91318874420988
 30
0.0
 11
14.31522327325142
 21
17.91318874420988
 31
0.0
  0
LINE
  5
6B5
330
589
100
AcDbEntity
  8
DAMAN
100
AcDbLine
 10
14.31522327325142
 20
17.91318874420988
 30
0.0
 11
15.94022327325142
 21
17.91318874420988
 31
0.0
  0
LINE
  5
6B6
330
589
100
AcDbEntity
  8
DAMAN
100
AcDbLine
 10
15.94022327325142
 20
17.91318874420988
 30
0.0
 11
15.94022327325142
 21
11.91318874420988
 31
0.0
  0
LINE
  5
6B7
330
589
100
AcDbEntity
  8
DAMAN
100
AcDbLine
 10
15.75272327325142
 20
17.91318874420988
 30
0.0
 11
15.75272327325142
 21
11.91318874420988
 31
0.0
  0
LINE
  5
6B8
330
589
100
AcDbEntity
  8
DAMAN
100
AcDbLine
 10
15.75272327325142
 20
16.81943874420988
 30
0.0
 11
15.69022327325142
 21
16.81943874420988
 31
0.0
  0
LINE
  5
6B9
330
589
100
AcDbEntity
  8
DAMAN
100
AcDbLine
 10
15.69022327325142
 20
16.81943874420988
 30
0.0
 11
15.69022327325142
 21
17.88193874420987
 31
0.0
  0
LINE
  5
6BA
330
589
100
AcDbEntity
  8
DAMAN
100
AcDbLine
 10
15.69022327325142
 20
17.88193874420987
 30
0.0
 11
15.75272327325142
 21
17.88193874420987
 31
0.0
  0
LINE
  5
6BB
330
589
100
AcDbEntity
  8
DAMAN
100
AcDbLine
 10
15.69022327325142
 20
16.91767604231765
 30
0.0
 11
15.42055791272411
 21
16.91767604231765
 31
0.0
  0
LINE
  5
6BC
330
589
100
AcDbEntity
  8
DAMAN
100
AcDbLine
 10
15.37772327325142
 20
16.99186781420825
 30
0.0
 11
15.37772327325142
 21
17.7095096742115
 31
0.0
  0
LINE
  5
6BD
330
589
100
AcDbEntity
  8
DAMAN
100
AcDbLine
 10
15.42055791272411
 20
17.78370144610208
 30
0.0
 11
15.69022327325142
 21
17.78370144610208
 31
0.0
  0
LINE
  5
6BE
330
589
100
AcDbEntity
  8
DAMAN
100
AcDbLine
 10
15.69022327325142
 20
17.13418239326377
 30
0.0
 11
15.44022327325148
 21
17.13418239326377
 31
0.0
  0
LINE
  5
6BF
330
589
100
AcDbEntity
  8
DAMAN
100
AcDbLine
 10
15.69022327325142
 20
17.56719509515599
 30
0.0
 11
15.44022327325142
 21
17.56719509515599
 31
0.0
  0
ARC
  5
6C0
330
589
100
AcDbEntity
  8
DAMAN
100
AcDbCircle
 10
15.78397327325141
 20
17.35068874420988
 30
0.0
 40
0.4062499999999964
100
AcDbArc
 50
147.7957724960276
 51
212.204227503972
  0
ARC
  5
6C1
330
589
100
AcDbEntity
  8
DAMAN
100
AcDbCircle
 10
15.50272327325142
 20
17.67544827062904
 30
0.0
 40
0.1250000000000008
100
AcDbArc
 50
120.0000000000003
 51
240.0000000000004
  0
ARC
  5
6C2
330
589
100
AcDbEntity
  8
DAMAN
100
AcDbCircle
 10
15.50272327325142
 20
17.02592921779071
 30
0.0
 40
0.1250000000000008
100
AcDbArc
 50
119.9999999999996
 51
239.9999999999996
  0
LINE
  5
6C3
330
589
100
AcDbEntity
  8
DAMAN
100
AcDbLine
 10
15.42055791272411
 20
16.91767604231765
 30
0.0
 11
15.37772327325142
 21
16.99186781420825
 31
0.0
  0
LINE
  5
6C4
330
589
100
AcDbEntity
  8
DAMAN
100
AcDbLine
 10
15.42055791272411
 20
17.78370144610208
 30
0.0
 11
15.37772327325142
 21
17.7095096742115
 31
0.0
  0
ARC
  5
6C5
330
589
100
AcDbEntity
  8
DAMAN
100
AcDbCircle
 10
15.78397327325141
 20
12.47568874420988
 30
0.0
 40
0.4062499999999964
100
AcDbArc
 50
147.7957724960276
 51
212.204227503972
  0
LINE
  5
6C6
330
589
100
AcDbEntity
  8
DAMAN
100
AcDbLine
 10
15.69022327325142
 20
11.94443874420988
 30
0.0
 11
15.69022327325142
 21
13.00693874420988
 31
0.0
  0
LINE
  5
6C7
330
589
100
AcDbEntity
  8
DAMAN
100
AcDbLine
 10
15.37772327325142
 20
12.11686781420826
 30
0.0
 11
15.37772327325142
 21
12.8345096742115
 31
0.0
  0
ARC
  5
6C8
330
589
100
AcDbEntity
  8
DAMAN
100
AcDbCircle
 10
15.50272327325142
 20
12.15092921779072
 30
0.0
 40
0.1250000000000008
100
AcDbArc
 50
119.9999999999996
 51
239.9999999999996
  0
LINE
  5
6C9
330
589
100
AcDbEntity
  8
DAMAN
100
AcDbLine
 10
15.42055791272411
 20
12.04267604231766
 30
0.0
 11
15.37772327325142
 21
12.11686781420826
 31
0.0
  0
LINE
  5
6CA
330
589
100
AcDbEntity
  8
DAMAN
100
AcDbLine
 10
15.69022327325142
 20
12.04267604231766
 30
0.0
 11
15.42055791272411
 21
12.04267604231766
 31
0.0
  0
LINE
  5
6CB
330
589
100
AcDbEntity
  8
DAMAN
100
AcDbLine
 10
15.75272327325142
 20
11.94443874420988
 30
0.0
 11
15.69022327325142
 21
11.94443874420988
 31
0.0
  0
LINE
  5
6CC
330
589
100
AcDbEntity
  8
DAMAN
100
AcDbLine
 10
15.69022327325142
 20
12.25918239326376
 30
0.0
 11
15.44022327325148
 21
12.25918239326376
 31
0.0
  0
ARC
  5
6CD
330
589
100
AcDbEntity
  8
DAMAN
100
AcDbCircle
 10
15.50272327325142
 20
12.80044827062903
 30
0.0
 40
0.1250000000000008
100
AcDbArc
 50
120.0000000000003
 51
240.0000000000004
  0
LINE
  5
6CE
330
589
100
AcDbEntity
  8
DAMAN
100
AcDbLine
 10
15.69022327325142
 20
12.69219509515599
 30
0.0
 11
15.44022327325142
 21
12.69219509515599
 31
0.0
  0
LINE
  5
6CF
330
589
100
AcDbEntity
  8
DAMAN
100
AcDbLine
 10
15.42055791272411
 20
12.90870144610208
 30
0.0
 11
15.69022327325142
 21
12.90870144610208
 31
0.0
  0
LINE
  5
6D0
330
589
100
AcDbEntity
  8
DAMAN
100
AcDbLine
 10
15.69022327325142
 20
13.00693874420988
 30
0.0
 11
15.75272327325142
 21
13.00693874420988
 31
0.0
  0
LINE
  5
6D1
330
589
100
AcDbEntity
  8
DAMAN
100
AcDbLine
 10
15.42055791272411
 20
12.90870144610208
 30
0.0
 11
15.37772327325142
 21
12.8345096742115
 31
0.0
  0
CIRCLE
  5
6D2
330
589
100
AcDbEntity
  8
DAMAN
100
AcDbCircle
 10
14.87772327325142
 20
12.47568874420988
 30
0.0
 40
0.53125
  0
CIRCLE
  5
6D3
330
589
100
AcDbEntity
  8
DAMAN
100
AcDbCircle
 10
14.87772327325142
 20
17.35068874420988
 30
0.0
 40
0.53125
  0
LWPOLYLINE
  5
6D4
330
589
100
AcDbEntity
  8
DAMAN
100
AcDbPolyline
 90
        6
 70
     1
 43
0.0
 10
14.50272327325142
 20
12.25918239326376
 10
14.87772327325142
 20
12.04267604231766
 10
15.25272327325142
 20
12.25918239326376
 10
15.25272327325142
 20
12.69219509515599
 10
14.87772327325142
 20
12.90870144610209
 10
14.50272327325142
 20
12.69219509515599
  0
CIRCLE
  5
6DC
330
589
100
AcDbEntity
  8
DAMAN
100
AcDbCircle
 10
14.87772327325142
 20
12.47568874420988
 30
0.0
 40
0.375
  0
CIRCLE
  5
6DD
330
589
100
AcDbEntity
  8
DAMAN
100
AcDbCircle
 10
14.87772327325142
 20
17.35068874420988
 30
0.0
 40
0.375
  0
LWPOLYLINE
  5
6DE
330
589
100
AcDbEntity
  8
DAMAN
100
AcDbPolyline
 90
        6
 70
     1
 43
0.0
 10
14.50272327325142
 20
17.13418239326377
 10
14.87772327325142
 20
16.91767604231765
 10
15.25272327325142
 20
17.13418239326377
 10
15.25272327325142
 20
17.56719509515599
 10
14.87772327325142
 20
17.7837014461021
 10
14.50272327325142
 20
17.56719509515599
  0
LINE
  5
6E6
330
589
100
AcDbEntity
  8
DAMAN
100
AcDbLine
 10
13.31522327325142
 20
11.91318874420988
 30
0.0
 11
13.31522327325142
 21
17.91318874420988
 31
0.0
  0
LINE
  5
6E7
330
589
100
AcDbEntity
  8
DAMAN
100
AcDbLine
 10
15.94022327325142
 20
10.78818874420988
 30
0.0
 11
21.56522327325143
 21
10.78818874420988
 31
0.0
  0
LINE
  5
6E8
330
589
100
AcDbEntity
  8
DAMAN
100
AcDbLine
 10
15.94022327325142
 20
6.038188744209881
 30
0.0
 11
21.56522327325143
 21
6.038188744209881
 31
0.0
  0
LINE
  5
6E9
330
589
100
AcDbEntity
  8
DAMAN
100
AcDbLine
 10
15.94022327325142
 20
10.78818874420988
 30
0.0
 11
15.94022327325142
 21
6.038188744209881
 31
0.0
  0
LINE
  5
6EA
330
589
100
AcDbEntity
  8
DAMAN
100
AcDbLine
 10
21.56522327325143
 20
10.78818874420988
 30
0.0
 11
21.56522327325143
 21
6.038188744209881
 31
0.0
  0
INSERT
  5
6EB
330
589
100
AcDbEntity
  8
PIPE
100
AcDbBlockReference
  2
100NPTFT
 10
10.94022327325142
 20
13.97818874420988
 30
0.0
  0
INSERT
  5
6EC
330
589
100
AcDbEntity
  8
PIPE
100
AcDbBlockReference
  2
050NPTFT
 10
16.81522327325183
 20
8.413188744209932
 30
0.0
  0
INSERT
  5
6ED
330
589
100
AcDbEntity
  8
SAE
100
AcDbBlockReference
  2
16SAET
 10
10.94022327325142
 20
13.97818874420988
 30
0.0
  0
INSERT
  5
6EE
330
589
100
AcDbEntity
  8
SAE
100
AcDbBlockReference
  2
08SAET
 10
16.81522327325183
 20
8.413188744209932
 30
0.0
  0
INSERT
  5
6EF
330
589
100
AcDbEntity
  8
BSPP
100
AcDbBlockReference
  2
100BSPPT
 10
10.94022327325139
 20
13.97818874420986
 30
0.0
  0
INSERT
  5
6F0
330
589
100
AcDbEntity
  8
BSPP
100
AcDbBlockReference
  2
0500BSPPT
 10
16.8152232732518
 20
8.413188744209909
 30
0.0
  0
INSERT
  5
6F1
330
589
100
AcDbEntity
  8
ISO
100
AcDbBlockReference
  2
M33T
 10
10.94022327325137
 20
13.97818874420982
 30
0.0
  0
INSERT
  5
6F2
330
589
100
AcDbEntity
  8
ISO
100
AcDbBlockReference
  2
M14T
 10
16.81522327325176
 20
8.413188744209872
 30
0.0
 41
1.094
 42
1.094
 43
1.094
  0
TEXT
  5
6F3
330
589
100
AcDbEntity
  8
DAMAN
100
AcDbText
 10
11.57721177788623
 20
13.07814586733438
 30
0.0
 40
0.2
  1
P
 50
270.0
100
AcDbText
  0
TEXT
  5
6F4
330
589
100
AcDbEntity
  8
DAMAN
100
AcDbText
 10
11.92965532001374
 20
17.57199596740342
 30
0.0
 40
0.2
  1
T
 50
270.0
100
AcDbText
  0
INSERT
  5
6F5
330
589
100
AcDbEntity
  8
PIPE
100
AcDbBlockReference
  2
125NPTFT
 10
10.94022327325142
 20
16.73818874420988
 30
0.0
  0
INSERT
  5
6F6
330
589
100
AcDbEntity
  8
SAE
100
AcDbBlockReference
  2
20SAET
 10
10.94022327325142
 20
16.73818874420988
 30
0.0
  0
INSERT
  5
6F7
330
589
100
AcDbEntity
  8
ISO
100
AcDbBlockReference
  2
M42T
 10
10.94022327325142
 20
16.73818874420988
 30
0.0
  0
INSERT
  5
6F8
330
589
100
AcDbEntity
  8
BSPP
100
AcDbBlockReference
  2
125BSPPT
 10
10.94022327325142
 20
16.73818874420988
 30
0.0
  0
INSERT
  5
6F9
330
589
100
AcDbEntity
  8
SAE
100
AcDbBlockReference
  2
16SAET
 10
26.56522327325143
 20
13.97818874420988
 30
0.0
 41
-1.0
  0
INSERT
  5
6FA
330
589
100
AcDbEntity
  8
BSPP
100
AcDbBlockReference
  2
125BSPPT
 10
26.56522327325143
 20
16.73818874420988
 30
0.0
 41
-1.0
  0
LINE
  5
6FB
330
589
100
AcDbEntity
  8
DAMAN
  6
HIDDEN
100
AcDbLine
 10
28.94022327325142
 20
11.78818874420988
 30
0.0
 11
28.94022327325142
 21
18.03818874420987
 31
0.0
  0
INSERT
  5
6FC
330
589
100
AcDbEntity
  8
DAMAN
100
AcDbBlockReference
  2
600MKT
 10
28.93772327325143
 20
11.91318874420988
 30
0.0
 41
-1.0
  0
LINE
  5
6FD
330
589
100
AcDbEntity
  8
DAMAN
100
AcDbLine
 10
24.19022327325142
 20
11.78818874420988
 30
0.0
 11
24.19022327325142
 21
18.03818874420987
 31
0.0
  0
LINE
  5
6FE
330
589
100
AcDbEntity
  8
DAMAN
100
AcDbLine
 10
24.19022327325142
 20
11.91318874420988
 30
0.0
 11
24.19022327325142
 21
17.91318874420988
 31
0.0
  0
LINE
  5
6FF
330
589
100
AcDbEntity
  8
DAMAN
100
AcDbLine
 10
28.94022327325142
 20
11.78818874420988
 30
0.0
 11
24.19022327325142
 21
11.78818874420988
 31
0.0
  0
INSERT
  5
700
330
589
100
AcDbEntity
  8
PIPE
100
AcDbBlockReference
  2
100NPTFT
 10
26.56522327325143
 20
13.97818874420988
 30
0.0
 41
-1.0
  0
INSERT
  5
701
330
589
100
AcDbEntity
  8
ISO
100
AcDbBlockReference
  2
M33T
 10
26.56522327325149
 20
13.97818874420982
 30
0.0
 41
-1.0
  0
INSERT
  5
702
330
589
100
AcDbEntity
  8
BSPP
100
AcDbBlockReference
  2
100BSPPT
 10
26.56522327325145
 20
13.97818874420986
 30
0.0
 41
-1.0
  0
LINE
  5
703
330
589
100
AcDbEntity
  8
DAMAN
100
AcDbLine
 10
28.94022327325142
 20
18.03818874420987
 30
0.0
 11
24.19022327325142
 21
18.03818874420987
 31
0.0
  0
INSERT
  5
704
330
589
100
AcDbEntity
  8
ISO
100
AcDbBlockReference
  2
M42T
 10
26.56522327325143
 20
16.73818874420988
 30
0.0
 41
-1.0
  0
INSERT
  5
705
330
589
100
AcDbEntity
  8
SAE
100
AcDbBlockReference
  2
20SAET
 10
26.56522327325143
 20
16.73818874420988
 30
0.0
 41
-1.0
  0
INSERT
  5
706
330
589
100
AcDbEntity
  8
PIPE
100
AcDbBlockReference
  2
125NPTFT
 10
26.56522327325143
 20
16.73818874420988
 30
0.0
 41
-1.0
  0
INSERT
  5
707
330
589
100
AcDbEntity
  8
DAMAN
100
AcDbBlockReference
  2
600MKST
 10
21.56522327325143
 20
6.038188744209881
 30
0.0
 41
-1.0
  0
LINE
  5
708
330
589
100
AcDbEntity
  8
DAMAN
100
AcDbLine
 10
21.75272327325143
 20
17.91318874420988
 30
0.0
 11
21.75272327325143
 21
11.91318874420988
 31
0.0
  0
LINE
  5
709
330
589
100
AcDbEntity
  8
DAMAN
100
AcDbLine
 10
21.56522327325143
 20
11.78818874420988
 30
0.0
 11
21.56522327325143
 21
18.03818874420987
 31
0.0
  0
LINE
  5
70A
330
589
100
AcDbEntity
  8
DAMAN
100
AcDbLine
 10
23.19022327325142
 20
11.91318874420988
 30
0.0
 11
23.19022327325142
 21
17.91318874420988
 31
0.0
  0
LINE
  5
70B
330
589
100
AcDbEntity
  8
DAMAN
100
AcDbLine
 10
21.56522327325143
 20
11.91318874420988
 30
0.0
 11
23.19022327325142
 21
11.91318874420988
 31
0.0
  0
CIRCLE
  5
70C
330
589
100
AcDbEntity
  8
DAMAN
100
AcDbCircle
 10
22.62772327325142
 20
12.47568874420988
 30
0.0
 40
0.375
  0
LWPOLYLINE
  5
70D
330
589
100
AcDbEntity
  8
DAMAN
100
AcDbPolyline
 90
        6
 70
     1
 43
0.0
 10
23.00272327325143
 20
12.25918239326376
 10
22.62772327325142
 20
12.04267604231766
 10
22.25272327325142
 20
12.25918239326376
 10
22.25272327325142
 20
12.69219509515599
 10
22.62772327325142
 20
12.90870144610209
 10
23.00272327325143
 20
12.69219509515599
  0
CIRCLE
  5
715
330
589
100
AcDbEntity
  8
DAMAN
100
AcDbCircle
 10
22.62772327325142
 20
12.47568874420988
 30
0.0
 40
0.53125
  0
ARC
  5
716
330
589
100
AcDbEntity
  8
DAMAN
100
AcDbCircle
 10
21.72147327325143
 20
12.47568874420988
 30
0.0
 40
0.4062499999999964
100
AcDbArc
 50
327.7957724960277
 51
32.20422750397233
  0
LINE
  5
717
330
589
100
AcDbEntity
  8
DAMAN
100
AcDbLine
 10
21.81522327325143
 20
11.94443874420988
 30
0.0
 11
21.81522327325143
 21
13.00693874420988
 31
0.0
  0
LINE
  5
718
330
589
100
AcDbEntity
  8
DAMAN
100
AcDbLine
 10
22.12772327325143
 20
12.11686781420826
 30
0.0
 11
22.12772327325143
 21
12.8345096742115
 31
0.0
  0
LINE
  5
719
330
589
100
AcDbEntity
  8
DAMAN
100
AcDbLine
 10
22.08488863377873
 20
12.04267604231766
 30
0.0
 11
22.12772327325143
 21
12.11686781420826
 31
0.0
  0
ARC
  5
71A
330
589
100
AcDbEntity
  8
DAMAN
100
AcDbCircle
 10
22.00272327325142
 20
12.15092921779072
 30
0.0
 40
0.1250000000000008
100
AcDbArc
 50
300.0000000000003
 51
60.00000000000034
  0
LINE
  5
71B
330
589
100
AcDbEntity
  8
DAMAN
100
AcDbLine
 10
21.81522327325143
 20
12.25918239326376
 30
0.0
 11
22.06522327325138
 21
12.25918239326376
 31
0.0
  0
LINE
  5
71C
330
589
100
AcDbEntity
  8
DAMAN
100
AcDbLine
 10
21.81522327325143
 20
12.04267604231766
 30
0.0
 11
22.08488863377873
 21
12.04267604231766
 31
0.0
  0
LINE
  5
71D
330
589
100
AcDbEntity
  8
DAMAN
100
AcDbLine
 10
21.75272327325143
 20
11.94443874420988
 30
0.0
 11
21.81522327325143
 21
11.94443874420988
 31
0.0
  0
LINE
  5
71E
330
589
100
AcDbEntity
  8
DAMAN
100
AcDbLine
 10
22.08488863377873
 20
12.90870144610208
 30
0.0
 11
22.12772327325143
 21
12.8345096742115
 31
0.0
  0
ARC
  5
71F
330
589
100
AcDbEntity
  8
DAMAN
100
AcDbCircle
 10
22.00272327325142
 20
12.80044827062903
 30
0.0
 40
0.1250000000000008
100
AcDbArc
 50
299.9999999999995
 51
59.9999999999997
  0
LINE
  5
720
330
589
100
AcDbEntity
  8
DAMAN
100
AcDbLine
 10
22.08488863377873
 20
12.90870144610208
 30
0.0
 11
21.81522327325143
 21
12.90870144610208
 31
0.0
  0
LINE
  5
721
330
589
100
AcDbEntity
  8
DAMAN
100
AcDbLine
 10
21.81522327325143
 20
12.69219509515599
 30
0.0
 11
22.06522327325143
 21
12.69219509515599
 31
0.0
  0
LINE
  5
722
330
589
100
AcDbEntity
  8
DAMAN
100
AcDbLine
 10
21.81522327325143
 20
13.00693874420988
 30
0.0
 11
21.75272327325143
 21
13.00693874420988
 31
0.0
  0
LINE
  5
723
330
589
100
AcDbEntity
  8
DAMAN
100
AcDbLine
 10
23.19022327325142
 20
17.91318874420988
 30
0.0
 11
21.56522327325143
 21
17.91318874420988
 31
0.0
  0
LWPOLYLINE
  5
724
330
589
100
AcDbEntity
  8
DAMAN
100
AcDbPolyline
 90
        6
 70
     1
 43
0.0
 10
23.00272327325143
 20
17.13418239326377
 10
22.62772327325142
 20
16.91767604231765
 10
22.25272327325142
 20
17.13418239326377
 10
22.25272327325142
 20
17.56719509515599
 10
22.62772327325142
 20
17.7837014461021
 10
23.00272327325143
 20
17.56719509515599
  0
CIRCLE
  5
72C
330
589
100
AcDbEntity
  8
DAMAN
100
AcDbCircle
 10
22.62772327325142
 20
17.35068874420988
 30
0.0
 40
0.375
  0
CIRCLE
  5
72D
330
589
100
AcDbEntity
  8
DAMAN
100
AcDbCircle
 10
22.62772327325142
 20
17.35068874420988
 30
0.0
 40
0.53125
  0
ARC
  5
72E
330
589
100
AcDbEntity
  8
DAMAN
100
AcDbCircle
 10
22.00272327325142
 20
17.67544827062904
 30
0.0
 40
0.1250000000000008
100
AcDbArc
 50
299.9999999999995
 51
59.9999999999997
  0
LINE
  5
72F
330
589
100
AcDbEntity
  8
DAMAN
100
AcDbLine
 10
21.81522327325143
 20
16.81943874420988
 30
0.0
 11
21.81522327325143
 21
17.88193874420987
 31
0.0
  0
LINE
  5
730
330
589
100
AcDbEntity
  8
DAMAN
100
AcDbLine
 10
22.12772327325143
 20
16.99186781420825
 30
0.0
 11
22.12772327325143
 21
17.7095096742115
 31
0.0
  0
LINE
  5
731
330
589
100
AcDbEntity
  8
DAMAN
100
AcDbLine
 10
22.08488863377873
 20
16.91767604231765
 30
0.0
 11
22.12772327325143
 21
16.99186781420825
 31
0.0
  0
ARC
  5
732
330
589
100
AcDbEntity
  8
DAMAN
100
AcDbCircle
 10
22.00272327325142
 20
17.02592921779071
 30
0.0
 40
0.1250000000000008
100
AcDbArc
 50
300.0000000000003
 51
60.00000000000034
  0
ARC
  5
733
330
589
100
AcDbEntity
  8
DAMAN
100
AcDbCircle
 10
21.72147327325143
 20
17.35068874420988
 30
0.0
 40
0.4062499999999964
100
AcDbArc
 50
327.7957724960277
 51
32.20422750397233
  0
LINE
  5
734
330
589
100
AcDbEntity
  8
DAMAN
100
AcDbLine
 10
21.81522327325143
 20
17.56719509515599
 30
0.0
 11
22.06522327325143
 21
17.56719509515599
 31
0.0
  0
LINE
  5
735
330
589
100
AcDbEntity
  8
DAMAN
100
AcDbLine
 10
21.81522327325143
 20
17.13418239326377
 30
0.0
 11
22.06522327325138
 21
17.13418239326377
 31
0.0
  0
LINE
  5
736
330
589
100
AcDbEntity
  8
DAMAN
100
AcDbLine
 10
21.81522327325143
 20
16.91767604231765
 30
0.0
 11
22.08488863377873
 21
16.91767604231765
 31
0.0
  0
LINE
  5
737
330
589
100
AcDbEntity
  8
DAMAN
100
AcDbLine
 10
21.75272327325143
 20
16.81943874420988
 30
0.0
 11
21.81522327325143
 21
16.81943874420988
 31
0.0
  0
LINE
  5
738
330
589
100
AcDbEntity
  8
DAMAN
100
AcDbLine
 10
22.08488863377873
 20
17.78370144610208
 30
0.0
 11
22.12772327325143
 21
17.7095096742115
 31
0.0
  0
LINE
  5
739
330
589
100
AcDbEntity
  8
DAMAN
100
AcDbLine
 10
22.08488863377873
 20
17.78370144610208
 30
0.0
 11
21.81522327325143
 21
17.78370144610208
 31
0.0
  0
LINE
  5
73A
330
589
100
AcDbEntity
  8
DAMAN
100
AcDbLine
 10
21.81522327325143
 20
17.88193874420987
 30
0.0
 11
21.75272327325143
 21
17.88193874420987
 31
0.0
  0
INSERT
  5
73B
330
589
100
AcDbEntity
  8
BSPP
100
AcDbBlockReference
  2
0500BSPPT
 10
18.62772327325179
 20
7.09818874420991
 30
0.0
  0
INSERT
  5
73C
330
589
100
AcDbEntity
  8
ISO
100
AcDbBlockReference
  2
M14T
 10
18.62772327325176
 20
7.098188744209871
 30
0.0
 41
1.094
 42
1.094
 43
1.094
  0
INSERT
  5
73D
330
589
100
AcDbEntity
  8
PIPE
100
AcDbBlockReference
  2
050NPTFT
 10
18.62772327325183
 20
7.098188744209933
 30
0.0
  0
INSERT
  5
73E
330
589
100
AcDbEntity
  8
BSPP
100
AcDbBlockReference
  2
0500BSPPT
 10
18.62772327325147
 20
9.725688744209922
 30
0.0
  0
INSERT
  5
73F
330
589
100
AcDbEntity
  8
PIPE
100
AcDbBlockReference
  2
050NPTFT
 10
18.62772327325148
 20
9.725688744209943
 30
0.0
  0
INSERT
  5
740
330
589
100
AcDbEntity
  8
ISO
100
AcDbBlockReference
  2
M14T
 10
18.62772327325142
 20
9.725688744209879
 30
0.0
 41
1.094
 42
1.094
 43
1.094
  0
TEXT
  5
741
330
589
100
AcDbEntity
  8
DAMAN
100
AcDbText
 10
19.60287531486445
 20
7.695563002043889
 30
0.0
 40
0.2
  1
A
100
AcDbText
  0
TEXT
  5
742
330
589
100
AcDbEntity
  8
DAMAN
100
AcDbText
 10
19.6028754024228
 20
10.3261936988236
 30
0.0
 40
0.2
  1
B
100
AcDbText
  0
TEXT
  5
743
330
589
100
AcDbEntity
  8
DAMAN
100
AcDbText
 10
25.7273436852421
 20
13.18165820257931
 30
0.0
 40
0.2
  1
P
 50
90.0
100
AcDbText
  0
TEXT
  5
744
330
589
100
AcDbEntity
  8
DAMAN
100
AcDbText
 10
25.72397925703337
 20
17.70525813807626
 30
0.0
 40
0.2
  1
T
 50
90.0
100
AcDbText
  0
TEXT
  5
745
330
589
100
AcDbEntity
  8
DAMAN
100
AcDbText
 10
19.30778622068699
 20
8.522522518897901
 30
0.0
 40
0.2
  1
DAMAN ****
100
AcDbText
  0
TEXT
  5
746
330
589
100
AcDbEntity
  8
DAMAN
100
AcDbText
 10
17.26961495617543
 20
8.927143360420252
 30
0.0
 40
0.2
  1
Y
100
AcDbText
  0
INSERT
  5
747
330
589
100
AcDbEntity
  8
SAE
100
AcDbBlockReference
  2
16SAET
 10
18.62772327325148
 20
9.725688744209943
 30
0.0
  0
INSERT
  5
748
330
589
100
AcDbEntity
  8
SAE
100
AcDbBlockReference
  2
16SAET
 10
18.62772327325179
 20
7.098188744209893
 30
0.0
  0
CIRCLE
  5
74A
330
589
100
AcDbEntity
  8
DAMAN
100
AcDbCircle
 10
19.5652232732514
 20
15.91218874420988
 30
0.0
 40
0.3439999999999999
  0
CIRCLE
  5
74B
330
589
100
AcDbEntity
  8
DAMAN
100
AcDbCircle
 10
19.5652232732514
 20
14.66318874420988
 30
0.0
 40
0.3439999999999999
  0
INSERT
  5
74C
330
589
100
AcDbEntity
  8
DAMAN
100
AcDbBlockReference
  2
100CROSS
 10
19.5652232732514
 20
15.91218874420988
 30
0.0
 41
0.5625
 42
0.5625
  0
INSERT
  5
74D
330
589
100
AcDbEntity
  8
DAMAN
100
AcDbBlockReference
  2
100CROSS
 10
19.5652232732514
 20
14.66318874420988
 30
0.0
 41
0.5625
 42
0.5625
  0
INSERT
  5
74E
330
589
100
AcDbEntity
  8
DAMAN
100
AcDbBlockReference
  2
100CROSS
 10
17.31472327325141
 20
14.66218874420988
 30
0.0
 41
0.25
 42
0.25
  0
CIRCLE
  5
74F
330
589
100
AcDbEntity
  8
DAMAN
100
AcDbCircle
 10
17.3772232732514
 20
12.63118874420988
 30
0.0
 40
0.1875
  0
CIRCLE
  5
750
330
589
100
AcDbEntity
  8
DAMAN
100
AcDbCircle
 10
17.3772232732514
 20
12.63118874420988
 30
0.0
 40
0.15625
  0
INSERT
  5
751
330
589
100
AcDbEntity
  8
DAMAN
100
AcDbBlockReference
  2
100CROSS
 10
17.3772232732514
 20
12.63118874420988
 30
0.0
 41
0.375
 42
0.375
  0
CIRCLE
  5
752
330
589
100
AcDbEntity
  8
DAMAN
100
AcDbCircle
 10
17.3142232732514
 20
14.66243874420988
 30
0.0
 40
0.125
  0
CIRCLE
  5
753
330
589
100
AcDbEntity
  8
DAMAN
100
AcDbCircle
 10
17.31472327325141
 20
14.66218874420988
 30
0.0
 40
0.1055
  0
CIRCLE
  5
754
330
589
100
AcDbEntity
  8
DAMAN
100
AcDbCircle
 10
17.9392232732514
 20
14.03718874420988
 30
0.0
 40
0.3439999999999999
  0
INSERT
  5
755
330
589
100
AcDbEntity
  8
DAMAN
100
AcDbBlockReference
  2
100CROSS
 10
17.9392232732514
 20
14.03718874420988
 30
0.0
 41
0.5625
 42
0.5625
  0
CIRCLE
  5
756
330
589
100
AcDbEntity
  8
DAMAN
100
AcDbCircle
 10
17.8772232732514
 20
13.16318874420988
 30
0.0
 40
0.125
  0
INSERT
  5
757
330
589
100
AcDbEntity
  8
DAMAN
100
AcDbBlockReference
  2
100CROSS
 10
17.8772232732514
 20
13.16318874420988
 30
0.0
 41
0.375
 42
0.375
  0
TEXT
  5
758
330
589
100
AcDbEntity
  8
DAMAN
100
AcDbText
 10
18.0022232732514
 20
13.34993874420988
 30
0.0
 40
0.12
  1
Y
100
AcDbText
  0
TEXT
  5
759
330
589
100
AcDbEntity
  8
DAMAN
100
AcDbText
 10
18.25222327325141
 20
14.44368874420988
 30
0.0
 40
0.12
  1
B
100
AcDbText
  0
CIRCLE
  5
75A
330
589
100
AcDbEntity
  8
DAMAN
100
AcDbCircle
 10
17.3772232732514
 20
15.91218874420988
 30
0.0
 40
0.0845
  0
CIRCLE
  5
75B
330
589
100
AcDbEntity
  8
DAMAN
100
AcDbCircle
 10
17.3772232732514
 20
16.63118874420988
 30
0.0
 40
0.1875
  0
CIRCLE
  5
75C
330
589
100
AcDbEntity
  8
DAMAN
100
AcDbCircle
 10
17.3772232732514
 20
16.63118874420988
 30
0.0
 40
0.15625
  0
INSERT
  5
75D
330
589
100
AcDbEntity
  8
DAMAN
100
AcDbBlockReference
  2
100CROSS
 10
17.3772232732514
 20
16.63118874420988
 30
0.0
 41
0.375
 42
0.375
  0
INSERT
  5
75E
330
589
100
AcDbEntity
  8
DAMAN
100
AcDbBlockReference
  2
100CROSS
 10
17.3772232732514
 20
15.91218874420988
 30
0.0
 41
0.25
 42
0.25
  0
CIRCLE
  5
75F
330
589
100
AcDbEntity
  8
DAMAN
100
AcDbCircle
 10
17.9392232732514
 20
15.28718874420988
 30
0.0
 40
0.3439999999999999
  0
INSERT
  5
760
330
589
100
AcDbEntity
  8
DAMAN
100
AcDbBlockReference
  2
100CROSS
 10
17.9392232732514
 20
15.28718874420988
 30
0.0
 41
0.5625
 42
0.5625
  0
TEXT
  5
761
330
589
100
AcDbEntity
  8
DAMAN
100
AcDbText
 10
18.2209732732514
 20
15.69368874420988
 30
0.0
 40
0.12
  1
A
100
AcDbText
  0
INSERT
  5
762
330
589
100
AcDbEntity
  8
DAMAN
100
AcDbBlockReference
  2
100CROSS
 10
20.1272232732514
 20
12.63118874420988
 30
0.0
 41
0.375
 42
0.375
  0
CIRCLE
  5
763
330
589
100
AcDbEntity
  8
DAMAN
100
AcDbCircle
 10
20.1272232732514
 20
12.63118874420988
 30
0.0
 40
0.1875
  0
CIRCLE
  5
764
330
589
100
AcDbEntity
  8
DAMAN
100
AcDbCircle
 10
20.1272232732514
 20
12.63118874420988
 30
0.0
 40
0.15625
  0
INSERT
  5
765
330
589
100
AcDbEntity
  8
DAMAN
100
AcDbBlockReference
  2
100CROSS
 10
20.1272232732514
 20
13.61618874420988
 30
0.0
 41
0.25
 42
0.25
  0
CIRCLE
  5
766
330
589
100
AcDbEntity
  8
DAMAN
100
AcDbCircle
 10
20.1272232732514
 20
13.61618874420988
 30
0.0
 40
0.0845
  0
INSERT
  5
767
330
589
100
AcDbEntity
  8
DAMAN
100
AcDbBlockReference
  2
100CROSS
 10
20.1272232732514
 20
16.63118874420988
 30
0.0
 41
0.375
 42
0.375
  0
INSERT
  5
768
330
589
100
AcDbEntity
  8
DAMAN
100
AcDbBlockReference
  2
100CROSS
 10
20.1897232732514
 20
15.28718874420988
 30
0.0
 41
0.25
 42
0.25
  0
TEXT
  5
769
330
589
100
AcDbEntity
  8
DAMAN
100
AcDbText
 10
19.7834732732514
 20
15.13118874420988
 30
0.0
 40
0.12
  1
P
100
AcDbText
  0
CIRCLE
  5
76A
330
589
100
AcDbEntity
  8
DAMAN
100
AcDbCircle
 10
20.1892232732514
 20
15.28743874420988
 30
0.0
 40
0.125
  0
CIRCLE
  5
76B
330
589
100
AcDbEntity
  8
DAMAN
100
AcDbCircle
 10
20.1897232732514
 20
15.28718874420988
 30
0.0
 40
0.1055
  0
TEXT
  5
76C
330
589
100
AcDbEntity
  8
DAMAN
100
AcDbText
 10
19.81472327325141
 20
16.38118874420988
 30
0.0
 40
0.12
  1
T
100
AcDbText
  0
CIRCLE
  5
76D
330
589
100
AcDbEntity
  8
DAMAN
100
AcDbCircle
 10
20.1272232732514
 20
16.63118874420988
 30
0.0
 40
0.1875
  0
CIRCLE
  5
76E
330
589
100
AcDbEntity
  8
DAMAN
100
AcDbCircle
 10
20.1272232732514
 20
16.63118874420988
 30
0.0
 40
0.15625
  0
INSERT
  5
76F
330
589
100
AcDbEntity
  8
DAMAN
100
AcDbBlockReference
  2
100CROSS
 10
12.8152232732514
 20
14.91318874420988
 30
0.0
 41
0.4999875
 42
0.4999875
 43
1.333299999999999
  0
CIRCLE
  5
770
330
589
100
AcDbEntity
  8
DAMAN
100
AcDbCircle
 10
12.8152232732514
 20
14.91318874420988
 30
0.0
 40
0.24999375
  0
CIRCLE
  5
771
330
589
100
AcDbEntity
  8
DAMAN
100
AcDbCircle
 10
12.8152232732514
 20
14.91318874420988
 30
0.0
 40
0.208328125
  0
INSERT
  5
772
330
589
100
AcDbEntity
  8
DAMAN
100
AcDbBlockReference
  2
100CROSS
 10
24.6902232732514
 20
14.91318874420988
 30
0.0
 41
0.4999875
 42
0.4999875
 43
1.333299999999999
  0
CIRCLE
  5
773
330
589
100
AcDbEntity
  8
DAMAN
100
AcDbCircle
 10
24.6902232732514
 20
14.91318874420988
 30
0.0
 40
0.24999375
  0
CIRCLE
  5
774
330
589
100
AcDbEntity
  8
DAMAN
100
AcDbCircle
 10
24.6902232732514
 20
14.91318874420988
 30
0.0
 40
0.208328125
  0
ENDSEC
  0
SECTION
  2
OBJECTS
  0
DICTIONARY
  5
577
330
0
100
AcDbDictionary
  3
ACAD_GROUP
350
578
  3
ACAD_LAYOUT
350
584
  3
ACAD_MLINESTYLE
350
581
  3
ACAD_PLOTSETTINGS
350
583
  3
ACAD_PLOTSTYLENAME
350
579
  3
ACDBHEADERROUNDTRIPXREC
350
776
  0
DICTIONARY
  5
798
330
589
100
AcDbDictionary
280
     1
  3
ACAD_LAYOUTSELFREF
360
799
  0
DICTIONARY
  5
796
330
585
100
AcDbDictionary
280
     1
  3
ACAD_LAYOUTSELFREF
360
797
  0
DICTIONARY
  5
578
102
{ACAD_REACTORS
330
577
102
}
330
577
100
AcDbDictionary
  0
DICTIONARY
  5
584
102
{ACAD_REACTORS
330
577
102
}
330
577
100
AcDbDictionary
  0
DICTIONARY
  5
581
102
{ACAD_REACTORS
330
577
102
}
330
577
100
AcDbDictionary
  3
STANDARD
350
582
  0
DICTIONARY
  5
583
102
{ACAD_REACTORS
330
577
102
}
330
577
100
AcDbDictionary
  0
ACDBDICTIONARYWDFLT
  5
579
102
{ACAD_REACTORS
330
577
102
}
330
577
100
AcDbDictionary
281
     1
  3
Normal
350
57A
100
AcDbDictionaryWithDefault
340
57A
  0
DICTIONARY
  5
776
102
{ACAD_REACTORS
330
577
102
}
330
577
100
AcDbDictionary
  3
CEPSNTYPE
350
780
  3
FINGERPRINTGUID
350
781
  3
HYPERLINKBASE
350
779
  3
INSUNITS
350
77F
  3
LAYOUTDICT
350
77B
  3
LWETCUNION
350
77E
  3
PLOTSETDICT
350
77C
  3
PLOTSTYLNAMDICT
350
77D
  3
PSVPSCALE
350
783
  3
PUCSBASE
350
786
  3
PUCSORGBACK
350
78C
  3
PUCSORGBOTTOM
350
788
  3
PUCSORGFRONT
350
78B
  3
PUCSORGLEFT
350
789
  3
PUCSORGRIGHT
350
78A
  3
PUCSORGTOP
350
787
  3
PUCSORTHOREF
350
784
  3
PUCSORTHOVIEW
350
785
  3
STYLESHEET
350
77A
  3
TSTACKALIGN
350
777
  3
TSTACKSIZE
350
778
  3
UCSBASE
350
78F
  3
UCSORGBACK
350
795
  3
UCSORGBOTTOM
350
791
  3
UCSORGFRONT
350
794
  3
UCSORGLEFT
350
792
  3
UCSORGRIGHT
350
793
  3
UCSORGTOP
350
790
  3
UCSORTHOREF
350
78D
  3
UCSORTHOVIEW
350
78E
  3
VERSIONGUID
350
782
  0
XRECORD
  5
799
102
{ACAD_REACTORS
330
798
102
}
330
798
100
AcDbXrecord
340
589
  0
XRECORD
  5
797
102
{ACAD_REACTORS
330
796
102
}
330
796
100
AcDbXrecord
340
585
  0
MLINESTYLE
  5
582
102
{ACAD_REACTORS
330
581
102
}
330
581
100
AcDbMlineStyle
  2
STANDARD
 70
     0
  3

 62
   256
 51
90.0
 52
90.0
 71
     2
 49
0.5
 62
   256
  6
BYLAYER
 49
-0.5
 62
   256
  6
BYLAYER
  0
ACDBPLACEHOLDER
  5
57A
102
{ACAD_REACTORS
330
579
102
}
330
579
100
AcDbPlaceHolder
280
     0
  0
XRECORD
  5
780
102
{ACAD_REACTORS
330
776
102
}
330
776
100
AcDbXrecord
 90
        0
  0
XRECORD
  5
781
102
{ACAD_REACTORS
330
776
102
}
330
776
100
AcDbXrecord
  1
{5BEC7D04-D630-4CE1-99F8-B004650E13D8}
  0
XRECORD
  5
779
102
{ACAD_REACTORS
330
776
102
}
330
776
100
AcDbXrecord
  1

  0
XRECORD
  5
77F
102
{ACAD_REACTORS
330
776
102
}
330
776
100
AcDbXrecord
 90
        0
  0
XRECORD
  5
77B
102
{ACAD_REACTORS
330
776
102
}
330
776
100
AcDbXrecord
340
584
  0
XRECORD
  5
77E
102
{ACAD_REACTORS
330
776
102
}
330
776
100
AcDbXrecord
 90
    10781
  0
XRECORD
  5
77C
102
{ACAD_REACTORS
330
776
102
}
330
776
100
AcDbXrecord
340
583
  0
XRECORD
  5
77D
102
{ACAD_REACTORS
330
776
102
}
330
776
100
AcDbXrecord
340
579
  0
XRECORD
  5
783
102
{ACAD_REACTORS
330
776
102
}
330
776
100
AcDbXrecord
 40
0.0
  0
XRECORD
  5
786
102
{ACAD_REACTORS
330
776
102
}
330
776
100
AcDbXrecord
340
0
  0
XRECORD
  5
78C
102
{ACAD_REACTORS
330
776
102
}
330
776
100
AcDbXrecord
 10
0.0
 20
0.0
 30
0.0
  0
XRECORD
  5
788
102
{ACAD_REACTORS
330
776
102
}
330
776
100
AcDbXrecord
 10
0.0
 20
0.0
 30
0.0
  0
XRECORD
  5
78B
102
{ACAD_REACTORS
330
776
102
}
330
776
100
AcDbXrecord
 10
0.0
 20
0.0
 30
0.0
  0
XRECORD
  5
789
102
{ACAD_REACTORS
330
776
102
}
330
776
100
AcDbXrecord
 10
0.0
 20
0.0
 30
0.0
  0
XRECORD
  5
78A
102
{ACAD_REACTORS
330
776
102
}
330
776
100
AcDbXrecord
 10
0.0
 20
0.0
 30
0.0
  0
XRECORD
  5
787
102
{ACAD_REACTORS
330
776
102
}
330
776
100
AcDbXrecord
 10
0.0
 20
0.0
 30
0.0
  0
XRECORD
  5
784
102
{ACAD_REACTORS
330
776
102
}
330
776
100
AcDbXrecord
340
0
  0
XRECORD
  5
785
102
{ACAD_REACTORS
330
776
102
}
330
776
100
AcDbXrecord
 70
     0
  0
XRECORD
  5
77A
102
{ACAD_REACTORS
330
776
102
}
330
776
100
AcDbXrecord
  1

  0
XRECORD
  5
777
102
{ACAD_REACTORS
330
776
102
}
330
776
100
AcDbXrecord
 90
        1
  0
XRECORD
  5
778
102
{ACAD_REACTORS
330
776
102
}
330
776
100
AcDbXrecord
 90
       70
  0
XRECORD
  5
78F
102
{ACAD_REACTORS
330
776
102
}
330
776
100
AcDbXrecord
340
0
  0
XRECORD
  5
795
102
{ACAD_REACTORS
330
776
102
}
330
776
100
AcDbXrecord
 10
0.0
 20
0.0
 30
0.0
  0
XRECORD
  5
791
102
{ACAD_REACTORS
330
776
102
}
330
776
100
AcDbXrecord
 10
0.0
 20
0.0
 30
0.0
  0
XRECORD
  5
794
102
{ACAD_REACTORS
330
776
102
}
330
776
100
AcDbXrecord
 10
0.0
 20
0.0
 30
0.0
  0
XRECORD
  5
792
102
{ACAD_REACTORS
330
776
102
}
330
776
100
AcDbXrecord
 10
0.0
 20
0.0
 30
0.0
  0
XRECORD
  5
793
102
{ACAD_REACTORS
330
776
102
}
330
776
100
AcDbXrecord
 10
0.0
 20
0.0
 30
0.0
  0
XRECORD
  5
790
102
{ACAD_REACTORS
330
776
102
}
330
776
100
AcDbXrecord
 10
0.0
 20
0.0
 30
0.0
  0
XRECORD
  5
78D
102
{ACAD_REACTORS
330
776
102
}
330
776
100
AcDbXrecord
340
0
  0
XRECORD
  5
78E
102
{ACAD_REACTORS
330
776
102
}
330
776
100
AcDbXrecord
 70
     0
  0
XRECORD
  5
782
102
{ACAD_REACTORS
330
776
102
}
330
776
100
AcDbXrecord
  1
{3064AD63-4136-4ADE-BEA4-DE6F14DEC92A}
  0
ENDSEC
  0
EOF
