  0
SECTION
  2
HEADER
  9
$ACADVER
  1
AC1014
  9
$ACADMAINTVER
 70
     9
  9
$DWGCODEPAGE
  3
ANSI_1252
  9
$INSBASE
 10
0.0
 20
0.0
 30
0.0
  9
$EXTMIN
 10
3.249506127656367
 20
3.43734745103557
 30
-0.0015258207003583
  9
$EXTMAX
 10
20.38343508154628
 20
15.000457798597
 30
0.0000000349246037
  9
$LIMMIN
 10
0.0
 20
0.0
  9
$LIMMAX
 10
12.0
 20
9.0
  9
$ORTHOMODE
 70
     1
  9
$REGENMODE
 70
     1
  9
$FILLMODE
 70
     1
  9
$QTEXTMODE
 70
     0
  9
$MIRRTEXT
 70
     1
  9
$DRAGMODE
 70
     2
  9
$LTSCALE
 40
1.0
  9
$OSMODE
 70
    37
  9
$ATTMODE
 70
     1
  9
$TEXTSIZE
 40
0.188
  9
$TRACEWID
 40
0.05
  9
$TEXTSTYLE
  7
STANDARD
  9
$CLAYER
  8
DAMAN
  9
$CELTYPE
  6
BYLAYER
  9
$CECOLOR
 62
   256
  9
$CELTSCALE
 40
1.0
  9
$DELOBJ
 70
     1
  9
$DISPSILH
 70
     0
  9
$DIMSCALE
 40
1.0
  9
$DIMASZ
 40
0.18
  9
$DIMEXO
 40
0.0625
  9
$DIMDLI
 40
0.38
  9
$DIMRND
 40
0.0
  9
$DIMDLE
 40
0.0
  9
$DIMEXE
 40
0.18
  9
$DIMTP
 40
0.0
  9
$DIMTM
 40
0.0
  9
$DIMTXT
 40
0.18
  9
$DIMCEN
 40
0.09
  9
$DIMTSZ
 40
0.0
  9
$DIMTOL
 70
     0
  9
$DIMLIM
 70
     0
  9
$DIMTIH
 70
     1
  9
$DIMTOH
 70
     1
  9
$DIMSE1
 70
     0
  9
$DIMSE2
 70
     0
  9
$DIMTAD
 70
     0
  9
$DIMZIN
 70
     0
  9
$DIMBLK
  1

  9
$DIMASO
 70
     1
  9
$DIMSHO
 70
     1
  9
$DIMPOST
  1

  9
$DIMAPOST
  1

  9
$DIMALT
 70
     0
  9
$DIMALTD
 70
     2
  9
$DIMALTF
 40
25.4
  9
$DIMLFAC
 40
1.0
  9
$DIMTOFL
 70
     0
  9
$DIMTVP
 40
0.0
  9
$DIMTIX
 70
     0
  9
$DIMSOXD
 70
     0
  9
$DIMSAH
 70
     0
  9
$DIMBLK1
  1

  9
$DIMBLK2
  1

  9
$DIMSTYLE
  2
STANDARD
  9
$DIMCLRD
 70
     0
  9
$DIMCLRE
 70
     0
  9
$DIMCLRT
 70
     0
  9
$DIMTFAC
 40
1.0
  9
$DIMGAP
 40
0.09
  9
$DIMJUST
 70
     0
  9
$DIMSD1
 70
     0
  9
$DIMSD2
 70
     0
  9
$DIMTOLJ
 70
     1
  9
$DIMTZIN
 70
     0
  9
$DIMALTZ
 70
     0
  9
$DIMALTTZ
 70
     0
  9
$DIMFIT
 70
     3
  9
$DIMUPT
 70
     0
  9
$DIMUNIT
 70
     2
  9
$DIMDEC
 70
     4
  9
$DIMTDEC
 70
     4
  9
$DIMALTU
 70
     2
  9
$DIMALTTD
 70
     2
  9
$DIMTXSTY
  7
STANDARD
  9
$DIMAUNIT
 70
     0
  9
$LUNITS
 70
     2
  9
$LUPREC
 70
     4
  9
$SKETCHINC
 40
0.1
  9
$FILLETRAD
 40
0.0
  9
$AUNITS
 70
     0
  9
$AUPREC
 70
     0
  9
$MENU
  1
tom
  9
$ELEVATION
 40
0.0
  9
$PELEVATION
 40
0.0
  9
$THICKNESS
 40
0.0
  9
$LIMCHECK
 70
     0
  9
$BLIPMODE
 70
     0
  9
$CHAMFERA
 40
0.0
  9
$CHAMFERB
 40
0.0
  9
$CHAMFERC
 40
0.0
  9
$CHAMFERD
 40
0.0
  9
$SKPOLY
 70
     0
  9
$TDCREATE
 40
2449741.268111099
  9
$TDUPDATE
 40
2453425.630911794
  9
$TDINDWG
 40
0.0001882523
  9
$TDUSRTIMER
 40
0.0001882523
  9
$USRTIMER
 70
     1
  9
$ANGBASE
 50
0.0
  9
$ANGDIR
 70
     0
  9
$PDMODE
 70
     0
  9
$PDSIZE
 40
0.0
  9
$PLINEWID
 40
0.0
  9
$COORDS
 70
     1
  9
$SPLFRAME
 70
     0
  9
$SPLINETYPE
 70
     6
  9
$SPLINESEGS
 70
     8
  9
$ATTDIA
 70
     0
  9
$ATTREQ
 70
     1
  9
$HANDLING
 70
-16383
  9
$HANDSEED
  5
1AF
  9
$SURFTAB1
 70
     6
  9
$SURFTAB2
 70
     6
  9
$SURFTYPE
 70
     6
  9
$SURFU
 70
     6
  9
$SURFV
 70
     6
  9
$UCSNAME
  2

  9
$UCSORG
 10
0.0
 20
0.0
 30
0.0
  9
$UCSXDIR
 10
1.0
 20
0.0
 30
0.0
  9
$UCSYDIR
 10
0.0
 20
1.0
 30
0.0
  9
$PUCSNAME
  2

  9
$PUCSORG
 10
0.0
 20
0.0
 30
0.0
  9
$PUCSXDIR
 10
1.0
 20
0.0
 30
0.0
  9
$PUCSYDIR
 10
0.0
 20
1.0
 30
0.0
  9
$USERI1
 70
     0
  9
$USERI2
 70
     0
  9
$USERI3
 70
     0
  9
$USERI4
 70
     0
  9
$USERI5
 70
     0
  9
$USERR1
 40
0.0
  9
$USERR2
 40
0.0
  9
$USERR3
 40
0.0
  9
$USERR4
 40
0.0
  9
$USERR5
 40
0.0
  9
$WORLDVIEW
 70
     1
  9
$SHADEDGE
 70
     3
  9
$SHADEDIF
 70
    70
  9
$TILEMODE
 70
     1
  9
$MAXACTVP
 70
    16
  9
$PINSBASE
 10
0.0
 20
0.0
 30
0.0
  9
$PLIMCHECK
 70
     0
  9
$PEXTMIN
 10
1.000000000000000E+20
 20
1.000000000000000E+20
 30
1.000000000000000E+20
  9
$PEXTMAX
 10
-1.000000000000000E+20
 20
-1.000000000000000E+20
 30
-1.000000000000000E+20
  9
$PLIMMIN
 10
0.0
 20
0.0
  9
$PLIMMAX
 10
12.0
 20
9.0
  9
$UNITMODE
 70
     0
  9
$VISRETAIN
 70
     0
  9
$PLINEGEN
 70
     0
  9
$PSLTSCALE
 70
     1
  9
$TREEDEPTH
 70
  3020
  9
$PICKSTYLE
 70
     1
  9
$CMLSTYLE
  2
STANDARD
  9
$CMLJUST
 70
     0
  9
$CMLSCALE
 40
1.0
  9
$PROXYGRAPHICS
 70
     1
  9
$MEASUREMENT
 70
     0
  0
ENDSEC
  0
SECTION
  2
CLASSES
  0
CLASS
  1
ACDBDICTIONARYWDFLT
  2
AcDbDictionaryWithDefault
  3
AutoCAD 2000
 90
        0
280
     0
281
     0
  0
CLASS
  1
ACDBPLACEHOLDER
  2
AcDbPlaceHolder
  3
AutoCAD 2000
 90
        0
280
     0
281
     0
  0
CLASS
  1
LAYOUT
  2
AcDbLayout
  3
AutoCAD 2000
 90
        0
280
     0
281
     0
  0
CLASS
  1
LONG_TRANSACTION
  2
AcDbLongTransaction
  3
AutoCAD 2000
 90
        0
280
     0
281
     0
  0
CLASS
  1
LWPOLYLINE
  2
AcDbPolyline
  3
AutoCAD 2000
 90
        0
280
     0
281
     1
  0
CLASS
  1
HATCH
  2
AcDbHatch
  3
AutoCAD 2000
 90
        0
280
     0
281
     1
  0
CLASS
  1
XRECORD
  2
AcDbXrecord
  3
AutoCAD 2000
 90
        0
280
     0
281
     0
  0
ENDSEC
  0
SECTION
  2
TABLES
  0
TABLE
  2
VPORT
  5
8
330
0
100
AcDbSymbolTable
 70
     2
  0
VPORT
  5
18A
330
8
100
AcDbSymbolTableRecord
100
AcDbViewportTableRecord
  2
*ACTIVE
 70
     0
 10
0.0
 20
0.0
 11
1.0
 21
1.0
 12
11.8976049992671
 22
9.331007419986191
 13
0.0
 23
0.0
 14
0.03125
 24
0.03125
 15
0.0
 25
0.0
 16
0.0
 26
0.0
 36
1.0
 17
0.0
 27
0.0
 37
0.0
 40
12.84060558568747
 41
1.647569444444444
 42
50.0
 43
0.0
 44
0.0
 50
0.0
 51
0.0
 71
     0
 72
   100
 73
     1
 74
     1
 75
     1
 76
     0
 77
     0
 78
     0
  0
ENDTAB
  0
TABLE
  2
LTYPE
  5
5
330
0
100
AcDbSymbolTable
 70
     4
  0
LTYPE
  5
13
330
5
100
AcDbSymbolTableRecord
100
AcDbLinetypeTableRecord
  2
BYBLOCK
 70
     0
  3

 72
    65
 73
     0
 40
0.0
  0
LTYPE
  5
14
330
5
100
AcDbSymbolTableRecord
100
AcDbLinetypeTableRecord
  2
BYLAYER
 70
     0
  3

 72
    65
 73
     0
 40
0.0
  0
LTYPE
  5
15
330
5
100
AcDbSymbolTableRecord
100
AcDbLinetypeTableRecord
  2
CONTINUOUS
 70
     0
  3
Solid line
 72
    65
 73
     0
 40
0.0
  0
LTYPE
  5
24
330
5
100
AcDbSymbolTableRecord
100
AcDbLinetypeTableRecord
  2
HIDDEN
 70
     0
  3
_ _ _ _ _ _ _ _ _ _ _ _ _ _ _ _ _ _ _ _ _ _ _
 72
    65
 73
     2
 40
0.375
 49
0.25
 74
     0
 49
-0.125
 74
     0
  0
LTYPE
  5
25
330
5
100
AcDbSymbolTableRecord
100
AcDbLinetypeTableRecord
  2
CENTER
 70
     0
  3
____ _ ____ _ ____ _ ____ _ ____ _ ____ _ ____
 72
    65
 73
     4
 40
2.0
 49
1.25
 74
     0
 49
-0.25
 74
     0
 49
0.25
 74
     0
 49
-0.25
 74
     0
  0
LTYPE
  5
26
330
5
100
AcDbSymbolTableRecord
100
AcDbLinetypeTableRecord
  2
PHANTOM
 70
     0
  3
_____ _ _ _____ _ _ _____ _ _ _____ _ _ ____
 72
    65
 73
     6
 40
2.5
 49
1.25
 74
     0
 49
-0.25
 74
     0
 49
0.25
 74
     0
 49
-0.25
 74
     0
 49
0.25
 74
     0
 49
-0.25
 74
     0
  0
ENDTAB
  0
TABLE
  2
LAYER
  5
2
330
0
100
AcDbSymbolTable
 70
     8
  0
LAYER
  5
10
330
2
100
AcDbSymbolTableRecord
100
AcDbLayerTableRecord
  2
0
 70
     0
 62
     7
  6
CONTINUOUS
  0
LAYER
  5
22
330
2
100
AcDbSymbolTableRecord
100
AcDbLayerTableRecord
  2
DAMAN
 70
     0
 62
     5
  6
CONTINUOUS
  0
LAYER
  5
27
330
2
100
AcDbSymbolTableRecord
100
AcDbLayerTableRecord
  2
BORDER
 70
     0
 62
     7
  6
CONTINUOUS
  0
LAYER
  5
28
330
2
100
AcDbSymbolTableRecord
100
AcDbLayerTableRecord
  2
CSOLID
 70
     0
 62
     3
  6
CONTINUOUS
  0
LAYER
  5
29
330
2
100
AcDbSymbolTableRecord
100
AcDbLayerTableRecord
  2
CHIDDEN
 70
     0
 62
     3
  6
HIDDEN
  0
LAYER
  5
2A
330
2
100
AcDbSymbolTableRecord
100
AcDbLayerTableRecord
  2
CDIM
 70
     0
 62
     2
  6
CONTINUOUS
  0
LAYER
  5
2B
330
2
100
AcDbSymbolTableRecord
100
AcDbLayerTableRecord
  2
CCENTER
 70
     0
 62
     4
  6
CENTER
  0
LAYER
  5
2C
330
2
100
AcDbSymbolTableRecord
100
AcDbLayerTableRecord
  2
PHANTOM
 70
     0
 62
     1
  6
PHANTOM
  0
ENDTAB
  0
TABLE
  2
STYLE
  5
3
330
0
100
AcDbSymbolTable
 70
     2
  0
STYLE
  5
11
330
3
100
AcDbSymbolTableRecord
100
AcDbTextStyleTableRecord
  2
STANDARD
 70
     0
 40
0.0
 41
1.0
 50
0.0
 71
     0
 42
0.188
  3
txt
  4

  0
STYLE
  5
2D
330
3
100
AcDbSymbolTableRecord
100
AcDbTextStyleTableRecord
  2
STR
 70
     0
 40
0.0
 41
1.0
 50
0.0
 71
     0
 42
0.25
  3
SIMPLEX
  4

  0
ENDTAB
  0
TABLE
  2
VIEW
  5
6
330
0
100
AcDbSymbolTable
 70
     0
  0
ENDTAB
  0
TABLE
  2
UCS
  5
7
330
0
100
AcDbSymbolTable
 70
     0
  0
ENDTAB
  0
TABLE
  2
APPID
  5
9
330
0
100
AcDbSymbolTable
 70
     1
  0
APPID
  5
12
330
9
100
AcDbSymbolTableRecord
100
AcDbRegAppTableRecord
  2
ACAD
 70
     0
  0
ENDTAB
  0
TABLE
  2
DIMSTYLE
  5
A
330
0
100
AcDbSymbolTable
 70
     1
  0
DIMSTYLE
105
189
330
A
100
AcDbSymbolTableRecord
100
AcDbDimStyleTableRecord
  2
STANDARD
 70
     0
  3

  4

  5

  6

  7

 40
1.0
 41
0.18
 42
0.0625
 43
0.38
 44
0.18
 45
0.0
 46
0.0
 47
0.0
 48
0.0
140
0.18
141
0.09
142
0.0
143
25.4
144
1.0
145
0.0
146
1.0
147
0.09
 71
     0
 72
     0
 73
     1
 74
     1
 75
     0
 76
     0
 77
     0
 78
     0
170
     0
171
     2
172
     0
173
     0
174
     0
175
     0
176
     0
177
     0
178
     0
270
     2
271
     4
272
     4
273
     2
274
     2
340
11
275
     0
280
     0
281
     0
282
     0
283
     1
284
     0
285
     0
286
     0
287
     3
288
     0
  0
ENDTAB
  0
TABLE
  2
BLOCK_RECORD
  5
1
330
0
100
AcDbSymbolTable
 70
     7
  0
BLOCK_RECORD
  5
1E
102
{ACAD_XDICTIONARY
360
1AD
102
}
330
1
100
AcDbSymbolTableRecord
100
AcDbBlockTableRecord
  2
*MODEL_SPACE
  0
BLOCK_RECORD
  5
1A
102
{ACAD_XDICTIONARY
360
1AB
102
}
330
1
100
AcDbSymbolTableRecord
100
AcDbBlockTableRecord
  2
*PAPER_SPACE
  0
BLOCK_RECORD
  5
30
330
1
100
AcDbSymbolTableRecord
100
AcDbBlockTableRecord
  2
D05SPSB
  0
BLOCK_RECORD
  5
4A
330
1
100
AcDbSymbolTableRecord
100
AcDbBlockTableRecord
  2
100CROSS
  0
BLOCK_RECORD
  5
67
330
1
100
AcDbSymbolTableRecord
100
AcDbBlockTableRecord
  2
050NPTFT
  0
BLOCK_RECORD
  5
111
330
1
100
AcDbSymbolTableRecord
100
AcDbBlockTableRecord
  2
050CROSS
  0
BLOCK_RECORD
  5
11D
330
1
100
AcDbSymbolTableRecord
100
AcDbBlockTableRecord
  2
500NPTFT
  0
BLOCK_RECORD
  5
126
330
1
100
AcDbSymbolTableRecord
100
AcDbBlockTableRecord
  2
M18T
  0
BLOCK_RECORD
  5
12F
330
1
100
AcDbSymbolTableRecord
100
AcDbBlockTableRecord
  2
08SAET
  0
ENDTAB
  0
ENDSEC
  0
SECTION
  2
BLOCKS
  0
BLOCK
  5
1F
330
1E
100
AcDbEntity
  8
0
100
AcDbBlockBegin
  2
*MODEL_SPACE
 70
     0
 10
0.0
 20
0.0
 30
0.0
  3
*MODEL_SPACE
  1

  0
ENDBLK
  5
20
330
1E
100
AcDbEntity
  8
0
100
AcDbBlockEnd
  0
BLOCK
  5
1B
330
1A
100
AcDbEntity
 67
     1
  8
0
100
AcDbBlockBegin
  2
*PAPER_SPACE
 70
     0
 10
0.0
 20
0.0
 30
0.0
  3
*PAPER_SPACE
  1

  0
ENDBLK
  5
1C
330
1A
100
AcDbEntity
 67
     1
  8
0
100
AcDbBlockEnd
  0
BLOCK
  5
31
330
30
100
AcDbEntity
  8
0
100
AcDbBlockBegin
  2
D05SPSB
 70
     0
 10
0.0
 20
0.0
 30
0.0
  3
D05SPSB
  1

  0
LWPOLYLINE
  5
32
330
30
100
AcDbEntity
  8
BORDER
100
AcDbPolyline
 90
        4
 70
     1
 43
0.0
 10
2.0
 20
6.0
 10
2.0
 20
10.0
 10
4.0
 20
10.0
 10
4.0
 20
6.0
  0
LWPOLYLINE
  5
38
330
30
100
AcDbEntity
  8
BORDER
100
AcDbPolyline
 90
        4
 70
     1
 43
0.0
 10
11.5
 20
6.0
 10
11.5
 20
10.0
 10
13.5
 20
10.0
 10
13.5
 20
6.0
  0
LWPOLYLINE
  5
3E
330
30
100
AcDbEntity
  8
BORDER
100
AcDbPolyline
 90
        4
 70
     1
 43
0.0
 10
6.0
 20
6.0
 10
6.0
 20
10.0
 10
9.5
 20
10.0
 10
9.5
 20
6.0
  0
LWPOLYLINE
  5
44
330
30
100
AcDbEntity
  8
BORDER
100
AcDbPolyline
 90
        4
 70
     1
 43
0.0
 10
15.5
 20
6.0
 10
15.5
 20
10.0
 10
19.0
 20
10.0
 10
19.0
 20
6.0
  0
INSERT
  5
4B
330
30
100
AcDbEntity
  8
CCENTER
100
AcDbBlockReference
  2
100CROSS
 10
8.0
 20
8.000249999999999
 30
0.0
 41
0.4379999999999999
 42
0.4379999999999999
  0
CIRCLE
  5
4C
330
30
100
AcDbEntity
  8
CSOLID
100
AcDbCircle
 10
8.0
 20
8.000249999999999
 30
0.0
 40
0.21875
  0
CIRCLE
  5
4D
330
30
100
AcDbEntity
  8
CSOLID
100
AcDbCircle
 10
7.406
 20
7.593999999999999
 30
0.0
 40
0.21875
  0
INSERT
  5
4E
330
30
100
AcDbEntity
  8
CCENTER
100
AcDbBlockReference
  2
100CROSS
 10
7.406
 20
7.593999999999999
 30
0.0
 41
0.4379999999999999
 42
0.4379999999999999
  0
INSERT
  5
4F
330
30
100
AcDbEntity
  8
CCENTER
100
AcDbBlockReference
  2
100CROSS
 10
7.406
 20
8.406499999999999
 30
0.0
 41
0.4379999999999999
 42
0.4379999999999999
  0
CIRCLE
  5
50
330
30
100
AcDbEntity
  8
CSOLID
100
AcDbCircle
 10
7.406
 20
8.406499999999999
 30
0.0
 40
0.21875
  0
CIRCLE
  5
51
330
30
100
AcDbEntity
  8
CSOLID
100
AcDbCircle
 10
6.968499999999999
 20
8.9375
 30
0.0
 40
0.21875
  0
INSERT
  5
52
330
30
100
AcDbEntity
  8
CCENTER
100
AcDbBlockReference
  2
100CROSS
 10
6.968499999999999
 20
8.9375
 30
0.0
 41
0.4379999999999999
 42
0.4379999999999999
  0
INSERT
  5
53
330
30
100
AcDbEntity
  8
CCENTER
100
AcDbBlockReference
  2
100CROSS
 10
8.25
 20
6.9375
 30
0.0
 41
0.25
 42
0.25
  0
CIRCLE
  5
54
330
30
100
AcDbEntity
  8
CSOLID
100
AcDbCircle
 10
8.25
 20
6.9375
 30
0.0
 40
0.1055
  0
INSERT
  5
55
330
30
100
AcDbEntity
  8
CCENTER
100
AcDbBlockReference
  2
100CROSS
 10
8.25
 20
9.0625
 30
0.0
 41
0.25
 42
0.25
  0
CIRCLE
  5
56
330
30
100
AcDbEntity
  8
CSOLID
100
AcDbCircle
 10
8.25
 20
9.0625
 30
0.0
 40
0.1055
  0
INSERT
  5
57
330
30
100
AcDbEntity
  8
CCENTER
100
AcDbBlockReference
  2
100CROSS
 10
6.4375
 20
6.9375
 30
0.0
 41
0.25
 42
0.25
  0
CIRCLE
  5
58
330
30
100
AcDbEntity
  8
CSOLID
100
AcDbCircle
 10
6.4375
 20
6.9375
 30
0.0
 40
0.1055
  0
CIRCLE
  5
59
330
30
100
AcDbEntity
  8
CSOLID
100
AcDbCircle
 10
6.4375
 20
9.0625
 30
0.0
 40
0.1055
  0
INSERT
  5
5A
330
30
100
AcDbEntity
  8
CCENTER
100
AcDbBlockReference
  2
100CROSS
 10
6.4375
 20
9.0625
 30
0.0
 41
0.25
 42
0.25
  0
CIRCLE
  5
5B
330
30
100
AcDbEntity
  8
CHIDDEN
100
AcDbCircle
 10
6.4375
 20
6.9375
 30
0.0
 40
0.125
  0
CIRCLE
  5
5C
330
30
100
AcDbEntity
  8
CHIDDEN
100
AcDbCircle
 10
6.4375
 20
9.0625
 30
0.0
 40
0.125
  0
CIRCLE
  5
5D
330
30
100
AcDbEntity
  8
CHIDDEN
100
AcDbCircle
 10
8.25
 20
6.9375
 30
0.0
 40
0.125
  0
CIRCLE
  5
5E
330
30
100
AcDbEntity
  8
CHIDDEN
100
AcDbCircle
 10
8.25
 20
9.0625
 30
0.0
 40
0.125
  0
INSERT
  5
5F
330
30
100
AcDbEntity
  8
CCENTER
100
AcDbBlockReference
  2
100CROSS
 10
6.375
 20
6.375
 30
0.0
 41
0.625
 42
0.625
 43
0.625
  0
INSERT
  5
60
330
30
100
AcDbEntity
  8
CCENTER
100
AcDbBlockReference
  2
100CROSS
 10
9.125
 20
9.625
 30
0.0
 41
0.625
 42
0.625
 43
0.625
  0
CIRCLE
  5
61
330
30
100
AcDbEntity
  8
CSOLID
100
AcDbCircle
 10
6.375
 20
6.375
 30
0.0
 40
0.3125
  0
CIRCLE
  5
62
330
30
100
AcDbEntity
  8
CSOLID
100
AcDbCircle
 10
6.375
 20
6.375
 30
0.0
 40
0.203125
  0
CIRCLE
  5
63
330
30
100
AcDbEntity
  8
CSOLID
100
AcDbCircle
 10
9.125
 20
9.625
 30
0.0
 40
0.3125
  0
CIRCLE
  5
64
330
30
100
AcDbEntity
  8
CSOLID
100
AcDbCircle
 10
9.125
 20
9.625
 30
0.0
 40
0.203125
  0
CIRCLE
  5
65
330
30
100
AcDbEntity
  8
CSOLID
100
AcDbCircle
 10
12.125
 20
8.5625
 30
0.0
 40
0.21875
  0
CIRCLE
  5
66
330
30
100
AcDbEntity
  8
CSOLID
100
AcDbCircle
 10
12.125
 20
7.4375
 30
0.0
 40
0.21875
  0
INSERT
  5
68
330
30
100
AcDbEntity
  8
CSOLID
100
AcDbBlockReference
  2
050NPTFT
 10
17.90625
 20
9.125
 30
0.0
  0
INSERT
  5
69
330
30
100
AcDbEntity
  8
CSOLID
100
AcDbBlockReference
  2
050NPTFT
 10
17.0
 20
8.0
 30
0.0
  0
CIRCLE
  5
6A
330
30
100
AcDbEntity
  8
CSOLID
100
AcDbCircle
 10
17.0
 20
8.0
 30
0.0
 40
0.21875
  0
INSERT
  5
6B
330
30
100
AcDbEntity
  8
CCENTER
100
AcDbBlockReference
  2
100CROSS
 10
18.625
 20
6.375
 30
0.0
 41
0.625
 42
0.625
 43
0.625
  0
INSERT
  5
6C
330
30
100
AcDbEntity
  8
CCENTER
100
AcDbBlockReference
  2
100CROSS
 10
15.875
 20
9.625
 30
0.0
 41
0.625
 42
0.625
 43
0.625
  0
CIRCLE
  5
6D
330
30
100
AcDbEntity
  8
CSOLID
100
AcDbCircle
 10
15.875
 20
9.625
 30
0.0
 40
0.203125
  0
CIRCLE
  5
6E
330
30
100
AcDbEntity
  8
CSOLID
100
AcDbCircle
 10
18.625
 20
6.375
 30
0.0
 40
0.203125
  0
CIRCLE
  5
6F
330
30
100
AcDbEntity
  8
CSOLID
100
AcDbCircle
 10
2.78125
 20
8.0
 30
0.0
 40
0.3439999999999999
  0
CIRCLE
  5
70
330
30
100
AcDbEntity
  8
CSOLID
100
AcDbCircle
 10
2.78125
 20
8.0
 30
0.0
 40
0.3125
  0
ARC
  5
71
330
30
100
AcDbEntity
  8
CSOLID
100
AcDbCircle
 10
2.78125
 20
8.0
 30
0.0
 40
0.594
100
AcDbArc
 50
108.742946
 51
71.25705400000001
  0
INSERT
  5
72
330
30
100
AcDbEntity
  8
CCENTER
100
AcDbBlockReference
  2
100CROSS
 10
2.78125
 20
8.0
 30
0.0
 41
1.1
 42
1.1
  0
CIRCLE
  5
73
330
30
100
AcDbEntity
  8
CHIDDEN
100
AcDbCircle
 10
2.78125
 20
8.0
 30
0.0
 40
0.375
  0
CIRCLE
  5
74
330
30
100
AcDbEntity
  8
CSOLID
100
AcDbCircle
 10
2.78125
 20
9.125
 30
0.0
 40
0.3439999999999999
  0
CIRCLE
  5
75
330
30
100
AcDbEntity
  8
CSOLID
100
AcDbCircle
 10
2.78125
 20
9.125
 30
0.0
 40
0.3125
  0
ARC
  5
76
330
30
100
AcDbEntity
  8
CSOLID
100
AcDbCircle
 10
2.78125
 20
9.125
 30
0.0
 40
0.594
100
AcDbArc
 50
288.742946
 51
251.257054
  0
INSERT
  5
77
330
30
100
AcDbEntity
  8
CCENTER
100
AcDbBlockReference
  2
100CROSS
 10
2.78125
 20
9.125
 30
0.0
 41
1.1
 42
1.1
  0
CIRCLE
  5
78
330
30
100
AcDbEntity
  8
CHIDDEN
100
AcDbCircle
 10
2.78125
 20
9.125
 30
0.0
 40
0.375
  0
CIRCLE
  5
79
330
30
100
AcDbEntity
  8
CSOLID
100
AcDbCircle
 10
12.125
 20
8.5625
 30
0.0
 40
0.3439999999999999
  0
CIRCLE
  5
7A
330
30
100
AcDbEntity
  8
CSOLID
100
AcDbCircle
 10
12.125
 20
8.5625
 30
0.0
 40
0.3125
  0
ARC
  5
7B
330
30
100
AcDbEntity
  8
CSOLID
100
AcDbCircle
 10
12.125
 20
8.5625
 30
0.0
 40
0.594
100
AcDbArc
 50
288.742946
 51
251.257054
  0
INSERT
  5
7C
330
30
100
AcDbEntity
  8
CCENTER
100
AcDbBlockReference
  2
100CROSS
 10
12.125
 20
8.5625
 30
0.0
 41
1.1
 42
1.1
  0
CIRCLE
  5
7D
330
30
100
AcDbEntity
  8
CHIDDEN
100
AcDbCircle
 10
12.125
 20
8.5625
 30
0.0
 40
0.375
  0
CIRCLE
  5
7E
330
30
100
AcDbEntity
  8
CSOLID
100
AcDbCircle
 10
12.125
 20
7.4375
 30
0.0
 40
0.3439999999999999
  0
CIRCLE
  5
7F
330
30
100
AcDbEntity
  8
CSOLID
100
AcDbCircle
 10
12.125
 20
7.4375
 30
0.0
 40
0.3125
  0
ARC
  5
80
330
30
100
AcDbEntity
  8
CSOLID
100
AcDbCircle
 10
12.125
 20
7.4375
 30
0.0
 40
0.594
100
AcDbArc
 50
108.742946
 51
71.25705400000001
  0
INSERT
  5
81
330
30
100
AcDbEntity
  8
CCENTER
100
AcDbBlockReference
  2
100CROSS
 10
12.125
 20
7.4375
 30
0.0
 41
1.1
 42
1.1
  0
CIRCLE
  5
82
330
30
100
AcDbEntity
  8
CHIDDEN
100
AcDbCircle
 10
12.125
 20
7.4375
 30
0.0
 40
0.375
  0
TEXT
  5
83
330
30
100
AcDbEntity
  8
CDIM
100
AcDbText
 10
3.375
 20
9.625
 30
0.0
 40
0.25
  1
T
 50
270.0
  7
STR
100
AcDbText
  0
TEXT
  5
84
330
30
100
AcDbEntity
  8
CDIM
100
AcDbText
 10
3.375
 20
7.75
 30
0.0
 40
0.25
  1
P
 50
270.0
  7
STR
100
AcDbText
  0
TEXT
  5
85
330
30
100
AcDbEntity
  8
CDIM
100
AcDbText
 10
11.875
 20
9.1875
 30
0.0
 40
0.25
  1
A
 50
90.0
  7
STR
100
AcDbText
  0
TEXT
  5
86
330
30
100
AcDbEntity
  8
CDIM
100
AcDbText
 10
11.875
 20
6.6875
 30
0.0
 40
0.25
  1
B
 50
90.0
  7
STR
100
AcDbText
  0
TEXT
  5
87
330
30
100
AcDbEntity
  8
CDIM
100
AcDbText
 10
16.4375
 20
8.4375
 30
0.0
 40
0.25
  1
P
  7
STR
100
AcDbText
  0
TEXT
  5
88
330
30
100
AcDbEntity
  8
CDIM
100
AcDbText
 10
18.53125
 20
9.40625
 30
0.0
 40
0.25
  1
T
  7
STR
100
AcDbText
  0
LINE
  5
89
330
30
100
AcDbEntity
  8
CDIM
100
AcDbLine
 10
2.0
 20
10.1275
 30
0.0
 11
2.0
 21
10.8175
 31
0.0
  0
LINE
  5
8A
330
30
100
AcDbEntity
  8
CDIM
100
AcDbLine
 10
2.78125
 20
9.5965
 30
0.0
 11
2.78125
 21
10.8175
 31
0.0
  0
LINE
  5
8B
330
30
100
AcDbEntity
  8
CDIM
100
AcDbLine
 10
3.036249999999999
 20
10.5625
 30
0.0
 11
3.291249999999999
 21
10.5625
 31
0.0
  0
LINE
  5
8C
330
30
100
AcDbEntity
  8
CDIM
100
AcDbLine
 10
1.745
 20
10.5625
 30
0.0
 11
1.49
 21
10.5625
 31
0.0
  0
SOLID
  5
8D
330
30
100
AcDbEntity
  8
CDIM
100
AcDbTrace
 10
3.036249999999999
 20
10.52
 30
0.0
 11
3.036249999999999
 21
10.60499999999999
 31
0.0
 12
2.78125
 22
10.5625
 32
0.0
 13
2.78125
 23
10.5625
 33
0.0
  0
SOLID
  5
8E
330
30
100
AcDbEntity
  8
CDIM
100
AcDbTrace
 10
1.745
 20
10.52
 30
0.0
 11
1.745
 21
10.60499999999999
 31
0.0
 12
2.0
 22
10.5625
 32
0.0
 13
2.0
 23
10.5625
 33
0.0
  0
TEXT
  5
8F
330
30
100
AcDbEntity
  8
CDIM
100
AcDbText
 10
3.54625
 20
10.4197
 30
0.0
 40
0.2856
  1
0.78
  7
STR
100
AcDbText
  0
LINE
  5
90
330
30
100
AcDbEntity
  8
CDIM
100
AcDbLine
 10
2.0
 20
10.1275
 30
0.0
 11
2.0
 21
11.5825
 31
0.0
  0
LINE
  5
91
330
30
100
AcDbEntity
  8
CDIM
100
AcDbLine
 10
4.0
 20
10.1275
 30
0.0
 11
4.0
 21
10.28124999999999
 31
0.0
  0
LINE
  5
92
330
30
100
AcDbEntity
  8
CDIM
100
AcDbLine
 10
2.254999999999999
 20
11.3275
 30
0.0
 11
2.3098
 21
11.3275
 31
0.0
  0
LINE
  5
93
330
30
100
AcDbEntity
  8
CDIM
100
AcDbLine
 10
3.745
 20
11.3275
 30
0.0
 11
3.690199999999999
 21
11.3275
 31
0.0
  0
SOLID
  5
94
330
30
100
AcDbEntity
  8
CDIM
100
AcDbTrace
 10
2.254999999999999
 20
11.285
 30
0.0
 11
2.254999999999999
 21
11.37
 31
0.0
 12
2.0
 22
11.3275
 32
0.0
 13
2.0
 23
11.3275
 33
0.0
  0
SOLID
  5
95
330
30
100
AcDbEntity
  8
CDIM
100
AcDbTrace
 10
3.745
 20
11.285
 30
0.0
 11
3.745
 21
11.37
 31
0.0
 12
4.0
 22
11.3275
 32
0.0
 13
4.0
 23
11.3275
 33
0.0
  0
TEXT
  5
96
330
30
100
AcDbEntity
  8
CDIM
100
AcDbText
 10
2.564799999999999
 20
11.1847
 30
0.0
 40
0.2856
  1
2.00
  7
STR
100
AcDbText
  0
LINE
  5
97
330
30
100
AcDbEntity
  8
CDIM
100
AcDbLine
 10
5.872499999999999
 20
10.0
 30
0.0
 11
5.12
 21
10.0
 31
0.0
  0
LINE
  5
98
330
30
100
AcDbEntity
  8
CDIM
100
AcDbLine
 10
8.09125
 20
8.000249999999999
 30
0.0
 11
5.12
 21
8.000249999999999
 31
0.0
  0
LINE
  5
99
330
30
100
AcDbEntity
  8
CDIM
100
AcDbLine
 10
5.375
 20
9.744999999999999
 30
0.0
 11
5.375
 21
9.397925
 31
0.0
  0
LINE
  5
9A
330
30
100
AcDbEntity
  8
CDIM
100
AcDbLine
 10
5.375
 20
8.25525
 30
0.0
 11
5.375
 21
8.602325
 31
0.0
  0
SOLID
  5
9B
330
30
100
AcDbEntity
  8
CDIM
100
AcDbTrace
 10
5.4175
 20
9.744999999999999
 30
0.0
 11
5.332499999999999
 21
9.744999999999999
 31
0.0
 12
5.375
 22
10.0
 32
0.0
 13
5.375
 23
10.0
 33
0.0
  0
SOLID
  5
9C
330
30
100
AcDbEntity
  8
CDIM
100
AcDbTrace
 10
5.4175
 20
8.25525
 30
0.0
 11
5.332499999999999
 21
8.25525
 31
0.0
 12
5.375
 22
8.000249999999999
 32
0.0
 13
5.375
 23
8.000249999999999
 33
0.0
  0
TEXT
  5
9D
330
30
100
AcDbEntity
  8
CDIM
100
AcDbText
 10
4.939799999999999
 20
8.857324999999999
 30
0.0
 40
0.2856
  1
2.00
  7
STR
100
AcDbText
  0
LINE
  5
9E
330
30
100
AcDbEntity
  8
CDIM
100
AcDbLine
 10
5.872499999999999
 20
10.0
 30
0.0
 11
4.355
 21
10.0
 31
0.0
  0
LINE
  5
9F
330
30
100
AcDbEntity
  8
CDIM
100
AcDbLine
 10
5.872499999999999
 20
6.0
 30
0.0
 11
4.355
 21
6.0
 31
0.0
  0
LINE
  5
A0
330
30
100
AcDbEntity
  8
CDIM
100
AcDbLine
 10
4.61
 20
9.744999999999999
 30
0.0
 11
4.61
 21
7.9603
 31
0.0
  0
LINE
  5
A1
330
30
100
AcDbEntity
  8
CDIM
100
AcDbLine
 10
4.61
 20
6.254999999999999
 30
0.0
 11
4.61
 21
7.164699999999999
 31
0.0
  0
SOLID
  5
A2
330
30
100
AcDbEntity
  8
CDIM
100
AcDbTrace
 10
4.652499999999999
 20
9.744999999999999
 30
0.0
 11
4.567499999999999
 21
9.744999999999999
 31
0.0
 12
4.61
 22
10.0
 32
0.0
 13
4.61
 23
10.0
 33
0.0
  0
SOLID
  5
A3
330
30
100
AcDbEntity
  8
CDIM
100
AcDbTrace
 10
4.652499999999999
 20
6.254999999999999
 30
0.0
 11
4.567499999999999
 21
6.254999999999999
 31
0.0
 12
4.61
 22
6.0
 32
0.0
 13
4.61
 23
6.0
 33
0.0
  0
TEXT
  5
A4
330
30
100
AcDbEntity
  8
CDIM
100
AcDbText
 10
4.1748
 20
7.419699999999999
 30
0.0
 40
0.2856
  1
4.00
  7
STR
100
AcDbText
  0
LINE
  5
A5
330
30
100
AcDbEntity
  8
CDIM
100
AcDbLine
 10
1.8725
 20
10.0
 30
0.0
 11
1.12
 21
10.0
 31
0.0
  0
LINE
  5
A6
330
30
100
AcDbEntity
  8
CDIM
100
AcDbLine
 10
2.30975
 20
9.125
 30
0.0
 11
1.12
 21
9.125
 31
0.0
  0
LINE
  5
A7
330
30
100
AcDbEntity
  8
CDIM
100
AcDbLine
 10
1.375
 20
8.869999999999999
 30
0.0
 11
1.375
 21
8.615
 31
0.0
  0
LINE
  5
A8
330
30
100
AcDbEntity
  8
CDIM
100
AcDbLine
 10
1.375
 20
10.255
 30
0.0
 11
1.375
 21
10.50999999999999
 31
0.0
  0
SOLID
  5
A9
330
30
100
AcDbEntity
  8
CDIM
100
AcDbTrace
 10
1.417499999999999
 20
8.869999999999999
 30
0.0
 11
1.3325
 21
8.869999999999999
 31
0.0
 12
1.375
 22
9.125
 32
0.0
 13
1.375
 23
9.125
 33
0.0
  0
SOLID
  5
AA
330
30
100
AcDbEntity
  8
CDIM
100
AcDbTrace
 10
1.417499999999999
 20
10.255
 30
0.0
 11
1.3325
 21
10.255
 31
0.0
 12
1.375
 22
10.0
 32
0.0
 13
1.375
 23
10.0
 33
0.0
  0
TEXT
  5
AB
330
30
100
AcDbEntity
  8
CDIM
100
AcDbText
 10
0.9320999999999999
 20
9.4097
 30
0.0
 40
0.2856
  1
0.88
  7
STR
100
AcDbText
  0
LINE
  5
AC
330
30
100
AcDbEntity
  8
CDIM
100
AcDbLine
 10
1.8725
 20
10.0
 30
0.0
 11
0.355
 21
10.0
 31
0.0
  0
LINE
  5
AD
330
30
100
AcDbEntity
  8
CDIM
100
AcDbLine
 10
2.34125
 20
8.0
 30
0.0
 11
0.355
 21
8.0
 31
0.0
  0
LINE
  5
AE
330
30
100
AcDbEntity
  8
CDIM
100
AcDbLine
 10
0.61
 20
9.744999999999999
 30
0.0
 11
0.61
 21
9.24155
 31
0.0
  0
LINE
  5
AF
330
30
100
AcDbEntity
  8
CDIM
100
AcDbLine
 10
0.61
 20
8.255
 30
0.0
 11
0.61
 21
8.445949999999999
 31
0.0
  0
SOLID
  5
B0
330
30
100
AcDbEntity
  8
CDIM
100
AcDbTrace
 10
0.6525
 20
9.744999999999999
 30
0.0
 11
0.5675
 21
9.744999999999999
 31
0.0
 12
0.61
 22
10.0
 32
0.0
 13
0.61
 23
10.0
 33
0.0
  0
SOLID
  5
B1
330
30
100
AcDbEntity
  8
CDIM
100
AcDbTrace
 10
0.6525
 20
8.255
 30
0.0
 11
0.5675
 21
8.255
 31
0.0
 12
0.61
 22
8.0
 32
0.0
 13
0.61
 23
8.0
 33
0.0
  0
TEXT
  5
B2
330
30
100
AcDbEntity
  8
CDIM
100
AcDbText
 10
0.1748
 20
8.70095
 30
0.0
 40
0.2856
  1
2.00
  7
STR
100
AcDbText
  0
LINE
  5
B3
330
30
100
AcDbEntity
  8
CDIM
100
AcDbLine
 10
6.0
 20
10.1275
 30
0.0
 11
6.0
 21
10.8175
 31
0.0
  0
LINE
  5
B4
330
30
100
AcDbEntity
  8
CDIM
100
AcDbLine
 10
8.0
 20
8.12775
 30
0.0
 11
8.0
 21
10.8175
 31
0.0
  0
LINE
  5
B5
330
30
100
AcDbEntity
  8
CDIM
100
AcDbLine
 10
6.254999999999999
 20
10.5625
 30
0.0
 11
6.3098
 21
10.5625
 31
0.0
  0
LINE
  5
B6
330
30
100
AcDbEntity
  8
CDIM
100
AcDbLine
 10
7.745
 20
10.5625
 30
0.0
 11
7.690199999999999
 21
10.5625
 31
0.0
  0
SOLID
  5
B7
330
30
100
AcDbEntity
  8
CDIM
100
AcDbTrace
 10
6.254999999999999
 20
10.52
 30
0.0
 11
6.254999999999999
 21
10.60499999999999
 31
0.0
 12
6.0
 22
10.5625
 32
0.0
 13
6.0
 23
10.5625
 33
0.0
  0
SOLID
  5
B8
330
30
100
AcDbEntity
  8
CDIM
100
AcDbTrace
 10
7.745
 20
10.52
 30
0.0
 11
7.745
 21
10.60499999999999
 31
0.0
 12
8.0
 22
10.5625
 32
0.0
 13
8.0
 23
10.5625
 33
0.0
  0
TEXT
  5
B9
330
30
100
AcDbEntity
  8
CDIM
100
AcDbText
 10
6.564799999999999
 20
10.4197
 30
0.0
 40
0.2856
  1
2.00
  7
STR
100
AcDbText
  0
LINE
  5
BA
330
30
100
AcDbEntity
  8
CDIM
100
AcDbLine
 10
6.0
 20
10.1275
 30
0.0
 11
6.0
 21
11.5825
 31
0.0
  0
LINE
  5
BB
330
30
100
AcDbEntity
  8
CDIM
100
AcDbLine
 10
9.5
 20
10.1275
 30
0.0
 11
9.5
 21
11.5825
 31
0.0
  0
LINE
  5
BC
330
30
100
AcDbEntity
  8
CDIM
100
AcDbLine
 10
6.254999999999999
 20
11.3275
 30
0.0
 11
7.0598
 21
11.3275
 31
0.0
  0
LINE
  5
BD
330
30
100
AcDbEntity
  8
CDIM
100
AcDbLine
 10
9.244999999999999
 20
11.3275
 30
0.0
 11
8.4402
 21
11.3275
 31
0.0
  0
SOLID
  5
BE
330
30
100
AcDbEntity
  8
CDIM
100
AcDbTrace
 10
6.254999999999999
 20
11.285
 30
0.0
 11
6.254999999999999
 21
11.37
 31
0.0
 12
6.0
 22
11.3275
 32
0.0
 13
6.0
 23
11.3275
 33
0.0
  0
SOLID
  5
BF
330
30
100
AcDbEntity
  8
CDIM
100
AcDbTrace
 10
9.244999999999999
 20
11.285
 30
0.0
 11
9.244999999999999
 21
11.37
 31
0.0
 12
9.5
 22
11.3275
 32
0.0
 13
9.5
 23
11.3275
 33
0.0
  0
TEXT
  5
C0
330
30
100
AcDbEntity
  8
CDIM
100
AcDbText
 10
7.314799999999999
 20
11.1847
 30
0.0
 40
0.2856
  1
3.50
  7
STR
100
AcDbText
  0
LINE
  5
C1
330
30
100
AcDbEntity
  8
CDIM
100
AcDbLine
 10
6.0
 20
5.872499999999999
 30
0.0
 11
6.0
 21
5.1825
 31
0.0
  0
LINE
  5
C2
330
30
100
AcDbEntity
  8
CDIM
100
AcDbLine
 10
6.375
 20
6.247499999999999
 30
0.0
 11
6.375
 21
5.1825
 31
0.0
  0
LINE
  5
C3
330
30
100
AcDbEntity
  8
CDIM
100
AcDbLine
 10
6.629999999999999
 20
5.4375
 30
0.0
 11
6.884999999999999
 21
5.4375
 31
0.0
  0
LINE
  5
C4
330
30
100
AcDbEntity
  8
CDIM
100
AcDbLine
 10
5.745
 20
5.4375
 30
0.0
 11
5.49
 21
5.4375
 31
0.0
  0
SOLID
  5
C5
330
30
100
AcDbEntity
  8
CDIM
100
AcDbTrace
 10
6.629999999999999
 20
5.394999999999999
 30
0.0
 11
6.629999999999999
 21
5.48
 31
0.0
 12
6.375
 22
5.4375
 32
0.0
 13
6.375
 23
5.4375
 33
0.0
  0
SOLID
  5
C6
330
30
100
AcDbEntity
  8
CDIM
100
AcDbTrace
 10
5.745
 20
5.394999999999999
 30
0.0
 11
5.745
 21
5.48
 31
0.0
 12
6.0
 22
5.4375
 32
0.0
 13
6.0
 23
5.4375
 33
0.0
  0
TEXT
  5
C7
330
30
100
AcDbEntity
  8
CDIM
100
AcDbText
 10
7.139999999999999
 20
5.294699999999999
 30
0.0
 40
0.2856
  1
0.37
  7
STR
100
AcDbText
  0
LINE
  5
C8
330
30
100
AcDbEntity
  8
CDIM
100
AcDbLine
 10
6.0
 20
5.872499999999999
 30
0.0
 11
6.0
 21
4.4175
 31
0.0
  0
LINE
  5
C9
330
30
100
AcDbEntity
  8
CDIM
100
AcDbLine
 10
9.125
 20
9.4975
 30
0.0
 11
9.125
 21
4.4175
 31
0.0
  0
LINE
  5
CA
330
30
100
AcDbEntity
  8
CDIM
100
AcDbLine
 10
6.254999999999999
 20
4.6725
 30
0.0
 11
6.899499999999999
 21
4.6725
 31
0.0
  0
LINE
  5
CB
330
30
100
AcDbEntity
  8
CDIM
100
AcDbLine
 10
8.869999999999999
 20
4.6725
 30
0.0
 11
8.2255
 21
4.6725
 31
0.0
  0
SOLID
  5
CC
330
30
100
AcDbEntity
  8
CDIM
100
AcDbTrace
 10
6.254999999999999
 20
4.629999999999999
 30
0.0
 11
6.254999999999999
 21
4.714999999999999
 31
0.0
 12
6.0
 22
4.6725
 32
0.0
 13
6.0
 23
4.6725
 33
0.0
  0
SOLID
  5
CD
330
30
100
AcDbEntity
  8
CDIM
100
AcDbTrace
 10
8.869999999999999
 20
4.629999999999999
 30
0.0
 11
8.869999999999999
 21
4.714999999999999
 31
0.0
 12
9.125
 22
4.6725
 32
0.0
 13
9.125
 23
4.6725
 33
0.0
  0
TEXT
  5
CE
330
30
100
AcDbEntity
  8
CDIM
100
AcDbText
 10
7.154499999999999
 20
4.5297
 30
0.0
 40
0.2856
  1
3.13
  7
STR
100
AcDbText
  0
LINE
  5
CF
330
30
100
AcDbEntity
  8
CDIM
100
AcDbLine
 10
13.5
 20
10.1275
 30
0.0
 11
13.5
 21
10.8175
 31
0.0
  0
LINE
  5
D0
330
30
100
AcDbEntity
  8
CDIM
100
AcDbLine
 10
12.125
 20
9.033999999999998
 30
0.0
 11
12.125
 21
10.8175
 31
0.0
  0
LINE
  5
D1
330
30
100
AcDbEntity
  8
CDIM
100
AcDbLine
 10
11.87
 20
10.5625
 30
0.0
 11
11.61499999999999
 21
10.5625
 31
0.0
  0
LINE
  5
D2
330
30
100
AcDbEntity
  8
CDIM
100
AcDbLine
 10
13.755
 20
10.5625
 30
0.0
 11
14.00999999999999
 21
10.5625
 31
0.0
  0
SOLID
  5
D3
330
30
100
AcDbEntity
  8
CDIM
100
AcDbTrace
 10
11.87
 20
10.52
 30
0.0
 11
11.87
 21
10.60499999999999
 31
0.0
 12
12.125
 22
10.5625
 32
0.0
 13
12.125
 23
10.5625
 33
0.0
  0
SOLID
  5
D4
330
30
100
AcDbEntity
  8
CDIM
100
AcDbTrace
 10
13.755
 20
10.52
 30
0.0
 11
13.755
 21
10.60499999999999
 31
0.0
 12
13.5
 22
10.5625
 32
0.0
 13
13.5
 23
10.5625
 33
0.0
  0
TEXT
  5
D5
330
30
100
AcDbEntity
  8
CDIM
100
AcDbText
 10
12.419
 20
10.4197
 30
0.0
 40
0.2856
  1
1.38
  7
STR
100
AcDbText
  0
LINE
  5
D6
330
30
100
AcDbEntity
  8
CDIM
100
AcDbLine
 10
9.627499999999999
 20
10.0
 30
0.0
 11
10.28625
 21
10.0
 31
0.0
  0
LINE
  5
D7
330
30
100
AcDbEntity
  8
CDIM
100
AcDbLine
 10
9.252499999999999
 20
9.625
 30
0.0
 11
10.28625
 21
9.625
 31
0.0
  0
LINE
  5
D8
330
30
100
AcDbEntity
  8
CDIM
100
AcDbLine
 10
10.03125
 20
9.369999999999999
 30
0.0
 11
10.03125
 21
9.115
 31
0.0
  0
LINE
  5
D9
330
30
100
AcDbEntity
  8
CDIM
100
AcDbLine
 10
10.03125
 20
10.255
 30
0.0
 11
10.03125
 21
10.50999999999999
 31
0.0
  0
SOLID
  5
DA
330
30
100
AcDbEntity
  8
CDIM
100
AcDbTrace
 10
10.07375
 20
9.369999999999999
 30
0.0
 11
9.988749999999999
 21
9.369999999999999
 31
0.0
 12
10.03125
 22
9.625
 32
0.0
 13
10.03125
 23
9.625
 33
0.0
  0
SOLID
  5
DB
330
30
100
AcDbEntity
  8
CDIM
100
AcDbTrace
 10
10.07375
 20
10.255
 30
0.0
 11
9.988749999999999
 21
10.255
 31
0.0
 12
10.03125
 22
10.0
 32
0.0
 13
10.03125
 23
10.0
 33
0.0
  0
TEXT
  5
DC
330
30
100
AcDbEntity
  8
CDIM
100
AcDbText
 10
9.65085
 20
8.6597
 30
0.0
 40
0.2856
  1
0.37
  7
STR
100
AcDbText
  0
LINE
  5
DD
330
30
100
AcDbEntity
  8
CDIM
100
AcDbLine
 10
9.627499999999999
 20
10.0
 30
0.0
 11
11.05124999999999
 21
10.0
 31
0.0
  0
LINE
  5
DE
330
30
100
AcDbEntity
  8
CDIM
100
AcDbLine
 10
6.5025
 20
6.375
 30
0.0
 11
11.05124999999999
 21
6.375
 31
0.0
  0
LINE
  5
DF
330
30
100
AcDbEntity
  8
CDIM
100
AcDbLine
 10
10.79625
 20
9.744999999999999
 30
0.0
 11
10.79625
 21
8.5853
 31
0.0
  0
LINE
  5
E0
330
30
100
AcDbEntity
  8
CDIM
100
AcDbLine
 10
10.79625
 20
6.629999999999999
 30
0.0
 11
10.79625
 21
7.789699999999999
 31
0.0
  0
SOLID
  5
E1
330
30
100
AcDbEntity
  8
CDIM
100
AcDbTrace
 10
10.83874999999999
 20
9.744999999999999
 30
0.0
 11
10.75374999999999
 21
9.744999999999999
 31
0.0
 12
10.79625
 22
10.0
 32
0.0
 13
10.79625
 23
10.0
 33
0.0
  0
SOLID
  5
E2
330
30
100
AcDbEntity
  8
CDIM
100
AcDbTrace
 10
10.83874999999999
 20
6.629999999999999
 30
0.0
 11
10.75374999999999
 21
6.629999999999999
 31
0.0
 12
10.79625
 22
6.375
 32
0.0
 13
10.79625
 23
6.375
 33
0.0
  0
TEXT
  5
E3
330
30
100
AcDbEntity
  8
CDIM
100
AcDbText
 10
10.36105
 20
8.0447
 30
0.0
 40
0.2856
  1
3.63
  7
STR
100
AcDbText
  0
LINE
  5
E4
330
30
100
AcDbEntity
  8
CDIM
100
AcDbLine
 10
13.6275
 20
10.0
 30
0.0
 11
14.38
 21
10.0
 31
0.0
  0
LINE
  5
E5
330
30
100
AcDbEntity
  8
CDIM
100
AcDbLine
 10
12.56499999999999
 20
8.5625
 30
0.0
 11
14.38
 21
8.5625
 31
0.0
  0
LINE
  5
E6
330
30
100
AcDbEntity
  8
CDIM
100
AcDbLine
 10
14.125
 20
9.744999999999999
 30
0.0
 11
14.125
 21
9.67905
 31
0.0
  0
LINE
  5
E7
330
30
100
AcDbEntity
  8
CDIM
100
AcDbLine
 10
14.125
 20
8.8175
 30
0.0
 11
14.125
 21
8.883449999999999
 31
0.0
  0
SOLID
  5
E8
330
30
100
AcDbEntity
  8
CDIM
100
AcDbTrace
 10
14.1675
 20
9.744999999999999
 30
0.0
 11
14.08249999999999
 21
9.744999999999999
 31
0.0
 12
14.125
 22
10.0
 32
0.0
 13
14.125
 23
10.0
 33
0.0
  0
SOLID
  5
E9
330
30
100
AcDbEntity
  8
CDIM
100
AcDbTrace
 10
14.1675
 20
8.8175
 30
0.0
 11
14.08249999999999
 21
8.8175
 31
0.0
 12
14.125
 22
8.5625
 32
0.0
 13
14.125
 23
8.5625
 33
0.0
  0
TEXT
  5
EA
330
30
100
AcDbEntity
  8
CDIM
100
AcDbText
 10
13.7102
 20
9.13845
 30
0.0
 40
0.2856
  1
1.44
  7
STR
100
AcDbText
  0
LINE
  5
EB
330
30
100
AcDbEntity
  8
CDIM
100
AcDbLine
 10
13.6275
 20
10.0
 30
0.0
 11
15.14499999999999
 21
10.0
 31
0.0
  0
LINE
  5
EC
330
30
100
AcDbEntity
  8
CDIM
100
AcDbLine
 10
12.6275
 20
7.4375
 30
0.0
 11
15.14499999999999
 21
7.4375
 31
0.0
  0
LINE
  5
ED
330
30
100
AcDbEntity
  8
CDIM
100
AcDbLine
 10
14.89
 20
9.744999999999999
 30
0.0
 11
14.89
 21
8.67905
 31
0.0
  0
LINE
  5
EE
330
30
100
AcDbEntity
  8
CDIM
100
AcDbLine
 10
14.89
 20
7.692499999999999
 30
0.0
 11
14.89
 21
7.883449999999999
 31
0.0
  0
SOLID
  5
EF
330
30
100
AcDbEntity
  8
CDIM
100
AcDbTrace
 10
14.93249999999999
 20
9.744999999999999
 30
0.0
 11
14.8475
 21
9.744999999999999
 31
0.0
 12
14.89
 22
10.0
 32
0.0
 13
14.89
 23
10.0
 33
0.0
  0
SOLID
  5
F0
330
30
100
AcDbEntity
  8
CDIM
100
AcDbTrace
 10
14.93249999999999
 20
7.692499999999999
 30
0.0
 11
14.8475
 21
7.692499999999999
 31
0.0
 12
14.89
 22
7.4375
 32
0.0
 13
14.89
 23
7.4375
 33
0.0
  0
TEXT
  5
F1
330
30
100
AcDbEntity
  8
CDIM
100
AcDbText
 10
14.4616
 20
8.13845
 30
0.0
 40
0.2856
  1
2.56
  7
STR
100
AcDbText
  0
LINE
  5
F2
330
30
100
AcDbEntity
  8
CDIM
100
AcDbLine
 10
19.1275
 20
10.0
 30
0.0
 11
19.87999999999999
 21
10.0
 31
0.0
  0
LINE
  5
F3
330
30
100
AcDbEntity
  8
CDIM
100
AcDbLine
 10
18.34625
 20
9.125
 30
0.0
 11
19.87999999999999
 21
9.125
 31
0.0
  0
LINE
  5
F4
330
30
100
AcDbEntity
  8
CDIM
100
AcDbLine
 10
19.625
 20
8.869999999999999
 30
0.0
 11
19.625
 21
8.615
 31
0.0
  0
LINE
  5
F5
330
30
100
AcDbEntity
  8
CDIM
100
AcDbLine
 10
19.625
 20
10.255
 30
0.0
 11
19.625
 21
10.50999999999999
 31
0.0
  0
SOLID
  5
F6
330
30
100
AcDbEntity
  8
CDIM
100
AcDbTrace
 10
19.6675
 20
8.869999999999999
 30
0.0
 11
19.58249999999999
 21
8.869999999999999
 31
0.0
 12
19.625
 22
9.125
 32
0.0
 13
19.625
 23
9.125
 33
0.0
  0
SOLID
  5
F7
330
30
100
AcDbEntity
  8
CDIM
100
AcDbTrace
 10
19.6675
 20
10.255
 30
0.0
 11
19.58249999999999
 21
10.255
 31
0.0
 12
19.625
 22
10.0
 32
0.0
 13
19.625
 23
10.0
 33
0.0
  0
TEXT
  5
F8
330
30
100
AcDbEntity
  8
CDIM
100
AcDbText
 10
19.1821
 20
9.37845
 30
0.0
 40
0.2856
  1
0.88
  7
STR
100
AcDbText
  0
LINE
  5
F9
330
30
100
AcDbEntity
  8
CDIM
100
AcDbLine
 10
19.1275
 20
10.0
 30
0.0
 11
20.645
 21
10.0
 31
0.0
  0
LINE
  5
FA
330
30
100
AcDbEntity
  8
CDIM
100
AcDbLine
 10
17.47149999999999
 20
8.0
 30
0.0
 11
20.645
 21
8.0
 31
0.0
  0
LINE
  5
FB
330
30
100
AcDbEntity
  8
CDIM
100
AcDbLine
 10
20.39
 20
9.744999999999999
 30
0.0
 11
20.39
 21
9.24155
 31
0.0
  0
LINE
  5
FC
330
30
100
AcDbEntity
  8
CDIM
100
AcDbLine
 10
20.39
 20
8.255
 30
0.0
 11
20.39
 21
8.445949999999999
 31
0.0
  0
SOLID
  5
FD
330
30
100
AcDbEntity
  8
CDIM
100
AcDbTrace
 10
20.4325
 20
9.744999999999999
 30
0.0
 11
20.3475
 21
9.744999999999999
 31
0.0
 12
20.39
 22
10.0
 32
0.0
 13
20.39
 23
10.0
 33
0.0
  0
SOLID
  5
FE
330
30
100
AcDbEntity
  8
CDIM
100
AcDbTrace
 10
20.4325
 20
8.255
 30
0.0
 11
20.3475
 21
8.255
 31
0.0
 12
20.39
 22
8.0
 32
0.0
 13
20.39
 23
8.0
 33
0.0
  0
TEXT
  5
FF
330
30
100
AcDbEntity
  8
CDIM
100
AcDbText
 10
19.95479999999999
 20
8.70095
 30
0.0
 40
0.2856
  1
2.00
  7
STR
100
AcDbText
  0
LINE
  5
100
330
30
100
AcDbEntity
  8
CDIM
100
AcDbLine
 10
19.0
 20
10.1275
 30
0.0
 11
19.0
 21
10.8175
 31
0.0
  0
LINE
  5
101
330
30
100
AcDbEntity
  8
CDIM
100
AcDbLine
 10
17.90625
 20
9.5965
 30
0.0
 11
17.90625
 21
10.8175
 31
0.0
  0
LINE
  5
102
330
30
100
AcDbEntity
  8
CDIM
100
AcDbLine
 10
17.65125
 20
10.5625
 30
0.0
 11
17.39625
 21
10.5625
 31
0.0
  0
LINE
  5
103
330
30
100
AcDbEntity
  8
CDIM
100
AcDbLine
 10
19.25499999999999
 20
10.5625
 30
0.0
 11
19.51
 21
10.5625
 31
0.0
  0
SOLID
  5
104
330
30
100
AcDbEntity
  8
CDIM
100
AcDbTrace
 10
17.65125
 20
10.52
 30
0.0
 11
17.65125
 21
10.60499999999999
 31
0.0
 12
17.90625
 22
10.5625
 32
0.0
 13
17.90625
 23
10.5625
 33
0.0
  0
SOLID
  5
105
330
30
100
AcDbEntity
  8
CDIM
100
AcDbTrace
 10
19.25499999999999
 20
10.52
 30
0.0
 11
19.25499999999999
 21
10.60499999999999
 31
0.0
 12
19.0
 22
10.5625
 32
0.0
 13
19.0
 23
10.5625
 33
0.0
  0
TEXT
  5
106
330
30
100
AcDbEntity
  8
CDIM
100
AcDbText
 10
18.02635
 20
10.4197
 30
0.0
 40
0.2856
  1
1.09
  7
STR
100
AcDbText
  0
LINE
  5
107
330
30
100
AcDbEntity
  8
CDIM
100
AcDbLine
 10
19.0
 20
10.1275
 30
0.0
 11
19.0
 21
11.5825
 31
0.0
  0
LINE
  5
108
330
30
100
AcDbEntity
  8
CDIM
100
AcDbLine
 10
17.0
 20
8.502499999999999
 30
0.0
 11
17.0
 21
11.5825
 31
0.0
  0
LINE
  5
109
330
30
100
AcDbEntity
  8
CDIM
100
AcDbLine
 10
18.745
 20
11.3275
 30
0.0
 11
18.6902
 21
11.3275
 31
0.0
  0
LINE
  5
10A
330
30
100
AcDbEntity
  8
CDIM
100
AcDbLine
 10
17.255
 20
11.3275
 30
0.0
 11
17.30979999999999
 21
11.3275
 31
0.0
  0
SOLID
  5
10B
330
30
100
AcDbEntity
  8
CDIM
100
AcDbTrace
 10
18.745
 20
11.285
 30
0.0
 11
18.745
 21
11.37
 31
0.0
 12
19.0
 22
11.3275
 32
0.0
 13
19.0
 23
11.3275
 33
0.0
  0
SOLID
  5
10C
330
30
100
AcDbEntity
  8
CDIM
100
AcDbTrace
 10
17.255
 20
11.285
 30
0.0
 11
17.255
 21
11.37
 31
0.0
 12
17.0
 22
11.3275
 32
0.0
 13
17.0
 23
11.3275
 33
0.0
  0
TEXT
  5
10D
330
30
100
AcDbEntity
  8
CDIM
100
AcDbText
 10
17.5648
 20
11.1847
 30
0.0
 40
0.2856
  1
2.00
  7
STR
100
AcDbText
  0
LINE
  5
10E
330
30
100
AcDbEntity
  8
CDIM
100
AcDbLine
 10
4.0
 20
10.90624999999999
 30
0.0
 11
4.0
 21
11.5825
 31
0.0
  0
ENDBLK
  5
10F
330
30
100
AcDbEntity
  8
0
100
AcDbBlockEnd
  0
BLOCK
  5
110
330
4A
100
AcDbEntity
  8
CSOLID
100
AcDbBlockBegin
  2
100CROSS
 70
     0
 10
5.625
 20
4.59375
 30
0.0
  3
100CROSS
  1

  0
INSERT
  5
112
330
4A
100
AcDbEntity
  8
0
100
AcDbBlockReference
  2
050CROSS
 10
5.625
 20
4.59375
 30
0.0
  0
ENDBLK
  5
113
330
4A
100
AcDbEntity
  8
0
100
AcDbBlockEnd
  0
BLOCK
  5
11C
330
67
100
AcDbEntity
  8
0
100
AcDbBlockBegin
  2
050NPTFT
 70
     0
 10
0.0
 20
0.0
 30
0.0
  3
050NPTFT
  1

  0
INSERT
  5
11E
330
67
100
AcDbEntity
  8
DAMAN
100
AcDbBlockReference
  2
500NPTFT
 10
0.0
 20
0.0
 30
0.0
  0
ENDBLK
  5
11F
330
67
100
AcDbEntity
  8
0
100
AcDbBlockEnd
  0
BLOCK
  5
114
330
111
100
AcDbEntity
  8
0
100
AcDbBlockBegin
  2
050CROSS
 70
     0
 10
5.0
 20
5.0
 30
0.0
  3
050CROSS
  1

  0
LINE
  5
115
330
111
100
AcDbEntity
  8
0
100
AcDbLine
 10
5.0
 20
5.28125
 30
0.0
 11
5.0
 21
5.78125
 31
0.0
  0
LINE
  5
116
330
111
100
AcDbEntity
  8
0
100
AcDbLine
 10
5.0
 20
4.875
 30
0.0
 11
5.0
 21
5.125
 31
0.0
  0
LINE
  5
117
330
111
100
AcDbEntity
  8
0
100
AcDbLine
 10
5.0
 20
4.15625
 30
0.0
 11
5.0
 21
4.71875
 31
0.0
  0
LINE
  5
118
330
111
100
AcDbEntity
  8
0
100
AcDbLine
 10
5.25
 20
5.0
 30
0.0
 11
5.8125
 21
5.0
 31
0.0
  0
LINE
  5
119
330
111
100
AcDbEntity
  8
0
100
AcDbLine
 10
4.90625
 20
5.0
 30
0.0
 11
5.09375
 21
5.0
 31
0.0
  0
LINE
  5
11A
330
111
100
AcDbEntity
  8
0
100
AcDbLine
 10
4.1875
 20
5.0
 30
0.0
 11
4.75
 21
5.0
 31
0.0
  0
ENDBLK
  5
11B
330
111
100
AcDbEntity
  8
0
100
AcDbBlockEnd
  0
BLOCK
  5
120
330
11D
100
AcDbEntity
  8
0
100
AcDbBlockBegin
  2
500NPTFT
 70
     0
 10
0.0
 20
0.0
 30
0.0
  3
500NPTFT
  1

  0
INSERT
  5
121
330
11D
100
AcDbEntity
  8
DAMAN
 62
     5
100
AcDbBlockReference
  2
100CROSS
 10
0.0
 20
0.0
 30
0.0
 41
0.84
 42
0.84
  0
CIRCLE
  5
122
330
11D
100
AcDbEntity
  8
DAMAN
 62
     5
100
AcDbCircle
 10
0.0
 20
0.0
 30
0.0
 40
0.384627
  0
CIRCLE
  5
123
330
11D
100
AcDbEntity
  8
DAMAN
 62
     5
100
AcDbCircle
 10
0.0
 20
0.0
 30
0.0
 40
0.3439999999999999
  0
CIRCLE
  5
124
330
11D
100
AcDbEntity
  8
DAMAN
 62
     5
100
AcDbCircle
 10
0.0
 20
0.0
 30
0.0
 40
0.4295
  0
ENDBLK
  5
125
330
11D
100
AcDbEntity
  8
0
100
AcDbBlockEnd
  0
BLOCK
  5
127
330
126
100
AcDbEntity
  8
0
100
AcDbBlockBegin
  2
M18T
 70
     0
 10
0.0
 20
0.0
 30
0.0
  3
M18T
  1

  0
CIRCLE
  5
128
330
126
100
AcDbEntity
  8
DAMAN
  6
HIDDEN
100
AcDbCircle
 10
0.0
 20
0.0
 30
0.0
 40
0.35433
  0
CIRCLE
  5
129
330
126
100
AcDbEntity
  8
DAMAN
100
AcDbCircle
 10
0.0
 20
0.0
 30
0.0
 40
0.38976
  0
CIRCLE
  5
12A
330
126
100
AcDbEntity
  8
DAMAN
100
AcDbCircle
 10
0.0
 20
0.0
 30
0.0
 40
0.32555
  0
CIRCLE
  5
12B
330
126
100
AcDbEntity
  8
DAMAN
100
AcDbCircle
 10
0.0
 20
0.0
 30
0.0
 40
0.5911
  0
INSERT
  5
12C
330
126
100
AcDbEntity
  8
DAMAN
100
AcDbBlockReference
  2
100CROSS
 10
0.0
 20
0.0
 30
0.0
 41
0.88
 42
0.88
  0
CIRCLE
  5
12D
330
126
100
AcDbEntity
  8
DAMAN
100
AcDbCircle
 10
0.0
 20
0.0
 30
0.0
 40
0.51181
  0
ENDBLK
  5
12E
330
126
100
AcDbEntity
  8
0
100
AcDbBlockEnd
  0
BLOCK
  5
130
330
12F
100
AcDbEntity
  8
0
100
AcDbBlockBegin
  2
08SAET
 70
     0
 10
0.0
 20
0.0
 30
0.0
  3
08SAET
  1

  0
CIRCLE
  5
131
330
12F
100
AcDbEntity
  8
DAMAN
100
AcDbCircle
 10
0.0
 20
0.0
 30
0.0
 40
0.375
  0
CIRCLE
  5
132
330
12F
100
AcDbEntity
  8
DAMAN
100
AcDbCircle
 10
0.0
 20
0.0
 30
0.0
 40
0.3125
  0
CIRCLE
  5
133
330
12F
100
AcDbEntity
  8
DAMAN
  6
HIDDEN
100
AcDbCircle
 10
0.0
 20
0.0
 30
0.0
 40
0.3439999999999999
  0
INSERT
  5
134
330
12F
100
AcDbEntity
  8
DAMAN
100
AcDbBlockReference
  2
100CROSS
 10
0.0
 20
0.0
 30
0.0
 41
0.88
 42
0.88
  0
CIRCLE
  5
135
330
12F
100
AcDbEntity
  8
DAMAN
100
AcDbCircle
 10
0.0
 20
0.0
 30
0.0
 40
0.594
  0
ENDBLK
  5
136
330
12F
100
AcDbEntity
  8
0
100
AcDbBlockEnd
  0
ENDSEC
  0
SECTION
  2
ENTITIES
  0
LWPOLYLINE
  5
137
330
1E
100
AcDbEntity
  8
DAMAN
100
AcDbPolyline
 90
        4
 70
     1
 43
0.0
 10
3.25
 20
7.21875
 10
3.25
 20
11.21874999999999
 10
5.25
 20
11.21874999999999
 10
5.25
 20
7.21875
  0
LWPOLYLINE
  5
13D
330
1E
100
AcDbEntity
  8
DAMAN
100
AcDbPolyline
 90
        4
 70
     1
 43
0.0
 10
12.75
 20
7.21875
 10
12.75
 20
11.21874999999999
 10
14.75
 20
11.21874999999999
 10
14.75
 20
7.21875
  0
LWPOLYLINE
  5
143
330
1E
100
AcDbEntity
  8
DAMAN
100
AcDbPolyline
 90
        4
 70
     1
 43
0.0
 10
7.25
 20
7.21875
 10
7.25
 20
11.21874999999999
 10
10.74999999999999
 20
11.21874999999999
 10
10.74999999999999
 20
7.21875
  0
LWPOLYLINE
  5
149
330
1E
100
AcDbEntity
  8
DAMAN
100
AcDbPolyline
 90
        4
 70
     1
 43
0.0
 10
16.75
 20
7.21875
 10
16.75
 20
11.21874999999999
 10
20.24999999999999
 20
11.21874999999999
 10
20.24999999999999
 20
7.21875
  0
INSERT
  5
14F
330
1E
100
AcDbEntity
  8
DAMAN
100
AcDbBlockReference
  2
100CROSS
 10
9.25
 20
9.218999999999999
 30
0.0
 41
0.4379999999999999
 42
0.4379999999999999
  0
CIRCLE
  5
150
330
1E
100
AcDbEntity
  8
DAMAN
100
AcDbCircle
 10
9.25
 20
9.218999999999999
 30
0.0
 40
0.21875
  0
CIRCLE
  5
151
330
1E
100
AcDbEntity
  8
DAMAN
100
AcDbCircle
 10
8.656
 20
8.812749999999999
 30
0.0
 40
0.21875
  0
INSERT
  5
152
330
1E
100
AcDbEntity
  8
DAMAN
100
AcDbBlockReference
  2
100CROSS
 10
8.656
 20
8.812749999999999
 30
0.0
 41
0.4379999999999999
 42
0.4379999999999999
  0
INSERT
  5
153
330
1E
100
AcDbEntity
  8
DAMAN
100
AcDbBlockReference
  2
100CROSS
 10
8.656
 20
9.625249999999999
 30
0.0
 41
0.4379999999999999
 42
0.4379999999999999
  0
CIRCLE
  5
154
330
1E
100
AcDbEntity
  8
DAMAN
100
AcDbCircle
 10
8.656
 20
9.625249999999999
 30
0.0
 40
0.21875
  0
CIRCLE
  5
155
330
1E
100
AcDbEntity
  8
DAMAN
100
AcDbCircle
 10
8.2185
 20
10.15625
 30
0.0
 40
0.21875
  0
INSERT
  5
156
330
1E
100
AcDbEntity
  8
DAMAN
100
AcDbBlockReference
  2
100CROSS
 10
8.2185
 20
10.15625
 30
0.0
 41
0.4379999999999999
 42
0.4379999999999999
  0
INSERT
  5
157
330
1E
100
AcDbEntity
  8
DAMAN
100
AcDbBlockReference
  2
100CROSS
 10
9.5
 20
8.15625
 30
0.0
 41
0.25
 42
0.25
  0
CIRCLE
  5
158
330
1E
100
AcDbEntity
  8
DAMAN
100
AcDbCircle
 10
9.5
 20
8.15625
 30
0.0
 40
0.1055
  0
INSERT
  5
159
330
1E
100
AcDbEntity
  8
DAMAN
100
AcDbBlockReference
  2
100CROSS
 10
9.5
 20
10.28124999999999
 30
0.0
 41
0.25
 42
0.25
  0
CIRCLE
  5
15A
330
1E
100
AcDbEntity
  8
DAMAN
100
AcDbCircle
 10
9.5
 20
10.28124999999999
 30
0.0
 40
0.1055
  0
INSERT
  5
15B
330
1E
100
AcDbEntity
  8
DAMAN
100
AcDbBlockReference
  2
100CROSS
 10
7.6875
 20
8.15625
 30
0.0
 41
0.25
 42
0.25
  0
CIRCLE
  5
15C
330
1E
100
AcDbEntity
  8
DAMAN
100
AcDbCircle
 10
7.6875
 20
8.15625
 30
0.0
 40
0.1055
  0
CIRCLE
  5
15D
330
1E
100
AcDbEntity
  8
DAMAN
100
AcDbCircle
 10
7.6875
 20
10.28124999999999
 30
0.0
 40
0.1055
  0
INSERT
  5
15E
330
1E
100
AcDbEntity
  8
DAMAN
100
AcDbBlockReference
  2
100CROSS
 10
7.6875
 20
10.28124999999999
 30
0.0
 41
0.25
 42
0.25
  0
CIRCLE
  5
15F
330
1E
100
AcDbEntity
  8
DAMAN
100
AcDbCircle
 10
7.6875
 20
8.15625
 30
0.0
 40
0.125
  0
CIRCLE
  5
160
330
1E
100
AcDbEntity
  8
DAMAN
100
AcDbCircle
 10
7.6875
 20
10.28124999999999
 30
0.0
 40
0.125
  0
CIRCLE
  5
161
330
1E
100
AcDbEntity
  8
DAMAN
100
AcDbCircle
 10
9.5
 20
8.15625
 30
0.0
 40
0.125
  0
CIRCLE
  5
162
330
1E
100
AcDbEntity
  8
DAMAN
100
AcDbCircle
 10
9.5
 20
10.28124999999999
 30
0.0
 40
0.125
  0
INSERT
  5
163
330
1E
100
AcDbEntity
  8
DAMAN
100
AcDbBlockReference
  2
100CROSS
 10
7.625
 20
7.59375
 30
0.0
 41
0.625
 42
0.625
 43
0.625
  0
INSERT
  5
164
330
1E
100
AcDbEntity
  8
DAMAN
100
AcDbBlockReference
  2
100CROSS
 10
10.375
 20
10.84375
 30
0.0
 41
0.625
 42
0.625
 43
0.625
  0
CIRCLE
  5
165
330
1E
100
AcDbEntity
  8
DAMAN
100
AcDbCircle
 10
7.625
 20
7.59375
 30
0.0
 40
0.3125
  0
CIRCLE
  5
166
330
1E
100
AcDbEntity
  8
DAMAN
100
AcDbCircle
 10
7.625
 20
7.59375
 30
0.0
 40
0.203125
  0
CIRCLE
  5
167
330
1E
100
AcDbEntity
  8
DAMAN
100
AcDbCircle
 10
10.375
 20
10.84375
 30
0.0
 40
0.3125
  0
CIRCLE
  5
168
330
1E
100
AcDbEntity
  8
DAMAN
100
AcDbCircle
 10
10.375
 20
10.84375
 30
0.0
 40
0.203125
  0
CIRCLE
  5
169
330
1E
100
AcDbEntity
  8
DAMAN
100
AcDbCircle
 10
13.375
 20
9.78125
 30
0.0
 40
0.21875
  0
CIRCLE
  5
16A
330
1E
100
AcDbEntity
  8
DAMAN
100
AcDbCircle
 10
13.375
 20
8.65625
 30
0.0
 40
0.21875
  0
CIRCLE
  5
16B
330
1E
100
AcDbEntity
  8
DAMAN
100
AcDbCircle
 10
18.25
 20
9.21875
 30
0.0
 40
0.21875
  0
INSERT
  5
16C
330
1E
100
AcDbEntity
  8
DAMAN
100
AcDbBlockReference
  2
100CROSS
 10
19.875
 20
7.59375
 30
0.0
 41
0.625
 42
0.625
 43
0.625
  0
INSERT
  5
16D
330
1E
100
AcDbEntity
  8
DAMAN
100
AcDbBlockReference
  2
100CROSS
 10
17.125
 20
10.84375
 30
0.0
 41
0.625
 42
0.625
 43
0.625
  0
CIRCLE
  5
16E
330
1E
100
AcDbEntity
  8
DAMAN
100
AcDbCircle
 10
17.125
 20
10.84375
 30
0.0
 40
0.203125
  0
CIRCLE
  5
16F
330
1E
100
AcDbEntity
  8
DAMAN
100
AcDbCircle
 10
19.875
 20
7.59375
 30
0.0
 40
0.203125
  0
TEXT
  5
174
330
1E
100
AcDbEntity
  8
DAMAN
100
AcDbText
 10
4.625
 20
10.84375
 30
0.0
 40
0.25
  1
T
 50
270.0
  7
STR
100
AcDbText
  0
TEXT
  5
175
330
1E
100
AcDbEntity
  8
DAMAN
100
AcDbText
 10
4.625
 20
8.96875
 30
0.0
 40
0.25
  1
P
 50
270.0
  7
STR
100
AcDbText
  0
TEXT
  5
176
330
1E
100
AcDbEntity
  8
DAMAN
100
AcDbText
 10
13.125
 20
10.40625
 30
0.0
 40
0.25
  1
A
 50
90.0
  7
STR
100
AcDbText
  0
TEXT
  5
177
330
1E
100
AcDbEntity
  8
DAMAN
100
AcDbText
 10
13.125
 20
7.90625
 30
0.0
 40
0.25
  1
B
 50
90.0
  7
STR
100
AcDbText
  0
TEXT
  5
178
330
1E
100
AcDbEntity
  8
DAMAN
100
AcDbText
 10
17.6875
 20
9.65625
 30
0.0
 40
0.25
  1
P
  7
STR
100
AcDbText
  0
TEXT
  5
179
330
1E
100
AcDbEntity
  8
DAMAN
100
AcDbText
 10
19.78125
 20
10.625
 30
0.0
 40
0.25
  1
T
  7
STR
100
AcDbText
  0
LINE
  5
17A
330
1E
100
AcDbEntity
  8
DAMAN
100
AcDbLine
 10
7.25
 20
5.4375
 30
0.0
 11
10.74999999999999
 21
5.4375
 31
0.0
  0
LINE
  5
17B
330
1E
100
AcDbEntity
  8
DAMAN
100
AcDbLine
 10
10.74999999999999
 20
5.4375
 30
0.0
 11
10.74999999999999
 21
3.4375
 31
0.0
  0
LINE
  5
17C
330
1E
100
AcDbEntity
  8
DAMAN
100
AcDbLine
 10
10.74999999999999
 20
3.4375
 30
0.0
 11
7.25
 21
3.4375
 31
0.0
  0
LINE
  5
17D
330
1E
100
AcDbEntity
  8
DAMAN
100
AcDbLine
 10
7.25
 20
3.4375
 30
0.0
 11
7.25
 21
5.4375
 31
0.0
  0
LINE
  5
17E
330
1E
100
AcDbEntity
  8
DAMAN
100
AcDbLine
 10
7.25
 20
13.0
 30
0.0
 11
10.74999999999999
 21
13.0
 31
0.0
  0
LINE
  5
17F
330
1E
100
AcDbEntity
  8
DAMAN
100
AcDbLine
 10
10.74999999999999
 20
15.0
 30
0.0
 11
7.25
 21
15.0
 31
0.0
  0
LINE
  5
180
330
1E
100
AcDbEntity
  8
DAMAN
100
AcDbLine
 10
7.25
 20
15.0
 30
0.0
 11
7.25
 21
13.0
 31
0.0
  0
LINE
  5
181
330
1E
100
AcDbEntity
  8
DAMAN
100
AcDbLine
 10
10.74999999999999
 20
13.0
 30
0.0
 11
10.74999999999999
 21
15.0
 31
0.0
  0
TEXT
  5
182
330
1E
100
AcDbEntity
  8
DAMAN
100
AcDbText
 10
7.625
 20
4.96875
 30
0.0
 40
0.188
  1
DAMAN ****
100
AcDbText
  0
INSERT
  5
183
330
1E
100
AcDbEntity
  8
DAMAN
100
AcDbBlockReference
  2
08SAET
 10
4.03125
 20
9.21875
 30
0.0
  0
INSERT
  5
184
330
1E
100
AcDbEntity
  8
DAMAN
100
AcDbBlockReference
  2
08SAET
 10
4.03125
 20
10.34375
 30
0.0
  0
INSERT
  5
185
330
1E
100
AcDbEntity
  8
DAMAN
100
AcDbBlockReference
  2
08SAET
 10
13.375
 20
8.65625
 30
0.0
  0
INSERT
  5
186
330
1E
100
AcDbEntity
  8
DAMAN
100
AcDbBlockReference
  2
08SAET
 10
13.375
 20
9.78125
 30
0.0
  0
INSERT
  5
187
330
1E
100
AcDbEntity
  8
DAMAN
100
AcDbBlockReference
  2
08SAET
 10
18.25
 20
9.21875
 30
0.0
  0
INSERT
  5
188
330
1E
100
AcDbEntity
  8
DAMAN
100
AcDbBlockReference
  2
08SAET
 10
19.15625
 20
10.34375
 30
0.0
  0
ENDSEC
  0
SECTION
  2
OBJECTS
  0
DICTIONARY
  5
C
330
0
100
AcDbDictionary
  3
ACAD_GROUP
350
D
  3
ACAD_LAYOUT
350
19
  3
ACAD_MLINESTYLE
350
16
  3
ACAD_PLOTSETTINGS
350
18
  3
ACAD_PLOTSTYLENAME
350
E
  3
ACDBHEADERROUNDTRIPXREC
350
18B
  0
DICTIONARY
  5
1AD
330
1E
100
AcDbDictionary
280
     1
  3
ACAD_LAYOUTSELFREF
360
1AE
  0
DICTIONARY
  5
1AB
330
1A
100
AcDbDictionary
280
     1
  3
ACAD_LAYOUTSELFREF
360
1AC
  0
DICTIONARY
  5
D
102
{ACAD_REACTORS
330
C
102
}
330
C
100
AcDbDictionary
  0
DICTIONARY
  5
19
102
{ACAD_REACTORS
330
C
102
}
330
C
100
AcDbDictionary
  0
DICTIONARY
  5
16
102
{ACAD_REACTORS
330
C
102
}
330
C
100
AcDbDictionary
  3
STANDARD
350
17
  0
DICTIONARY
  5
18
102
{ACAD_REACTORS
330
C
102
}
330
C
100
AcDbDictionary
  0
ACDBDICTIONARYWDFLT
  5
E
102
{ACAD_REACTORS
330
C
102
}
330
C
100
AcDbDictionary
281
     1
  3
Normal
350
F
100
AcDbDictionaryWithDefault
340
F
  0
DICTIONARY
  5
18B
102
{ACAD_REACTORS
330
C
102
}
330
C
100
AcDbDictionary
  3
CEPSNTYPE
350
195
  3
FINGERPRINTGUID
350
196
  3
HYPERLINKBASE
350
18E
  3
INSUNITS
350
194
  3
LAYOUTDICT
350
190
  3
LWETCUNION
350
193
  3
PLOTSETDICT
350
191
  3
PLOTSTYLNAMDICT
350
192
  3
PSVPSCALE
350
198
  3
PUCSBASE
350
19B
  3
PUCSORGBACK
350
1A1
  3
PUCSORGBOTTOM
350
19D
  3
PUCSORGFRONT
350
1A0
  3
PUCSORGLEFT
350
19E
  3
PUCSORGRIGHT
350
19F
  3
PUCSORGTOP
350
19C
  3
PUCSORTHOREF
350
199
  3
PUCSORTHOVIEW
350
19A
  3
STYLESHEET
350
18F
  3
TSTACKALIGN
350
18C
  3
TSTACKSIZE
350
18D
  3
UCSBASE
350
1A4
  3
UCSORGBACK
350
1AA
  3
UCSORGBOTTOM
350
1A6
  3
UCSORGFRONT
350
1A9
  3
UCSORGLEFT
350
1A7
  3
UCSORGRIGHT
350
1A8
  3
UCSORGTOP
350
1A5
  3
UCSORTHOREF
350
1A2
  3
UCSORTHOVIEW
350
1A3
  3
VERSIONGUID
350
197
  0
XRECORD
  5
1AE
102
{ACAD_REACTORS
330
1AD
102
}
330
1AD
100
AcDbXrecord
340
1E
  0
XRECORD
  5
1AC
102
{ACAD_REACTORS
330
1AB
102
}
330
1AB
100
AcDbXrecord
340
1A
  0
MLINESTYLE
  5
17
102
{ACAD_REACTORS
330
16
102
}
330
16
100
AcDbMlineStyle
  2
STANDARD
 70
     0
  3

 62
   256
 51
90.0
 52
90.0
 71
     2
 49
0.5
 62
   256
  6
BYLAYER
 49
-0.5
 62
   256
  6
BYLAYER
  0
ACDBPLACEHOLDER
  5
F
102
{ACAD_REACTORS
330
E
102
}
330
E
100
AcDbPlaceHolder
280
     0
  0
XRECORD
  5
195
102
{ACAD_REACTORS
330
18B
102
}
330
18B
100
AcDbXrecord
 90
        0
  0
XRECORD
  5
196
102
{ACAD_REACTORS
330
18B
102
}
330
18B
100
AcDbXrecord
  1
{24BA6BCE-8579-458D-BED1-2E32DF7406BC}
  0
XRECORD
  5
18E
102
{ACAD_REACTORS
330
18B
102
}
330
18B
100
AcDbXrecord
  1

  0
XRECORD
  5
194
102
{ACAD_REACTORS
330
18B
102
}
330
18B
100
AcDbXrecord
 90
        0
  0
XRECORD
  5
190
102
{ACAD_REACTORS
330
18B
102
}
330
18B
100
AcDbXrecord
340
19
  0
XRECORD
  5
193
102
{ACAD_REACTORS
330
18B
102
}
330
18B
100
AcDbXrecord
 90
    10781
  0
XRECORD
  5
191
102
{ACAD_REACTORS
330
18B
102
}
330
18B
100
AcDbXrecord
340
18
  0
XRECORD
  5
192
102
{ACAD_REACTORS
330
18B
102
}
330
18B
100
AcDbXrecord
340
E
  0
XRECORD
  5
198
102
{ACAD_REACTORS
330
18B
102
}
330
18B
100
AcDbXrecord
 40
0.0
  0
XRECORD
  5
19B
102
{ACAD_REACTORS
330
18B
102
}
330
18B
100
AcDbXrecord
340
0
  0
XRECORD
  5
1A1
102
{ACAD_REACTORS
330
18B
102
}
330
18B
100
AcDbXrecord
 10
0.0
 20
0.0
 30
0.0
  0
XRECORD
  5
19D
102
{ACAD_REACTORS
330
18B
102
}
330
18B
100
AcDbXrecord
 10
0.0
 20
0.0
 30
0.0
  0
XRECORD
  5
1A0
102
{ACAD_REACTORS
330
18B
102
}
330
18B
100
AcDbXrecord
 10
0.0
 20
0.0
 30
0.0
  0
XRECORD
  5
19E
102
{ACAD_REACTORS
330
18B
102
}
330
18B
100
AcDbXrecord
 10
0.0
 20
0.0
 30
0.0
  0
XRECORD
  5
19F
102
{ACAD_REACTORS
330
18B
102
}
330
18B
100
AcDbXrecord
 10
0.0
 20
0.0
 30
0.0
  0
XRECORD
  5
19C
102
{ACAD_REACTORS
330
18B
102
}
330
18B
100
AcDbXrecord
 10
0.0
 20
0.0
 30
0.0
  0
XRECORD
  5
199
102
{ACAD_REACTORS
330
18B
102
}
330
18B
100
AcDbXrecord
340
0
  0
XRECORD
  5
19A
102
{ACAD_REACTORS
330
18B
102
}
330
18B
100
AcDbXrecord
 70
     0
  0
XRECORD
  5
18F
102
{ACAD_REACTORS
330
18B
102
}
330
18B
100
AcDbXrecord
  1

  0
XRECORD
  5
18C
102
{ACAD_REACTORS
330
18B
102
}
330
18B
100
AcDbXrecord
 90
        1
  0
XRECORD
  5
18D
102
{ACAD_REACTORS
330
18B
102
}
330
18B
100
AcDbXrecord
 90
       70
  0
XRECORD
  5
1A4
102
{ACAD_REACTORS
330
18B
102
}
330
18B
100
AcDbXrecord
340
0
  0
XRECORD
  5
1AA
102
{ACAD_REACTORS
330
18B
102
}
330
18B
100
AcDbXrecord
 10
0.0
 20
0.0
 30
0.0
  0
XRECORD
  5
1A6
102
{ACAD_REACTORS
330
18B
102
}
330
18B
100
AcDbXrecord
 10
0.0
 20
0.0
 30
0.0
  0
XRECORD
  5
1A9
102
{ACAD_REACTORS
330
18B
102
}
330
18B
100
AcDbXrecord
 10
0.0
 20
0.0
 30
0.0
  0
XRECORD
  5
1A7
102
{ACAD_REACTORS
330
18B
102
}
330
18B
100
AcDbXrecord
 10
0.0
 20
0.0
 30
0.0
  0
XRECORD
  5
1A8
102
{ACAD_REACTORS
330
18B
102
}
330
18B
100
AcDbXrecord
 10
0.0
 20
0.0
 30
0.0
  0
XRECORD
  5
1A5
102
{ACAD_REACTORS
330
18B
102
}
330
18B
100
AcDbXrecord
 10
0.0
 20
0.0
 30
0.0
  0
XRECORD
  5
1A2
102
{ACAD_REACTORS
330
18B
102
}
330
18B
100
AcDbXrecord
340
0
  0
XRECORD
  5
1A3
102
{ACAD_REACTORS
330
18B
102
}
330
18B
100
AcDbXrecord
 70
     0
  0
XRECORD
  5
197
102
{ACAD_REACTORS
330
18B
102
}
330
18B
100
AcDbXrecord
  1
{0F19485E-0E31-4019-8E43-362C78E66F99}
  0
ENDSEC
  0
EOF
