  0
SECTION
  2
HEADER
  9
$ACADVER
  1
AC1014
  9
$ACADMAINTVER
 70
     9
  9
$DWGCODEPAGE
  3
ANSI_1252
  9
$INSBASE
 10
0.0
 20
0.0
 30
0.0
  9
$EXTMIN
 10
-2.563797241417695
 20
-6.562614088888061
 30
-0.0015258207003583
  9
$EXTMAX
 10
21.56456197866885
 20
13.56261418259774
 30
0.0000000349246037
  9
$LIMMIN
 10
0.0
 20
0.0
  9
$LIMMAX
 10
12.0
 20
9.0
  9
$ORTHOMODE
 70
     0
  9
$REGENMODE
 70
     1
  9
$FILLMODE
 70
     1
  9
$QTEXTMODE
 70
     0
  9
$MIRRTEXT
 70
     1
  9
$DRAGMODE
 70
     2
  9
$LTSCALE
 40
1.0
  9
$OSMODE
 70
    37
  9
$ATTMODE
 70
     1
  9
$TEXTSIZE
 40
0.2
  9
$TRACEWID
 40
0.05
  9
$TEXTSTYLE
  7
STANDARD
  9
$CLAYER
  8
DAMAN
  9
$CELTYPE
  6
BYLAYER
  9
$CECOLOR
 62
   256
  9
$CELTSCALE
 40
1.0
  9
$DELOBJ
 70
     1
  9
$DISPSILH
 70
     0
  9
$DIMSCALE
 40
1.0
  9
$DIMASZ
 40
0.18
  9
$DIMEXO
 40
0.0625
  9
$DIMDLI
 40
0.38
  9
$DIMRND
 40
0.0
  9
$DIMDLE
 40
0.0
  9
$DIMEXE
 40
0.18
  9
$DIMTP
 40
0.0
  9
$DIMTM
 40
0.0
  9
$DIMTXT
 40
0.18
  9
$DIMCEN
 40
0.09
  9
$DIMTSZ
 40
0.0
  9
$DIMTOL
 70
     0
  9
$DIMLIM
 70
     0
  9
$DIMTIH
 70
     1
  9
$DIMTOH
 70
     1
  9
$DIMSE1
 70
     0
  9
$DIMSE2
 70
     0
  9
$DIMTAD
 70
     0
  9
$DIMZIN
 70
     0
  9
$DIMBLK
  1

  9
$DIMASO
 70
     1
  9
$DIMSHO
 70
     1
  9
$DIMPOST
  1

  9
$DIMAPOST
  1

  9
$DIMALT
 70
     0
  9
$DIMALTD
 70
     2
  9
$DIMALTF
 40
25.4
  9
$DIMLFAC
 40
1.0
  9
$DIMTOFL
 70
     0
  9
$DIMTVP
 40
0.0
  9
$DIMTIX
 70
     0
  9
$DIMSOXD
 70
     0
  9
$DIMSAH
 70
     0
  9
$DIMBLK1
  1

  9
$DIMBLK2
  1

  9
$DIMSTYLE
  2
STANDARD
  9
$DIMCLRD
 70
     0
  9
$DIMCLRE
 70
     0
  9
$DIMCLRT
 70
     0
  9
$DIMTFAC
 40
1.0
  9
$DIMGAP
 40
0.09
  9
$DIMJUST
 70
     0
  9
$DIMSD1
 70
     0
  9
$DIMSD2
 70
     0
  9
$DIMTOLJ
 70
     1
  9
$DIMTZIN
 70
     0
  9
$DIMALTZ
 70
     0
  9
$DIMALTTZ
 70
     0
  9
$DIMFIT
 70
     3
  9
$DIMUPT
 70
     0
  9
$DIMUNIT
 70
     2
  9
$DIMDEC
 70
     4
  9
$DIMTDEC
 70
     4
  9
$DIMALTU
 70
     2
  9
$DIMALTTD
 70
     2
  9
$DIMTXSTY
  7
STANDARD
  9
$DIMAUNIT
 70
     0
  9
$LUNITS
 70
     2
  9
$LUPREC
 70
     4
  9
$SKETCHINC
 40
0.1
  9
$FILLETRAD
 40
0.0
  9
$AUNITS
 70
     0
  9
$AUPREC
 70
     0
  9
$MENU
  1
tom
  9
$ELEVATION
 40
0.0
  9
$PELEVATION
 40
0.0
  9
$THICKNESS
 40
0.0
  9
$LIMCHECK
 70
     0
  9
$BLIPMODE
 70
     0
  9
$CHAMFERA
 40
0.0
  9
$CHAMFERB
 40
0.0
  9
$CHAMFERC
 40
0.0
  9
$CHAMFERD
 40
0.0
  9
$SKPOLY
 70
     0
  9
$TDCREATE
 40
2449799.281504212
  9
$TDUPDATE
 40
2453418.520322928
  9
$TDINDWG
 40
0.0014179051
  9
$TDUSRTIMER
 40
0.0014177199
  9
$USRTIMER
 70
     1
  9
$ANGBASE
 50
0.0
  9
$ANGDIR
 70
     0
  9
$PDMODE
 70
     0
  9
$PDSIZE
 40
0.0
  9
$PLINEWID
 40
0.0
  9
$COORDS
 70
     1
  9
$SPLFRAME
 70
     0
  9
$SPLINETYPE
 70
     6
  9
$SPLINESEGS
 70
     8
  9
$ATTDIA
 70
     0
  9
$ATTREQ
 70
     1
  9
$HANDLING
 70
-16383
  9
$HANDSEED
  5
639
  9
$SURFTAB1
 70
     6
  9
$SURFTAB2
 70
     6
  9
$SURFTYPE
 70
     6
  9
$SURFU
 70
     6
  9
$SURFV
 70
     6
  9
$UCSNAME
  2

  9
$UCSORG
 10
0.0
 20
0.0
 30
0.0
  9
$UCSXDIR
 10
1.0
 20
0.0
 30
0.0
  9
$UCSYDIR
 10
0.0
 20
1.0
 30
0.0
  9
$PUCSNAME
  2

  9
$PUCSORG
 10
0.0
 20
0.0
 30
0.0
  9
$PUCSXDIR
 10
1.0
 20
0.0
 30
0.0
  9
$PUCSYDIR
 10
0.0
 20
1.0
 30
0.0
  9
$USERI1
 70
     0
  9
$USERI2
 70
     0
  9
$USERI3
 70
     0
  9
$USERI4
 70
     0
  9
$USERI5
 70
     0
  9
$USERR1
 40
0.0
  9
$USERR2
 40
0.0
  9
$USERR3
 40
0.0
  9
$USERR4
 40
0.0
  9
$USERR5
 40
0.0
  9
$WORLDVIEW
 70
     1
  9
$SHADEDGE
 70
     3
  9
$SHADEDIF
 70
    70
  9
$TILEMODE
 70
     1
  9
$MAXACTVP
 70
    16
  9
$PINSBASE
 10
0.0
 20
0.0
 30
0.0
  9
$PLIMCHECK
 70
     0
  9
$PEXTMIN
 10
1.000000000000000E+20
 20
1.000000000000000E+20
 30
1.000000000000000E+20
  9
$PEXTMAX
 10
-1.000000000000000E+20
 20
-1.000000000000000E+20
 30
-1.000000000000000E+20
  9
$PLIMMIN
 10
0.0
 20
0.0
  9
$PLIMMAX
 10
12.0
 20
9.0
  9
$UNITMODE
 70
     0
  9
$VISRETAIN
 70
     0
  9
$PLINEGEN
 70
     0
  9
$PSLTSCALE
 70
     1
  9
$TREEDEPTH
 70
  3020
  9
$PICKSTYLE
 70
     1
  9
$CMLSTYLE
  2
STANDARD
  9
$CMLJUST
 70
     0
  9
$CMLSCALE
 40
1.0
  9
$PROXYGRAPHICS
 70
     1
  9
$MEASUREMENT
 70
     0
  0
ENDSEC
  0
SECTION
  2
CLASSES
  0
CLASS
  1
ACDBDICTIONARYWDFLT
  2
AcDbDictionaryWithDefault
  3
AutoCAD 2000
 90
        0
280
     0
281
     0
  0
CLASS
  1
ACDBPLACEHOLDER
  2
AcDbPlaceHolder
  3
AutoCAD 2000
 90
        0
280
     0
281
     0
  0
CLASS
  1
LAYOUT
  2
AcDbLayout
  3
AutoCAD 2000
 90
        0
280
     0
281
     0
  0
CLASS
  1
LONG_TRANSACTION
  2
AcDbLongTransaction
  3
AutoCAD 2000
 90
        0
280
     0
281
     0
  0
CLASS
  1
LWPOLYLINE
  2
AcDbPolyline
  3
AutoCAD 2000
 90
        0
280
     0
281
     1
  0
CLASS
  1
HATCH
  2
AcDbHatch
  3
AutoCAD 2000
 90
        0
280
     0
281
     1
  0
CLASS
  1
XRECORD
  2
AcDbXrecord
  3
AutoCAD 2000
 90
        0
280
     0
281
     0
  0
ENDSEC
  0
SECTION
  2
TABLES
  0
TABLE
  2
VPORT
  5
2EC
330
0
100
AcDbSymbolTable
 70
     2
  0
VPORT
  5
614
330
2EC
100
AcDbSymbolTableRecord
100
AcDbViewportTableRecord
  2
*ACTIVE
 70
     0
 10
0.0
 20
0.0
 11
1.0
 21
1.0
 12
9.500382368625579
 22
3.500000046854842
 13
0.0
 23
0.0
 14
0.03125
 24
0.03125
 15
0.0
 25
0.0
 16
0.0
 26
0.0
 36
1.0
 17
0.0
 27
0.0
 37
0.0
 40
20.33450274224649
 41
1.647569444444444
 42
50.0
 43
0.0
 44
0.0
 50
0.0
 51
0.0
 71
     0
 72
   100
 73
     1
 74
     1
 75
     1
 76
     0
 77
     0
 78
     0
  0
ENDTAB
  0
TABLE
  2
LTYPE
  5
2E9
330
0
100
AcDbSymbolTable
 70
     4
  0
LTYPE
  5
2F7
330
2E9
100
AcDbSymbolTableRecord
100
AcDbLinetypeTableRecord
  2
BYBLOCK
 70
     0
  3

 72
    65
 73
     0
 40
0.0
  0
LTYPE
  5
2F8
330
2E9
100
AcDbSymbolTableRecord
100
AcDbLinetypeTableRecord
  2
BYLAYER
 70
     0
  3

 72
    65
 73
     0
 40
0.0
  0
LTYPE
  5
2F9
330
2E9
100
AcDbSymbolTableRecord
100
AcDbLinetypeTableRecord
  2
CONTINUOUS
 70
     0
  3
Solid line
 72
    65
 73
     0
 40
0.0
  0
LTYPE
  5
308
330
2E9
100
AcDbSymbolTableRecord
100
AcDbLinetypeTableRecord
  2
HIDDEN
 70
     0
  3
_ _ _ _ _ _ _ _ _ _ _ _ _ _ _ _ _ _ _ _ _ _ _
 72
    65
 73
     2
 40
0.375
 49
0.25
 74
     0
 49
-0.125
 74
     0
  0
LTYPE
  5
309
330
2E9
100
AcDbSymbolTableRecord
100
AcDbLinetypeTableRecord
  2
CENTER
 70
     0
  3
____ _ ____ _ ____ _ ____ _ ____ _ ____ _ ____
 72
    65
 73
     4
 40
2.0
 49
1.25
 74
     0
 49
-0.25
 74
     0
 49
0.25
 74
     0
 49
-0.25
 74
     0
  0
LTYPE
  5
30A
330
2E9
100
AcDbSymbolTableRecord
100
AcDbLinetypeTableRecord
  2
PHANTOM
 70
     0
  3
_____ _ _ _____ _ _ _____ _ _ _____ _ _ ____
 72
    65
 73
     6
 40
2.5
 49
1.25
 74
     0
 49
-0.25
 74
     0
 49
0.25
 74
     0
 49
-0.25
 74
     0
 49
0.25
 74
     0
 49
-0.25
 74
     0
  0
ENDTAB
  0
TABLE
  2
LAYER
  5
2E6
330
0
100
AcDbSymbolTable
 70
    10
  0
LAYER
  5
2F4
330
2E6
100
AcDbSymbolTableRecord
100
AcDbLayerTableRecord
  2
0
 70
     0
 62
     7
  6
CONTINUOUS
  0
LAYER
  5
306
330
2E6
100
AcDbSymbolTableRecord
100
AcDbLayerTableRecord
  2
DAMAN
 70
     0
 62
     5
  6
CONTINUOUS
  0
LAYER
  5
30B
330
2E6
100
AcDbSymbolTableRecord
100
AcDbLayerTableRecord
  2
UTILITY
 70
     0
 62
    -7
  6
CONTINUOUS
  0
LAYER
  5
30C
330
2E6
100
AcDbSymbolTableRecord
100
AcDbLayerTableRecord
  2
DIM
 70
     0
 62
     5
  6
CONTINUOUS
  0
LAYER
  5
30D
330
2E6
100
AcDbSymbolTableRecord
100
AcDbLayerTableRecord
  2
CDIM
 70
     0
 62
     2
  6
CONTINUOUS
  0
LAYER
  5
30E
330
2E6
100
AcDbSymbolTableRecord
100
AcDbLayerTableRecord
  2
CHIDDEN
 70
     0
 62
     3
  6
HIDDEN
  0
LAYER
  5
30F
330
2E6
100
AcDbSymbolTableRecord
100
AcDbLayerTableRecord
  2
CSOLID
 70
     0
 62
     3
  6
CONTINUOUS
  0
LAYER
  5
310
330
2E6
100
AcDbSymbolTableRecord
100
AcDbLayerTableRecord
  2
CCENTER
 70
     0
 62
     4
  6
CENTER
  0
LAYER
  5
311
330
2E6
100
AcDbSymbolTableRecord
100
AcDbLayerTableRecord
  2
PHANTOM
 70
     0
 62
     1
  6
PHANTOM
  0
LAYER
  5
312
330
2E6
100
AcDbSymbolTableRecord
100
AcDbLayerTableRecord
  2
BORDER
 70
     0
 62
     7
  6
CONTINUOUS
  0
ENDTAB
  0
TABLE
  2
STYLE
  5
2E7
330
0
100
AcDbSymbolTable
 70
     2
  0
STYLE
  5
2F5
330
2E7
100
AcDbSymbolTableRecord
100
AcDbTextStyleTableRecord
  2
STANDARD
 70
     0
 40
0.0
 41
1.0
 50
0.0
 71
     0
 42
0.2
  3
txt
  4

  0
STYLE
  5
313
330
2E7
100
AcDbSymbolTableRecord
100
AcDbTextStyleTableRecord
  2
STR
 70
     0
 40
0.0
 41
1.0
 50
0.0
 71
     0
 42
0.09375
  3
SIMPLEX
  4

  0
ENDTAB
  0
TABLE
  2
VIEW
  5
2EA
330
0
100
AcDbSymbolTable
 70
     0
  0
ENDTAB
  0
TABLE
  2
UCS
  5
2EB
330
0
100
AcDbSymbolTable
 70
     0
  0
ENDTAB
  0
TABLE
  2
APPID
  5
2ED
330
0
100
AcDbSymbolTable
 70
     1
  0
APPID
  5
2F6
330
2ED
100
AcDbSymbolTableRecord
100
AcDbRegAppTableRecord
  2
ACAD
 70
     0
  0
ENDTAB
  0
TABLE
  2
DIMSTYLE
  5
2EE
330
0
100
AcDbSymbolTable
 70
     1
  0
DIMSTYLE
105
613
330
2EE
100
AcDbSymbolTableRecord
100
AcDbDimStyleTableRecord
  2
STANDARD
 70
     0
  3

  4

  5

  6

  7

 40
1.0
 41
0.18
 42
0.0625
 43
0.38
 44
0.18
 45
0.0
 46
0.0
 47
0.0
 48
0.0
140
0.18
141
0.09
142
0.0
143
25.4
144
1.0
145
0.0
146
1.0
147
0.09
 71
     0
 72
     0
 73
     1
 74
     1
 75
     0
 76
     0
 77
     0
 78
     0
170
     0
171
     2
172
     0
173
     0
174
     0
175
     0
176
     0
177
     0
178
     0
270
     2
271
     4
272
     4
273
     2
274
     2
340
2F5
275
     0
280
     0
281
     0
282
     0
283
     1
284
     0
285
     0
286
     0
287
     3
288
     0
  0
ENDTAB
  0
TABLE
  2
BLOCK_RECORD
  5
2E5
330
0
100
AcDbSymbolTable
 70
    33
  0
BLOCK_RECORD
  5
302
102
{ACAD_XDICTIONARY
360
637
102
}
330
2E5
100
AcDbSymbolTableRecord
100
AcDbBlockTableRecord
  2
*MODEL_SPACE
  0
BLOCK_RECORD
  5
2FE
102
{ACAD_XDICTIONARY
360
635
102
}
330
2E5
100
AcDbSymbolTableRecord
100
AcDbBlockTableRecord
  2
*PAPER_SPACE
  0
BLOCK_RECORD
  5
316
330
2E5
100
AcDbSymbolTableRecord
100
AcDbBlockTableRecord
  2
500MKT
  0
BLOCK_RECORD
  5
318
330
2E5
100
AcDbSymbolTableRecord
100
AcDbBlockTableRecord
  2
100CROSS
  0
BLOCK_RECORD
  5
35A
330
2E5
100
AcDbSymbolTableRecord
100
AcDbBlockTableRecord
  2
050CROSS
  0
BLOCK_RECORD
  5
365
330
2E5
100
AcDbSymbolTableRecord
100
AcDbBlockTableRecord
  2
500MKCT
  0
BLOCK_RECORD
  5
39B
330
2E5
100
AcDbSymbolTableRecord
100
AcDbBlockTableRecord
  2
500MKS
  0
BLOCK_RECORD
  5
3C3
330
2E5
100
AcDbSymbolTableRecord
100
AcDbBlockTableRecord
  2
D07
  0
BLOCK_RECORD
  5
3EB
330
2E5
100
AcDbSymbolTableRecord
100
AcDbBlockTableRecord
  2
038THDT
  0
BLOCK_RECORD
  5
3F4
330
2E5
100
AcDbSymbolTableRecord
100
AcDbBlockTableRecord
  2
038TOP
  0
BLOCK_RECORD
  5
3FA
330
2E5
100
AcDbSymbolTableRecord
100
AcDbBlockTableRecord
  2
025TOP
  0
BLOCK_RECORD
  5
400
330
2E5
100
AcDbSymbolTableRecord
100
AcDbBlockTableRecord
  2
075NPTFT
  0
BLOCK_RECORD
  5
402
330
2E5
100
AcDbSymbolTableRecord
100
AcDbBlockTableRecord
  2
750NPTFT
  0
BLOCK_RECORD
  5
40B
330
2E5
100
AcDbSymbolTableRecord
100
AcDbBlockTableRecord
  2
100NPTFT
  0
BLOCK_RECORD
  5
412
330
2E5
100
AcDbSymbolTableRecord
100
AcDbBlockTableRecord
  2
038NPTFT
  0
BLOCK_RECORD
  5
414
330
2E5
100
AcDbSymbolTableRecord
100
AcDbBlockTableRecord
  2
375NPTFT
  0
BLOCK_RECORD
  5
41D
330
2E5
100
AcDbSymbolTableRecord
100
AcDbBlockTableRecord
  2
025NPTFT
  0
BLOCK_RECORD
  5
41F
330
2E5
100
AcDbSymbolTableRecord
100
AcDbBlockTableRecord
  2
250NPTFT
  0
BLOCK_RECORD
  5
42B
330
2E5
100
AcDbSymbolTableRecord
100
AcDbBlockTableRecord
  2
D06
  0
BLOCK_RECORD
  5
442
330
2E5
100
AcDbSymbolTableRecord
100
AcDbBlockTableRecord
  2
D03C
  0
BLOCK_RECORD
  5
459
330
2E5
100
AcDbSymbolTableRecord
100
AcDbBlockTableRecord
  2
125NPTFT
  0
BLOCK_RECORD
  5
460
330
2E5
100
AcDbSymbolTableRecord
100
AcDbBlockTableRecord
  2
D05
  0
BLOCK_RECORD
  5
479
330
2E5
100
AcDbSymbolTableRecord
100
AcDbBlockTableRecord
  2
T16AT
  0
BLOCK_RECORD
  5
483
330
2E5
100
AcDbSymbolTableRecord
100
AcDbBlockTableRecord
  2
006NPTFT
  0
BLOCK_RECORD
  5
48A
330
2E5
100
AcDbSymbolTableRecord
100
AcDbBlockTableRecord
  2
16SAET
  0
BLOCK_RECORD
  5
492
330
2E5
100
AcDbSymbolTableRecord
100
AcDbBlockTableRecord
  2
20SAET
  0
BLOCK_RECORD
  5
499
330
2E5
100
AcDbSymbolTableRecord
100
AcDbBlockTableRecord
  2
162SAET
  0
BLOCK_RECORD
  5
4A1
330
2E5
100
AcDbSymbolTableRecord
100
AcDbBlockTableRecord
  2
06SAET
  0
BLOCK_RECORD
  5
4A8
330
2E5
100
AcDbSymbolTableRecord
100
AcDbBlockTableRecord
  2
MIBFBE
  0
BLOCK_RECORD
  5
4E7
330
2E5
100
AcDbSymbolTableRecord
100
AcDbBlockTableRecord
  2
C162T
  0
BLOCK_RECORD
  5
4F1
330
2E5
100
AcDbSymbolTableRecord
100
AcDbBlockTableRecord
  2
T3AT
  0
BLOCK_RECORD
  5
4FB
330
2E5
100
AcDbSymbolTableRecord
100
AcDbBlockTableRecord
  2
MIBGBG
  0
BLOCK_RECORD
  5
538
330
2E5
100
AcDbSymbolTableRecord
100
AcDbBlockTableRecord
  2
MIBFBF
  0
BLOCK_RECORD
  5
575
330
2E5
100
AcDbSymbolTableRecord
100
AcDbBlockTableRecord
  2
MIBFBG
  0
BLOCK_RECORD
  5
5B4
330
2E5
100
AcDbSymbolTableRecord
100
AcDbBlockTableRecord
  2
MIBFC
  0
ENDTAB
  0
ENDSEC
  0
SECTION
  2
BLOCKS
  0
BLOCK
  5
303
330
302
100
AcDbEntity
  8
0
100
AcDbBlockBegin
  2
*MODEL_SPACE
 70
     0
 10
0.0
 20
0.0
 30
0.0
  3
*MODEL_SPACE
  1

  0
ENDBLK
  5
304
330
302
100
AcDbEntity
  8
0
100
AcDbBlockEnd
  0
BLOCK
  5
2FF
330
2FE
100
AcDbEntity
 67
     1
  8
0
100
AcDbBlockBegin
  2
*PAPER_SPACE
 70
     0
 10
0.0
 20
0.0
 30
0.0
  3
*PAPER_SPACE
  1

  0
ENDBLK
  5
300
330
2FE
100
AcDbEntity
 67
     1
  8
0
100
AcDbBlockEnd
  0
BLOCK
  5
317
330
316
100
AcDbEntity
  8
0
100
AcDbBlockBegin
  2
500MKT
 70
     0
 10
0.0
 20
0.0
 30
0.0
  3
500MKT
  1

  0
INSERT
  5
319
330
316
100
AcDbEntity
  8
DAMAN
100
AcDbBlockReference
  2
100CROSS
 10
-0.937
 20
-0.4370000000000001
 30
0.0
 41
0.4220000000000001
 42
0.4220000000000001
  0
LINE
  5
31A
330
316
100
AcDbEntity
  8
DAMAN
100
AcDbLine
 10
-0.21825
 20
-0.03125
 30
0.0
 11
-0.21825
 21
-0.84325
 31
0.0
  0
LINE
  5
31B
330
316
100
AcDbEntity
  8
DAMAN
100
AcDbLine
 10
-0.156
 20
-5.0
 30
0.0
 11
-0.156
 21
0.0
 31
0.0
  0
LINE
  5
31C
330
316
100
AcDbEntity
  8
DAMAN
100
AcDbLine
 10
0.0
 20
-5.0
 30
0.0
 11
0.0
 21
0.0
 31
0.0
  0
LINE
  5
31D
330
316
100
AcDbEntity
  8
DAMAN
100
AcDbLine
 10
-0.21825
 20
-0.84325
 30
0.0
 11
-0.15575
 21
-0.84325
 31
0.0
  0
LINE
  5
31E
330
316
100
AcDbEntity
  8
DAMAN
100
AcDbLine
 10
-0.4372500000000001
 20
-0.26425
 30
0.0
 11
-0.46825
 21
-0.26425
 31
0.0
  0
LINE
  5
31F
330
316
100
AcDbEntity
  8
DAMAN
100
AcDbLine
 10
-0.46825
 20
-0.12425
 30
0.0
 11
-0.21825
 21
-0.12425
 31
0.0
  0
LINE
  5
320
330
316
100
AcDbEntity
  8
DAMAN
  6
CENTER
100
AcDbLine
 10
-0.75
 20
-0.4370000000000001
 30
0.0
 11
1.0
 21
-0.4370000000000001
 31
0.0
  0
LINE
  5
321
330
316
100
AcDbEntity
  8
DAMAN
100
AcDbLine
 10
-0.4372500000000001
 20
-0.60925
 30
0.0
 11
-0.46825
 21
-0.60925
 31
0.0
  0
LINE
  5
322
330
316
100
AcDbEntity
  8
DAMAN
100
AcDbLine
 10
-0.21825
 20
-0.74925
 30
0.0
 11
-0.46825
 21
-0.74925
 31
0.0
  0
LINE
  5
323
330
316
100
AcDbEntity
  8
DAMAN
100
AcDbLine
 10
0.0
 20
0.0
 30
0.0
 11
-1.375
 21
0.0
 31
0.0
  0
LWPOLYLINE
  5
324
330
316
100
AcDbEntity
  8
DAMAN
100
AcDbPolyline
 90
        6
 70
     1
 43
0.0
 10
-1.2072
 20
-0.593
 10
-0.937
 20
-0.7490000000000001
 10
-0.6668
 20
-0.593
 10
-0.6668
 20
-0.281
 10
-0.937
 20
-0.125
 10
-1.2072
 20
-0.281
  0
CIRCLE
  5
32C
330
316
100
AcDbEntity
  8
DAMAN
100
AcDbCircle
 10
-0.937
 20
-0.4370000000000001
 30
0.0
 40
0.265
  0
LINE
  5
32D
330
316
100
AcDbEntity
  8
DAMAN
100
AcDbLine
 10
-0.46825
 20
-0.74925
 30
0.0
 11
-0.46825
 21
-0.12425
 31
0.0
  0
POINT
  5
32E
330
316
100
AcDbEntity
  8
CHIDDEN
100
AcDbPoint
 10
-0.7342930000000001
 20
-0.4955720000000001
 30
0.0
  0
LINE
  5
32F
330
316
100
AcDbEntity
  8
DAMAN
100
AcDbLine
 10
0.0
 20
-0.28025
 30
0.0
 11
0.8440000000000001
 21
-0.28025
 31
0.0
  0
LINE
  5
330
330
316
100
AcDbEntity
  8
DAMAN
100
AcDbLine
 10
0.812
 20
-0.24925
 30
0.0
 11
0.0
 21
-0.24925
 31
0.0
  0
LINE
  5
331
330
316
100
AcDbEntity
  8
DAMAN
100
AcDbLine
 10
0.0
 20
-0.5932500000000001
 30
0.0
 11
0.8440000000000001
 21
-0.5932500000000001
 31
0.0
  0
LINE
  5
332
330
316
100
AcDbEntity
  8
DAMAN
100
AcDbLine
 10
0.0
 20
-0.62425
 30
0.0
 11
0.812
 21
-0.62425
 31
0.0
  0
LINE
  5
333
330
316
100
AcDbEntity
  8
DAMAN
100
AcDbLine
 10
-0.21825
 20
-0.60925
 30
0.0
 11
-0.4372500000000001
 21
-0.60925
 31
0.0
  0
LINE
  5
334
330
316
100
AcDbEntity
  8
DAMAN
100
AcDbLine
 10
-0.15625
 20
-0.03125
 30
0.0
 11
-0.21825
 21
-0.03125
 31
0.0
  0
LINE
  5
335
330
316
100
AcDbEntity
  8
DAMAN
100
AcDbLine
 10
-0.21825
 20
-0.26425
 30
0.0
 11
-0.4372500000000001
 21
-0.26425
 31
0.0
  0
LINE
  5
336
330
316
100
AcDbEntity
  8
DAMAN
100
AcDbLine
 10
0.875
 20
-0.56175
 30
0.0
 11
0.875
 21
-0.31225
 31
0.0
  0
LINE
  5
337
330
316
100
AcDbEntity
  8
DAMAN
100
AcDbLine
 10
0.812
 20
-0.62425
 30
0.0
 11
0.875
 21
-0.56175
 31
0.0
  0
LINE
  5
338
330
316
100
AcDbEntity
  8
DAMAN
100
AcDbLine
 10
0.875
 20
-0.31225
 30
0.0
 11
0.812
 21
-0.24925
 31
0.0
  0
LINE
  5
339
330
316
100
AcDbEntity
  8
DAMAN
100
AcDbLine
 10
-0.46825
 20
-4.249249999999999
 30
0.0
 11
-0.21825
 21
-4.249249999999999
 31
0.0
  0
LINE
  5
33A
330
316
100
AcDbEntity
  8
DAMAN
100
AcDbLine
 10
-0.4372500000000001
 20
-4.389249999999999
 30
0.0
 11
-0.46825
 21
-4.389249999999999
 31
0.0
  0
LINE
  5
33B
330
316
100
AcDbEntity
  8
DAMAN
  6
CENTER
100
AcDbLine
 10
-0.75
 20
-4.562
 30
0.0
 11
1.0
 21
-4.562
 31
0.0
  0
LINE
  5
33C
330
316
100
AcDbEntity
  8
DAMAN
100
AcDbLine
 10
-0.46825
 20
-4.874249999999999
 30
0.0
 11
-0.46825
 21
-4.249249999999999
 31
0.0
  0
INSERT
  5
33D
330
316
100
AcDbEntity
  8
DAMAN
100
AcDbBlockReference
  2
100CROSS
 10
-0.937
 20
-4.562
 30
0.0
 41
0.4220000000000001
 42
0.4220000000000001
  0
LWPOLYLINE
  5
33E
330
316
100
AcDbEntity
  8
DAMAN
100
AcDbPolyline
 90
        6
 70
     1
 43
0.0
 10
-1.2072
 20
-4.717999999999999
 10
-0.937
 20
-4.873999999999999
 10
-0.6668
 20
-4.717999999999999
 10
-0.6668
 20
-4.406
 10
-0.937
 20
-4.25
 10
-1.2072
 20
-4.406
  0
CIRCLE
  5
346
330
316
100
AcDbEntity
  8
DAMAN
100
AcDbCircle
 10
-0.937
 20
-4.562
 30
0.0
 40
0.265
  0
POINT
  5
347
330
316
100
AcDbEntity
  8
CHIDDEN
100
AcDbPoint
 10
-0.7342930000000001
 20
-4.620572
 30
0.0
  0
LINE
  5
348
330
316
100
AcDbEntity
  8
DAMAN
100
AcDbLine
 10
-0.21825
 20
-4.15625
 30
0.0
 11
-0.21825
 21
-4.96825
 31
0.0
  0
LINE
  5
349
330
316
100
AcDbEntity
  8
DAMAN
100
AcDbLine
 10
0.812
 20
-4.374249999999999
 30
0.0
 11
0.0
 21
-4.374249999999999
 31
0.0
  0
LINE
  5
34A
330
316
100
AcDbEntity
  8
DAMAN
100
AcDbLine
 10
0.0
 20
-4.405249999999999
 30
0.0
 11
0.8440000000000001
 21
-4.405249999999999
 31
0.0
  0
LINE
  5
34B
330
316
100
AcDbEntity
  8
DAMAN
100
AcDbLine
 10
-0.21825
 20
-4.389249999999999
 30
0.0
 11
-0.4372500000000001
 21
-4.389249999999999
 31
0.0
  0
LINE
  5
34C
330
316
100
AcDbEntity
  8
DAMAN
100
AcDbLine
 10
0.875
 20
-4.686749999999999
 30
0.0
 11
0.875
 21
-4.437249999999999
 31
0.0
  0
LINE
  5
34D
330
316
100
AcDbEntity
  8
DAMAN
100
AcDbLine
 10
0.875
 20
-4.437249999999999
 30
0.0
 11
0.812
 21
-4.374249999999999
 31
0.0
  0
LINE
  5
34E
330
316
100
AcDbEntity
  8
DAMAN
100
AcDbLine
 10
-0.15625
 20
-4.15625
 30
0.0
 11
-0.21825
 21
-4.15625
 31
0.0
  0
LINE
  5
34F
330
316
100
AcDbEntity
  8
DAMAN
100
AcDbLine
 10
-0.4372500000000001
 20
-4.73425
 30
0.0
 11
-0.46825
 21
-4.73425
 31
0.0
  0
LINE
  5
350
330
316
100
AcDbEntity
  8
DAMAN
100
AcDbLine
 10
0.0
 20
-4.749249999999999
 30
0.0
 11
0.812
 21
-4.749249999999999
 31
0.0
  0
LINE
  5
351
330
316
100
AcDbEntity
  8
DAMAN
100
AcDbLine
 10
0.0
 20
-4.71825
 30
0.0
 11
0.8440000000000001
 21
-4.71825
 31
0.0
  0
LINE
  5
352
330
316
100
AcDbEntity
  8
DAMAN
100
AcDbLine
 10
-0.21825
 20
-4.73425
 30
0.0
 11
-0.4372500000000001
 21
-4.73425
 31
0.0
  0
LINE
  5
353
330
316
100
AcDbEntity
  8
DAMAN
100
AcDbLine
 10
0.812
 20
-4.749249999999999
 30
0.0
 11
0.875
 21
-4.686749999999999
 31
0.0
  0
LINE
  5
354
330
316
100
AcDbEntity
  8
DAMAN
100
AcDbLine
 10
-0.21825
 20
-4.874249999999999
 30
0.0
 11
-0.46825
 21
-4.874249999999999
 31
0.0
  0
LINE
  5
355
330
316
100
AcDbEntity
  8
DAMAN
100
AcDbLine
 10
-1.375
 20
-5.0
 30
0.0
 11
0.0
 21
-5.0
 31
0.0
  0
LINE
  5
356
330
316
100
AcDbEntity
  8
DAMAN
100
AcDbLine
 10
-0.21825
 20
-4.96825
 30
0.0
 11
-0.15575
 21
-4.96825
 31
0.0
  0
LINE
  5
357
330
316
100
AcDbEntity
  8
DAMAN
100
AcDbLine
 10
-1.375
 20
0.0
 30
0.0
 11
-1.375
 21
-5.0
 31
0.0
  0
ENDBLK
  5
358
330
316
100
AcDbEntity
  8
0
100
AcDbBlockEnd
  0
BLOCK
  5
359
330
318
100
AcDbEntity
  8
0
100
AcDbBlockBegin
  2
100CROSS
 70
     0
 10
5.625
 20
4.59375
 30
0.0
  3
100CROSS
  1

  0
INSERT
  5
35B
330
318
100
AcDbEntity
  8
0
100
AcDbBlockReference
  2
050CROSS
 10
5.625
 20
4.59375
 30
0.0
  0
ENDBLK
  5
35C
330
318
100
AcDbEntity
  8
0
100
AcDbBlockEnd
  0
BLOCK
  5
35D
330
35A
100
AcDbEntity
  8
0
100
AcDbBlockBegin
  2
050CROSS
 70
     0
 10
5.0
 20
5.0
 30
0.0
  3
050CROSS
  1

  0
LINE
  5
35E
330
35A
100
AcDbEntity
  8
0
100
AcDbLine
 10
5.0
 20
5.28125
 30
0.0
 11
5.0
 21
5.78125
 31
0.0
  0
LINE
  5
35F
330
35A
100
AcDbEntity
  8
0
100
AcDbLine
 10
5.0
 20
4.875
 30
0.0
 11
5.0
 21
5.125
 31
0.0
  0
LINE
  5
360
330
35A
100
AcDbEntity
  8
0
100
AcDbLine
 10
5.0
 20
4.15625
 30
0.0
 11
5.0
 21
4.71875
 31
0.0
  0
LINE
  5
361
330
35A
100
AcDbEntity
  8
0
100
AcDbLine
 10
5.25
 20
5.0
 30
0.0
 11
5.8125
 21
5.0
 31
0.0
  0
LINE
  5
362
330
35A
100
AcDbEntity
  8
0
100
AcDbLine
 10
4.90625
 20
5.0
 30
0.0
 11
5.09375
 21
5.0
 31
0.0
  0
LINE
  5
363
330
35A
100
AcDbEntity
  8
0
100
AcDbLine
 10
4.1875
 20
5.0
 30
0.0
 11
4.75
 21
5.0
 31
0.0
  0
ENDBLK
  5
364
330
35A
100
AcDbEntity
  8
0
100
AcDbBlockEnd
  0
BLOCK
  5
366
330
365
100
AcDbEntity
  8
0
100
AcDbBlockBegin
  2
500MKCT
 70
     0
 10
0.0
 20
0.0
 30
0.0
  3
500MKCT
  1

  0
INSERT
  5
367
330
365
100
AcDbEntity
  8
DAMAN
100
AcDbBlockReference
  2
100CROSS
 10
-0.937
 20
-0.4370000000000001
 30
0.0
 41
0.4220000000000001
 42
0.4220000000000001
  0
LINE
  5
368
330
365
100
AcDbEntity
  8
DAMAN
100
AcDbLine
 10
-0.21825
 20
-0.03125
 30
0.0
 11
-0.21825
 21
-0.84325
 31
0.0
  0
LINE
  5
369
330
365
100
AcDbEntity
  8
DAMAN
100
AcDbLine
 10
-0.156
 20
-5.0
 30
0.0
 11
-0.156
 21
0.0
 31
0.0
  0
LINE
  5
36A
330
365
100
AcDbEntity
  8
DAMAN
100
AcDbLine
 10
-1.375
 20
0.0
 30
0.0
 11
-1.375
 21
-5.0
 31
0.0
  0
LINE
  5
36B
330
365
100
AcDbEntity
  8
DAMAN
100
AcDbLine
 10
0.0
 20
-5.0
 30
0.0
 11
0.0
 21
0.0
 31
0.0
  0
LINE
  5
36C
330
365
100
AcDbEntity
  8
DAMAN
100
AcDbLine
 10
-0.21825
 20
-4.874249999999999
 30
0.0
 11
-0.46825
 21
-4.874249999999999
 31
0.0
  0
LINE
  5
36D
330
365
100
AcDbEntity
  8
DAMAN
100
AcDbLine
 10
-0.4372500000000001
 20
-4.73425
 30
0.0
 11
-0.46825
 21
-4.73425
 31
0.0
  0
LINE
  5
36E
330
365
100
AcDbEntity
  8
DAMAN
100
AcDbLine
 10
-0.46825
 20
-4.249249999999999
 30
0.0
 11
-0.21825
 21
-4.249249999999999
 31
0.0
  0
LINE
  5
36F
330
365
100
AcDbEntity
  8
DAMAN
100
AcDbLine
 10
-0.4372500000000001
 20
-4.389249999999999
 30
0.0
 11
-0.46825
 21
-4.389249999999999
 31
0.0
  0
LINE
  5
370
330
365
100
AcDbEntity
  8
DAMAN
100
AcDbLine
 10
-1.375
 20
-5.0
 30
0.0
 11
0.0
 21
-5.0
 31
0.0
  0
LINE
  5
371
330
365
100
AcDbEntity
  8
DAMAN
100
AcDbLine
 10
-0.46825
 20
-4.874249999999999
 30
0.0
 11
-0.46825
 21
-4.249249999999999
 31
0.0
  0
INSERT
  5
372
330
365
100
AcDbEntity
  8
DAMAN
100
AcDbBlockReference
  2
100CROSS
 10
-0.937
 20
-4.562
 30
0.0
 41
0.4220000000000001
 42
0.4220000000000001
  0
LWPOLYLINE
  5
373
330
365
100
AcDbEntity
  8
DAMAN
100
AcDbPolyline
 90
        6
 70
     1
 43
0.0
 10
-1.2072
 20
-4.717999999999999
 10
-0.937
 20
-4.873999999999999
 10
-0.6668
 20
-4.717999999999999
 10
-0.6668
 20
-4.406
 10
-0.937
 20
-4.25
 10
-1.2072
 20
-4.406
  0
CIRCLE
  5
37B
330
365
100
AcDbEntity
  8
DAMAN
100
AcDbCircle
 10
-0.937
 20
-4.562
 30
0.0
 40
0.265
  0
POINT
  5
37C
330
365
100
AcDbEntity
  8
CHIDDEN
100
AcDbPoint
 10
-1.074716999999999
 20
-4.721859999999999
 30
0.0
  0
POINT
  5
37D
330
365
100
AcDbEntity
  8
CHIDDEN
100
AcDbPoint
 10
-1.024928
 20
-4.370194
 30
0.0
  0
POINT
  5
37E
330
365
100
AcDbEntity
  8
CHIDDEN
100
AcDbPoint
 10
-0.7342930000000001
 20
-4.620572
 30
0.0
  0
LINE
  5
37F
330
365
100
AcDbEntity
  8
DAMAN
100
AcDbLine
 10
-0.21825
 20
-4.15625
 30
0.0
 11
-0.21825
 21
-4.96825
 31
0.0
  0
LINE
  5
380
330
365
100
AcDbEntity
  8
DAMAN
100
AcDbLine
 10
-0.21825
 20
-4.96825
 30
0.0
 11
-0.15575
 21
-4.96825
 31
0.0
  0
LINE
  5
381
330
365
100
AcDbEntity
  8
DAMAN
100
AcDbLine
 10
-0.21825
 20
-4.73425
 30
0.0
 11
-0.4372500000000001
 21
-4.73425
 31
0.0
  0
LINE
  5
382
330
365
100
AcDbEntity
  8
DAMAN
100
AcDbLine
 10
-0.21825
 20
-4.389249999999999
 30
0.0
 11
-0.4372500000000001
 21
-4.389249999999999
 31
0.0
  0
LINE
  5
383
330
365
100
AcDbEntity
  8
DAMAN
100
AcDbLine
 10
-0.15625
 20
-4.15625
 30
0.0
 11
-0.21825
 21
-4.15625
 31
0.0
  0
LINE
  5
384
330
365
100
AcDbEntity
  8
DAMAN
100
AcDbLine
 10
-0.21825
 20
-0.84325
 30
0.0
 11
-0.15575
 21
-0.84325
 31
0.0
  0
LINE
  5
385
330
365
100
AcDbEntity
  8
DAMAN
100
AcDbLine
 10
-0.4372500000000001
 20
-0.26425
 30
0.0
 11
-0.46825
 21
-0.26425
 31
0.0
  0
LINE
  5
386
330
365
100
AcDbEntity
  8
DAMAN
100
AcDbLine
 10
-0.46825
 20
-0.12425
 30
0.0
 11
-0.21825
 21
-0.12425
 31
0.0
  0
LINE
  5
387
330
365
100
AcDbEntity
  8
DAMAN
100
AcDbLine
 10
-0.4372500000000001
 20
-0.60925
 30
0.0
 11
-0.46825
 21
-0.60925
 31
0.0
  0
LINE
  5
388
330
365
100
AcDbEntity
  8
DAMAN
100
AcDbLine
 10
-0.21825
 20
-0.74925
 30
0.0
 11
-0.46825
 21
-0.74925
 31
0.0
  0
LINE
  5
389
330
365
100
AcDbEntity
  8
DAMAN
100
AcDbLine
 10
0.0
 20
0.0
 30
0.0
 11
-1.375
 21
0.0
 31
0.0
  0
LWPOLYLINE
  5
38A
330
365
100
AcDbEntity
  8
DAMAN
100
AcDbPolyline
 90
        6
 70
     1
 43
0.0
 10
-1.2072
 20
-0.593
 10
-0.937
 20
-0.7490000000000001
 10
-0.6668
 20
-0.593
 10
-0.6668
 20
-0.281
 10
-0.937
 20
-0.125
 10
-1.2072
 20
-0.281
  0
CIRCLE
  5
392
330
365
100
AcDbEntity
  8
DAMAN
100
AcDbCircle
 10
-0.937
 20
-0.4370000000000001
 30
0.0
 40
0.265
  0
POINT
  5
393
330
365
100
AcDbEntity
  8
CHIDDEN
100
AcDbPoint
 10
-1.074716999999999
 20
-0.5968600000000001
 30
0.0
  0
POINT
  5
394
330
365
100
AcDbEntity
  8
CHIDDEN
100
AcDbPoint
 10
-1.024928
 20
-0.245194
 30
0.0
  0
LINE
  5
395
330
365
100
AcDbEntity
  8
DAMAN
100
AcDbLine
 10
-0.46825
 20
-0.74925
 30
0.0
 11
-0.46825
 21
-0.12425
 31
0.0
  0
POINT
  5
396
330
365
100
AcDbEntity
  8
CHIDDEN
100
AcDbPoint
 10
-0.7342930000000001
 20
-0.4955720000000001
 30
0.0
  0
LINE
  5
397
330
365
100
AcDbEntity
  8
DAMAN
100
AcDbLine
 10
-0.21825
 20
-0.60925
 30
0.0
 11
-0.4372500000000001
 21
-0.60925
 31
0.0
  0
LINE
  5
398
330
365
100
AcDbEntity
  8
DAMAN
100
AcDbLine
 10
-0.15625
 20
-0.03125
 30
0.0
 11
-0.21825
 21
-0.03125
 31
0.0
  0
LINE
  5
399
330
365
100
AcDbEntity
  8
DAMAN
100
AcDbLine
 10
-0.21825
 20
-0.26425
 30
0.0
 11
-0.4372500000000001
 21
-0.26425
 31
0.0
  0
ENDBLK
  5
39A
330
365
100
AcDbEntity
  8
0
100
AcDbBlockEnd
  0
BLOCK
  5
39C
330
39B
100
AcDbEntity
  8
0
100
AcDbBlockBegin
  2
500MKS
 70
     0
 10
0.0
 20
0.0
 30
0.0
  3
500MKS
  1

  0
LINE
  5
39D
330
39B
100
AcDbEntity
  8
DAMAN
100
AcDbLine
 10
-0.313
 20
-0.71875
 30
0.0
 11
-1.125
 21
-0.71875
 31
0.0
  0
LINE
  5
39E
330
39B
100
AcDbEntity
  8
DAMAN
100
AcDbLine
 10
-1.030999999999999
 20
-0.46875
 30
0.0
 11
-0.4060000000000001
 21
-0.46875
 31
0.0
  0
LINE
  5
39F
330
39B
100
AcDbEntity
  8
DAMAN
100
AcDbLine
 10
-0.18775
 20
-0.7809999999999999
 30
0.0
 11
-1.156749999999999
 21
-0.7809999999999999
 31
0.0
  0
LINE
  5
3A0
330
39B
100
AcDbEntity
  8
DAMAN
100
AcDbLine
 10
-1.156749999999999
 20
-0.937
 30
0.0
 11
-0.18775
 21
-0.937
 31
0.0
  0
LINE
  5
3A1
330
39B
100
AcDbEntity
  8
DAMAN
  6
CENTER
100
AcDbLine
 10
-0.71875
 20
-0.187
 30
0.0
 11
-0.71875
 21
-1.936999999999999
 31
0.0
  0
LINE
  5
3A2
330
39B
100
AcDbEntity
  8
DAMAN
100
AcDbLine
 10
-0.875
 20
-0.937
 30
0.0
 11
-0.875
 21
-1.780999999999999
 31
0.0
  0
LINE
  5
3A3
330
39B
100
AcDbEntity
  8
DAMAN
100
AcDbLine
 10
-0.5620000000000001
 20
-0.937
 30
0.0
 11
-0.5620000000000001
 21
-1.780999999999999
 31
0.0
  0
LINE
  5
3A4
330
39B
100
AcDbEntity
  8
DAMAN
100
AcDbLine
 10
-0.5310000000000001
 20
-1.749
 30
0.0
 11
-0.5310000000000001
 21
-0.937
 31
0.0
  0
LINE
  5
3A5
330
39B
100
AcDbEntity
  8
DAMAN
100
AcDbLine
 10
-0.9059999999999998
 20
-0.937
 30
0.0
 11
-0.9059999999999998
 21
-1.749
 31
0.0
  0
LINE
  5
3A6
330
39B
100
AcDbEntity
  8
DAMAN
100
AcDbLine
 10
-0.9059999999999998
 20
-1.749
 30
0.0
 11
-0.8435
 21
-1.811999999999999
 31
0.0
  0
LINE
  5
3A7
330
39B
100
AcDbEntity
  8
DAMAN
100
AcDbLine
 10
-0.594
 20
-1.811999999999999
 30
0.0
 11
-0.5310000000000001
 21
-1.749
 31
0.0
  0
LINE
  5
3A8
330
39B
100
AcDbEntity
  8
DAMAN
100
AcDbLine
 10
-0.8435
 20
-1.811999999999999
 30
0.0
 11
-0.594
 21
-1.811999999999999
 31
0.0
  0
LINE
  5
3A9
330
39B
100
AcDbEntity
  8
DAMAN
100
AcDbLine
 10
-1.156749999999999
 20
-0.7809999999999999
 30
0.0
 11
-1.156749999999999
 21
-0.937
 31
0.0
  0
LINE
  5
3AA
330
39B
100
AcDbEntity
  8
DAMAN
100
AcDbLine
 10
-1.030999999999999
 20
-0.71875
 30
0.0
 11
-1.030999999999999
 21
-0.46875
 31
0.0
  0
LINE
  5
3AB
330
39B
100
AcDbEntity
  8
DAMAN
100
AcDbLine
 10
-0.8909999999999998
 20
-0.71875
 30
0.0
 11
-0.8909999999999998
 21
-0.4997500000000001
 31
0.0
  0
LINE
  5
3AC
330
39B
100
AcDbEntity
  8
DAMAN
100
AcDbLine
 10
-1.125
 20
-0.71875
 30
0.0
 11
-1.125
 21
-0.78125
 31
0.0
  0
LINE
  5
3AD
330
39B
100
AcDbEntity
  8
DAMAN
100
AcDbLine
 10
-0.8909999999999998
 20
-0.4997500000000001
 30
0.0
 11
-0.8909999999999998
 21
-0.46875
 31
0.0
  0
LINE
  5
3AE
330
39B
100
AcDbEntity
  8
DAMAN
100
AcDbLine
 10
-0.5460000000000001
 20
-0.71875
 30
0.0
 11
-0.5460000000000001
 21
-0.4997500000000001
 31
0.0
  0
LINE
  5
3AF
330
39B
100
AcDbEntity
  8
DAMAN
100
AcDbLine
 10
-0.5460000000000001
 20
-0.4997500000000001
 30
0.0
 11
-0.5460000000000001
 21
-0.46875
 31
0.0
  0
LINE
  5
3B0
330
39B
100
AcDbEntity
  8
DAMAN
100
AcDbLine
 10
-0.25
 20
-0.312
 30
0.0
 11
-0.25
 21
0.313
 31
0.0
  0
LINE
  5
3B1
330
39B
100
AcDbEntity
  8
DAMAN
100
AcDbLine
 10
0.0
 20
0.4060000000000001
 30
0.0
 11
0.0
 21
-0.4060000000000001
 31
0.0
  0
LINE
  5
3B2
330
39B
100
AcDbEntity
  8
DAMAN
100
AcDbLine
 10
0.0625
 20
-0.4060000000000001
 30
0.0
 11
0.062
 21
0.4060000000000001
 31
0.0
  0
LINE
  5
3B3
330
39B
100
AcDbEntity
  8
DAMAN
100
AcDbLine
 10
0.06225
 20
0.4379999999999999
 30
0.0
 11
0.06225
 21
-0.5310000000000001
 31
0.0
  0
LINE
  5
3B4
330
39B
100
AcDbEntity
  8
DAMAN
100
AcDbLine
 10
0.21825
 20
-0.5310000000000001
 30
0.0
 11
0.21825
 21
0.4379999999999999
 31
0.0
  0
ARC
  5
3B5
330
39B
100
AcDbEntity
  8
DAMAN
100
AcDbCircle
 10
-0.18775
 20
-0.5310000000000001
 30
0.0
 40
0.4060000000000001
100
AcDbArc
 50
270.0
 51
0.0
  0
LINE
  5
3B6
330
39B
100
AcDbEntity
  8
DAMAN
100
AcDbLine
 10
0.0
 20
-0.4060000000000001
 30
0.0
 11
0.0625
 21
-0.4060000000000001
 31
0.0
  0
ARC
  5
3B7
330
39B
100
AcDbEntity
  8
DAMAN
100
AcDbCircle
 10
-0.18775
 20
-0.5310000000000001
 30
0.0
 40
0.25
100
AcDbArc
 50
270.0
 51
0.0
  0
LINE
  5
3B8
330
39B
100
AcDbEntity
  8
DAMAN
100
AcDbLine
 10
-0.4060000000000001
 20
-0.46875
 30
0.0
 11
-0.4060000000000001
 21
-0.71875
 31
0.0
  0
LINE
  5
3B9
330
39B
100
AcDbEntity
  8
DAMAN
100
AcDbLine
 10
-0.313
 20
-0.7807500000000001
 30
0.0
 11
-0.313
 21
-0.71875
 31
0.0
  0
LINE
  5
3BA
330
39B
100
AcDbEntity
  8
DAMAN
100
AcDbLine
 10
0.0
 20
-0.312
 30
0.0
 11
-0.25
 21
-0.312
 31
0.0
  0
LINE
  5
3BB
330
39B
100
AcDbEntity
  8
DAMAN
100
AcDbLine
 10
-0.2189999999999999
 20
-0.172
 30
0.0
 11
-0.25
 21
-0.172
 31
0.0
  0
LINE
  5
3BC
330
39B
100
AcDbEntity
  8
DAMAN
100
AcDbLine
 10
0.0
 20
-0.172
 30
0.0
 11
-0.2189999999999999
 21
-0.172
 31
0.0
  0
LINE
  5
3BD
330
39B
100
AcDbEntity
  8
DAMAN
100
AcDbLine
 10
-0.2189999999999999
 20
0.173
 30
0.0
 11
-0.25
 21
0.173
 31
0.0
  0
LINE
  5
3BE
330
39B
100
AcDbEntity
  8
DAMAN
100
AcDbLine
 10
0.0
 20
0.173
 30
0.0
 11
-0.2189999999999999
 21
0.173
 31
0.0
  0
LINE
  5
3BF
330
39B
100
AcDbEntity
  8
DAMAN
100
AcDbLine
 10
0.062
 20
0.4060000000000001
 30
0.0
 11
0.0
 21
0.4060000000000001
 31
0.0
  0
LINE
  5
3C0
330
39B
100
AcDbEntity
  8
DAMAN
100
AcDbLine
 10
-0.25
 20
0.313
 30
0.0
 11
0.0
 21
0.313
 31
0.0
  0
LINE
  5
3C1
330
39B
100
AcDbEntity
  8
DAMAN
100
AcDbLine
 10
0.21825
 20
0.4379999999999999
 30
0.0
 11
0.06225
 21
0.4379999999999999
 31
0.0
  0
ENDBLK
  5
3C2
330
39B
100
AcDbEntity
  8
0
100
AcDbBlockEnd
  0
BLOCK
  5
3C4
330
3C3
100
AcDbEntity
  8
0
100
AcDbBlockBegin
  2
D07
 70
     0
 10
0.0
 20
0.0
 30
0.0
  3
D07
  1

  0
CIRCLE
  5
3C5
330
3C3
100
AcDbEntity
  8
DAMAN
100
AcDbCircle
 10
0.0
 20
1.249
 30
0.0
 40
0.3439999999999999
  0
CIRCLE
  5
3C6
330
3C3
100
AcDbEntity
  8
DAMAN
100
AcDbCircle
 10
0.0
 20
0.0
 30
0.0
 40
0.3439999999999999
  0
INSERT
  5
3C7
330
3C3
100
AcDbEntity
  8
DAMAN
100
AcDbBlockReference
  2
100CROSS
 10
0.0
 20
1.249
 30
0.0
 41
0.5625
 42
0.5625
  0
INSERT
  5
3C8
330
3C3
100
AcDbEntity
  8
DAMAN
100
AcDbBlockReference
  2
100CROSS
 10
0.0
 20
0.0
 30
0.0
 41
0.5625
 42
0.5625
  0
INSERT
  5
3C9
330
3C3
100
AcDbEntity
  8
DAMAN
100
AcDbBlockReference
  2
100CROSS
 10
-2.2505
 20
-0.001
 30
0.0
 41
0.25
 42
0.25
  0
CIRCLE
  5
3CA
330
3C3
100
AcDbEntity
  8
DAMAN
100
AcDbCircle
 10
-2.188
 20
-2.032
 30
0.0
 40
0.1875
  0
CIRCLE
  5
3CB
330
3C3
100
AcDbEntity
  8
DAMAN
100
AcDbCircle
 10
-2.188
 20
-2.032
 30
0.0
 40
0.15625
  0
INSERT
  5
3CC
330
3C3
100
AcDbEntity
  8
DAMAN
100
AcDbBlockReference
  2
100CROSS
 10
-2.188
 20
-2.032
 30
0.0
 41
0.375
 42
0.375
  0
CIRCLE
  5
3CD
330
3C3
100
AcDbEntity
  8
DAMAN
100
AcDbCircle
 10
-2.250999999999999
 20
-0.00075
 30
0.0
 40
0.125
  0
CIRCLE
  5
3CE
330
3C3
100
AcDbEntity
  8
DAMAN
100
AcDbCircle
 10
-2.2505
 20
-0.001
 30
0.0
 40
0.1055
  0
CIRCLE
  5
3CF
330
3C3
100
AcDbEntity
  8
DAMAN
100
AcDbCircle
 10
-1.625999999999999
 20
-0.626
 30
0.0
 40
0.3439999999999999
  0
INSERT
  5
3D0
330
3C3
100
AcDbEntity
  8
DAMAN
100
AcDbBlockReference
  2
100CROSS
 10
-1.625999999999999
 20
-0.626
 30
0.0
 41
0.5625
 42
0.5625
  0
CIRCLE
  5
3D1
330
3C3
100
AcDbEntity
  8
DAMAN
100
AcDbCircle
 10
-1.688
 20
-1.5
 30
0.0
 40
0.125
  0
INSERT
  5
3D2
330
3C3
100
AcDbEntity
  8
DAMAN
100
AcDbBlockReference
  2
100CROSS
 10
-1.688
 20
-1.5
 30
0.0
 41
0.375
 42
0.375
  0
TEXT
  5
3D3
330
3C3
100
AcDbEntity
  8
DAMAN
100
AcDbText
 10
-1.563
 20
-1.31325
 30
0.0
 40
0.12
  1
Y
100
AcDbText
  0
TEXT
  5
3D4
330
3C3
100
AcDbEntity
  8
DAMAN
100
AcDbText
 10
-1.313
 20
-0.2195
 30
0.0
 40
0.12
  1
B
100
AcDbText
  0
CIRCLE
  5
3D5
330
3C3
100
AcDbEntity
  8
DAMAN
100
AcDbCircle
 10
-2.188
 20
1.249
 30
0.0
 40
0.0845
  0
CIRCLE
  5
3D6
330
3C3
100
AcDbEntity
  8
DAMAN
100
AcDbCircle
 10
-2.188
 20
1.968
 30
0.0
 40
0.1875
  0
CIRCLE
  5
3D7
330
3C3
100
AcDbEntity
  8
DAMAN
100
AcDbCircle
 10
-2.188
 20
1.968
 30
0.0
 40
0.15625
  0
INSERT
  5
3D8
330
3C3
100
AcDbEntity
  8
DAMAN
100
AcDbBlockReference
  2
100CROSS
 10
-2.188
 20
1.968
 30
0.0
 41
0.375
 42
0.375
  0
INSERT
  5
3D9
330
3C3
100
AcDbEntity
  8
DAMAN
100
AcDbBlockReference
  2
100CROSS
 10
-2.188
 20
1.249
 30
0.0
 41
0.25
 42
0.25
  0
CIRCLE
  5
3DA
330
3C3
100
AcDbEntity
  8
DAMAN
100
AcDbCircle
 10
-1.625999999999999
 20
0.6240000000000001
 30
0.0
 40
0.3439999999999999
  0
INSERT
  5
3DB
330
3C3
100
AcDbEntity
  8
DAMAN
100
AcDbBlockReference
  2
100CROSS
 10
-1.625999999999999
 20
0.6240000000000001
 30
0.0
 41
0.5625
 42
0.5625
  0
TEXT
  5
3DC
330
3C3
100
AcDbEntity
  8
DAMAN
100
AcDbText
 10
-1.344249999999999
 20
1.030499999999999
 30
0.0
 40
0.12
  1
A
100
AcDbText
  0
INSERT
  5
3DD
330
3C3
100
AcDbEntity
  8
DAMAN
100
AcDbBlockReference
  2
100CROSS
 10
0.5620000000000001
 20
-2.032
 30
0.0
 41
0.375
 42
0.375
  0
CIRCLE
  5
3DE
330
3C3
100
AcDbEntity
  8
DAMAN
100
AcDbCircle
 10
0.5620000000000001
 20
-2.032
 30
0.0
 40
0.1875
  0
CIRCLE
  5
3DF
330
3C3
100
AcDbEntity
  8
DAMAN
100
AcDbCircle
 10
0.5620000000000001
 20
-2.032
 30
0.0
 40
0.15625
  0
INSERT
  5
3E0
330
3C3
100
AcDbEntity
  8
DAMAN
100
AcDbBlockReference
  2
100CROSS
 10
0.5620000000000001
 20
-1.046999999999999
 30
0.0
 41
0.25
 42
0.25
  0
CIRCLE
  5
3E1
330
3C3
100
AcDbEntity
  8
DAMAN
100
AcDbCircle
 10
0.5620000000000001
 20
-1.046999999999999
 30
0.0
 40
0.0845
  0
INSERT
  5
3E2
330
3C3
100
AcDbEntity
  8
DAMAN
100
AcDbBlockReference
  2
100CROSS
 10
0.5620000000000001
 20
1.968
 30
0.0
 41
0.375
 42
0.375
  0
INSERT
  5
3E3
330
3C3
100
AcDbEntity
  8
DAMAN
100
AcDbBlockReference
  2
100CROSS
 10
0.6245000000000001
 20
0.6240000000000001
 30
0.0
 41
0.25
 42
0.25
  0
TEXT
  5
3E4
330
3C3
100
AcDbEntity
  8
DAMAN
100
AcDbText
 10
0.21825
 20
0.468
 30
0.0
 40
0.12
  1
P
100
AcDbText
  0
CIRCLE
  5
3E5
330
3C3
100
AcDbEntity
  8
DAMAN
100
AcDbCircle
 10
0.6240000000000001
 20
0.62425
 30
0.0
 40
0.125
  0
CIRCLE
  5
3E6
330
3C3
100
AcDbEntity
  8
DAMAN
100
AcDbCircle
 10
0.6245000000000001
 20
0.6240000000000001
 30
0.0
 40
0.1055
  0
TEXT
  5
3E7
330
3C3
100
AcDbEntity
  8
DAMAN
100
AcDbText
 10
0.2495
 20
1.718
 30
0.0
 40
0.12
  1
T
100
AcDbText
  0
CIRCLE
  5
3E8
330
3C3
100
AcDbEntity
  8
DAMAN
100
AcDbCircle
 10
0.5620000000000001
 20
1.968
 30
0.0
 40
0.1875
  0
CIRCLE
  5
3E9
330
3C3
100
AcDbEntity
  8
DAMAN
100
AcDbCircle
 10
0.5620000000000001
 20
1.968
 30
0.0
 40
0.15625
  0
ENDBLK
  5
3EA
330
3C3
100
AcDbEntity
  8
0
100
AcDbBlockEnd
  0
BLOCK
  5
3EC
330
3EB
100
AcDbEntity
  8
0
100
AcDbBlockBegin
  2
038THDT
 70
     0
 10
0.0
 20
0.0
 30
0.0
  3
038THDT
  1

  0
CIRCLE
  5
3ED
330
3EB
100
AcDbEntity
  8
DAMAN
100
AcDbCircle
 10
3.0
 20
6.375
 30
0.0
 40
0.1875
  0
CIRCLE
  5
3EE
330
3EB
100
AcDbEntity
  8
DAMAN
100
AcDbCircle
 10
3.0
 20
6.375
 30
0.0
 40
0.15625
  0
INSERT
  5
3EF
330
3EB
100
AcDbEntity
  8
DAMAN
100
AcDbBlockReference
  2
100CROSS
 10
3.0
 20
6.375
 30
0.0
 41
0.375
 42
0.375
  0
INSERT
  5
3F0
330
3EB
100
AcDbEntity
  8
DAMAN
100
AcDbBlockReference
  2
100CROSS
 10
5.75
 20
6.375
 30
0.0
 41
0.375
 42
0.375
  0
CIRCLE
  5
3F1
330
3EB
100
AcDbEntity
  8
DAMAN
100
AcDbCircle
 10
5.75
 20
6.375
 30
0.0
 40
0.1875
  0
CIRCLE
  5
3F2
330
3EB
100
AcDbEntity
  8
DAMAN
100
AcDbCircle
 10
5.75
 20
6.375
 30
0.0
 40
0.15625
  0
ENDBLK
  5
3F3
330
3EB
100
AcDbEntity
  8
0
100
AcDbBlockEnd
  0
BLOCK
  5
3F5
330
3F4
100
AcDbEntity
  8
0
100
AcDbBlockBegin
  2
038TOP
 70
     0
 10
0.0
 20
0.0
 30
0.0
  3
038TOP
  1

  0
CIRCLE
  5
3F6
330
3F4
100
AcDbEntity
  8
CHIDDEN
100
AcDbCircle
 10
0.0
 20
0.0
 30
0.0
 40
0.1875
  0
CIRCLE
  5
3F7
330
3F4
100
AcDbEntity
  8
CSOLID
100
AcDbCircle
 10
0.0
 20
0.0
 30
0.0
 40
0.15625
  0
INSERT
  5
3F8
330
3F4
100
AcDbEntity
  8
CCENTER
100
AcDbBlockReference
  2
100CROSS
 10
0.0
 20
0.0
 30
0.0
 41
0.375
 42
0.375
  0
ENDBLK
  5
3F9
330
3F4
100
AcDbEntity
  8
0
100
AcDbBlockEnd
  0
BLOCK
  5
3FB
330
3FA
100
AcDbEntity
  8
0
100
AcDbBlockBegin
  2
025TOP
 70
     0
 10
0.0
 20
0.0
 30
0.0
  3
025TOP
  1

  0
CIRCLE
  5
3FC
330
3FA
100
AcDbEntity
  8
CHIDDEN
100
AcDbCircle
 10
-0.0005
 20
0.00025
 30
0.0
 40
0.125
  0
CIRCLE
  5
3FD
330
3FA
100
AcDbEntity
  8
CSOLID
100
AcDbCircle
 10
0.0
 20
0.0
 30
0.0
 40
0.1055
  0
INSERT
  5
3FE
330
3FA
100
AcDbEntity
  8
CCENTER
100
AcDbBlockReference
  2
100CROSS
 10
0.0
 20
0.0
 30
0.0
 41
0.25
 42
0.25
  0
ENDBLK
  5
3FF
330
3FA
100
AcDbEntity
  8
0
100
AcDbBlockEnd
  0
BLOCK
  5
401
330
400
100
AcDbEntity
  8
0
100
AcDbBlockBegin
  2
075NPTFT
 70
     0
 10
0.0
 20
0.0
 30
0.0
  3
075NPTFT
  1

  0
INSERT
  5
403
330
400
100
AcDbEntity
  8
DAMAN
100
AcDbBlockReference
  2
750NPTFT
 10
-6.410892999999999
 20
-4.555543
 30
0.0
  0
ENDBLK
  5
404
330
400
100
AcDbEntity
  8
0
100
AcDbBlockEnd
  0
BLOCK
  5
405
330
402
100
AcDbEntity
  8
0
100
AcDbBlockBegin
  2
750NPTFT
 70
     0
 10
0.0
 20
0.0
 30
0.0
  3
750NPTFT
  1

  0
INSERT
  5
406
330
402
100
AcDbEntity
  8
DAMAN
 62
     5
100
AcDbBlockReference
  2
100CROSS
 10
6.410892999999999
 20
4.555543
 30
0.0
 41
0.98
 42
0.98
  0
CIRCLE
  5
407
330
402
100
AcDbEntity
  8
DAMAN
 62
     5
100
AcDbCircle
 10
6.410892999999999
 20
4.555543
 30
0.0
 40
0.4910670000000001
  0
CIRCLE
  5
408
330
402
100
AcDbEntity
  8
DAMAN
 62
     5
100
AcDbCircle
 10
6.410892999999999
 20
4.555543
 30
0.0
 40
0.453
  0
CIRCLE
  5
409
330
402
100
AcDbEntity
  8
DAMAN
 62
     5
100
AcDbCircle
 10
6.410892999999999
 20
4.555543
 30
0.0
 40
0.53125
  0
ENDBLK
  5
40A
330
402
100
AcDbEntity
  8
0
100
AcDbBlockEnd
  0
BLOCK
  5
40C
330
40B
100
AcDbEntity
  8
0
100
AcDbBlockBegin
  2
100NPTFT
 70
     0
 10
0.0
 20
0.0
 30
0.0
  3
100NPTFT
  1

  0
CIRCLE
  5
40D
330
40B
100
AcDbEntity
  8
DAMAN
100
AcDbCircle
 10
0.0
 20
0.0
 30
0.0
 40
0.5625
  0
CIRCLE
  5
40E
330
40B
100
AcDbEntity
  8
DAMAN
100
AcDbCircle
 10
0.0
 20
0.0
 30
0.0
 40
0.6720000000000001
  0
INSERT
  5
40F
330
40B
100
AcDbEntity
  8
DAMAN
100
AcDbBlockReference
  2
100CROSS
 10
0.0
 20
0.0
 30
0.0
 41
1.199999999999999
 42
1.199999999999999
  0
CIRCLE
  5
410
330
40B
100
AcDbEntity
  8
DAMAN
100
AcDbCircle
 10
0.0
 20
0.0
 30
0.0
 40
0.625
  0
ENDBLK
  5
411
330
40B
100
AcDbEntity
  8
0
100
AcDbBlockEnd
  0
BLOCK
  5
413
330
412
100
AcDbEntity
  8
0
100
AcDbBlockBegin
  2
038NPTFT
 70
     0
 10
0.0
 20
0.0
 30
0.0
  3
038NPTFT
  1

  0
INSERT
  5
415
330
412
100
AcDbEntity
  8
DAMAN
100
AcDbBlockReference
  2
375NPTFT
 10
0.0
 20
0.0
 30
0.0
  0
ENDBLK
  5
416
330
412
100
AcDbEntity
  8
0
100
AcDbBlockEnd
  0
BLOCK
  5
417
330
414
100
AcDbEntity
  8
0
100
AcDbBlockBegin
  2
375NPTFT
 70
     0
 10
0.0
 20
0.0
 30
0.0
  3
375NPTFT
  1

  0
INSERT
  5
418
330
414
100
AcDbEntity
  8
DAMAN
100
AcDbBlockReference
  2
100CROSS
 10
0.0
 20
0.0
 30
0.0
 41
0.6800000000000001
 42
0.6800000000000001
  0
CIRCLE
  5
419
330
414
100
AcDbEntity
  8
DAMAN
100
AcDbCircle
 10
0.0
 20
0.0
 30
0.0
 40
0.3125
  0
CIRCLE
  5
41A
330
414
100
AcDbEntity
  8
DAMAN
100
AcDbCircle
 10
0.0
 20
0.0
 30
0.0
 40
0.281
  0
CIRCLE
  5
41B
330
414
100
AcDbEntity
  8
DAMAN
100
AcDbCircle
 10
0.0
 20
0.0
 30
0.0
 40
0.3439999999999999
  0
ENDBLK
  5
41C
330
414
100
AcDbEntity
  8
0
100
AcDbBlockEnd
  0
BLOCK
  5
41E
330
41D
100
AcDbEntity
  8
0
100
AcDbBlockBegin
  2
025NPTFT
 70
     0
 10
0.0
 20
0.0
 30
0.0
  3
025NPTFT
  1

  0
INSERT
  5
420
330
41D
100
AcDbEntity
  8
DAMAN
100
AcDbBlockReference
  2
250NPTFT
 10
0.0
 20
0.0
 30
0.0
  0
ENDBLK
  5
421
330
41D
100
AcDbEntity
  8
0
100
AcDbBlockEnd
  0
BLOCK
  5
422
330
41F
100
AcDbEntity
  8
0
100
AcDbBlockBegin
  2
250NPTFT
 70
     0
 10
0.0
 20
0.0
 30
0.0
  3
250NPTFT
  1

  0
CIRCLE
  5
423
330
41F
100
AcDbEntity
  8
DAMAN
100
AcDbCircle
 10
0.0
 20
0.0
 30
0.0
 40
0.273
  0
CIRCLE
  5
424
330
41F
100
AcDbEntity
  8
DAMAN
100
AcDbCircle
 10
0.0
 20
0.0
 30
0.0
 40
0.211
  0
INSERT
  5
425
330
41F
100
AcDbEntity
  8
DAMAN
100
AcDbBlockReference
  2
100CROSS
 10
0.0
 20
0.0
 30
0.0
 41
0.4220000000000001
 42
0.4220000000000001
  0
CIRCLE
  5
426
330
41F
100
AcDbEntity
  8
DAMAN
100
AcDbCircle
 10
0.0
 20
0.0
 30
0.0
 40
0.242251
  0
POINT
  5
427
330
41F
100
AcDbEntity
  8
CHIDDEN
100
AcDbPoint
 10
-0.087928
 20
0.191806
 30
0.0
  0
POINT
  5
428
330
41F
100
AcDbEntity
  8
CHIDDEN
100
AcDbPoint
 10
-0.137717
 20
-0.15986
 30
0.0
  0
POINT
  5
429
330
41F
100
AcDbEntity
  8
CHIDDEN
100
AcDbPoint
 10
0.202707
 20
-0.058572
 30
0.0
  0
ENDBLK
  5
42A
330
41F
100
AcDbEntity
  8
0
100
AcDbBlockEnd
  0
BLOCK
  5
42C
330
42B
100
AcDbEntity
  8
0
100
AcDbBlockBegin
  2
D06
 70
     0
 10
0.0
 20
0.0
 30
0.0
  3
D06
  1

  0
INSERT
  5
42D
330
42B
100
AcDbEntity
  8
DAMAN
100
AcDbBlockReference
  2
100CROSS
 10
2.1875
 20
-1.75
 30
0.0
 41
0.5625
 42
0.5625
  0
CIRCLE
  5
42E
330
42B
100
AcDbEntity
  8
DAMAN
100
AcDbCircle
 10
2.1875
 20
-1.75
 30
0.0
 40
0.28125
  0
CIRCLE
  5
42F
330
42B
100
AcDbEntity
  8
DAMAN
100
AcDbCircle
 10
1.375
 20
-2.375
 30
0.0
 40
0.28125
  0
INSERT
  5
430
330
42B
100
AcDbEntity
  8
DAMAN
100
AcDbBlockReference
  2
100CROSS
 10
1.375
 20
-2.375
 30
0.0
 41
0.5625
 42
0.5625
  0
INSERT
  5
431
330
42B
100
AcDbEntity
  8
DAMAN
100
AcDbBlockReference
  2
100CROSS
 10
1.375
 20
-1.125
 30
0.0
 41
0.5625
 42
0.5625
  0
CIRCLE
  5
432
330
42B
100
AcDbEntity
  8
DAMAN
100
AcDbCircle
 10
1.375
 20
-1.125
 30
0.0
 40
0.28125
  0
CIRCLE
  5
433
330
42B
100
AcDbEntity
  8
DAMAN
100
AcDbCircle
 10
0.75
 20
-0.375
 30
0.0
 40
0.28125
  0
INSERT
  5
434
330
42B
100
AcDbEntity
  8
DAMAN
100
AcDbBlockReference
  2
100CROSS
 10
0.75
 20
-0.375
 30
0.0
 41
0.5625
 42
0.5625
  0
INSERT
  5
435
330
42B
100
AcDbEntity
  8
DAMAN
100
AcDbBlockReference
  2
100CROSS
 10
2.75
 20
-3.5
 30
0.0
 41
0.375
 42
0.375
  0
CIRCLE
  5
436
330
42B
100
AcDbEntity
  8
DAMAN
100
AcDbCircle
 10
2.75
 20
-3.5
 30
0.0
 40
0.15625
  0
INSERT
  5
437
330
42B
100
AcDbEntity
  8
DAMAN
100
AcDbBlockReference
  2
100CROSS
 10
2.75
 20
0.0
 30
0.0
 41
0.375
 42
0.375
  0
CIRCLE
  5
438
330
42B
100
AcDbEntity
  8
DAMAN
100
AcDbCircle
 10
2.75
 20
0.0
 30
0.0
 40
0.15625
  0
INSERT
  5
439
330
42B
100
AcDbEntity
  8
DAMAN
100
AcDbBlockReference
  2
100CROSS
 10
0.0
 20
-3.5
 30
0.0
 41
0.375
 42
0.375
  0
CIRCLE
  5
43A
330
42B
100
AcDbEntity
  8
DAMAN
100
AcDbCircle
 10
0.0
 20
-3.5
 30
0.0
 40
0.15625
  0
CIRCLE
  5
43B
330
42B
100
AcDbEntity
  8
DAMAN
100
AcDbCircle
 10
0.0
 20
0.0
 30
0.0
 40
0.15625
  0
INSERT
  5
43C
330
42B
100
AcDbEntity
  8
DAMAN
100
AcDbBlockReference
  2
100CROSS
 10
0.0
 20
0.0
 30
0.0
 41
0.375
 42
0.375
  0
CIRCLE
  5
43D
330
42B
100
AcDbEntity
  8
DAMAN
100
AcDbCircle
 10
0.0
 20
-3.5
 30
0.0
 40
0.1875
  0
CIRCLE
  5
43E
330
42B
100
AcDbEntity
  8
DAMAN
100
AcDbCircle
 10
0.0
 20
0.0
 30
0.0
 40
0.1875
  0
CIRCLE
  5
43F
330
42B
100
AcDbEntity
  8
DAMAN
100
AcDbCircle
 10
2.75
 20
-3.5
 30
0.0
 40
0.1875
  0
CIRCLE
  5
440
330
42B
100
AcDbEntity
  8
DAMAN
100
AcDbCircle
 10
2.75
 20
0.0
 30
0.0
 40
0.1875
  0
ENDBLK
  5
441
330
42B
100
AcDbEntity
  8
0
100
AcDbBlockEnd
  0
BLOCK
  5
443
330
442
100
AcDbEntity
  8
0
100
AcDbBlockBegin
  2
D03C
 70
     0
 10
0.0
 20
0.0
 30
0.0
  3
D03C
  1

  0
INSERT
  5
444
330
442
100
AcDbEntity
  8
CCENTER
100
AcDbBlockReference
  2
100CROSS
 10
2.1875
 20
-1.75
 30
0.0
 41
0.5625
 42
0.5625
  0
CIRCLE
  5
445
330
442
100
AcDbEntity
  8
CSOLID
100
AcDbCircle
 10
2.1875
 20
-1.75
 30
0.0
 40
0.28125
  0
CIRCLE
  5
446
330
442
100
AcDbEntity
  8
CSOLID
100
AcDbCircle
 10
1.375
 20
-2.375
 30
0.0
 40
0.28125
  0
INSERT
  5
447
330
442
100
AcDbEntity
  8
CCENTER
100
AcDbBlockReference
  2
100CROSS
 10
1.375
 20
-2.375
 30
0.0
 41
0.5625
 42
0.5625
  0
INSERT
  5
448
330
442
100
AcDbEntity
  8
CCENTER
100
AcDbBlockReference
  2
100CROSS
 10
1.375
 20
-1.125
 30
0.0
 41
0.5625
 42
0.5625
  0
CIRCLE
  5
449
330
442
100
AcDbEntity
  8
CSOLID
100
AcDbCircle
 10
1.375
 20
-1.125
 30
0.0
 40
0.28125
  0
CIRCLE
  5
44A
330
442
100
AcDbEntity
  8
CSOLID
100
AcDbCircle
 10
0.75
 20
-0.375
 30
0.0
 40
0.28125
  0
INSERT
  5
44B
330
442
100
AcDbEntity
  8
CCENTER
100
AcDbBlockReference
  2
100CROSS
 10
0.75
 20
-0.375
 30
0.0
 41
0.5625
 42
0.5625
  0
INSERT
  5
44C
330
442
100
AcDbEntity
  8
CCENTER
100
AcDbBlockReference
  2
100CROSS
 10
2.75
 20
-3.5
 30
0.0
 41
0.375
 42
0.375
  0
CIRCLE
  5
44D
330
442
100
AcDbEntity
  8
CSOLID
100
AcDbCircle
 10
2.75
 20
-3.5
 30
0.0
 40
0.15625
  0
INSERT
  5
44E
330
442
100
AcDbEntity
  8
CCENTER
100
AcDbBlockReference
  2
100CROSS
 10
2.75
 20
0.0
 30
0.0
 41
0.375
 42
0.375
  0
CIRCLE
  5
44F
330
442
100
AcDbEntity
  8
CSOLID
100
AcDbCircle
 10
2.75
 20
0.0
 30
0.0
 40
0.15625
  0
INSERT
  5
450
330
442
100
AcDbEntity
  8
CCENTER
100
AcDbBlockReference
  2
100CROSS
 10
0.0
 20
-3.5
 30
0.0
 41
0.375
 42
0.375
  0
CIRCLE
  5
451
330
442
100
AcDbEntity
  8
CSOLID
100
AcDbCircle
 10
0.0
 20
-3.5
 30
0.0
 40
0.15625
  0
CIRCLE
  5
452
330
442
100
AcDbEntity
  8
CSOLID
100
AcDbCircle
 10
0.0
 20
0.0
 30
0.0
 40
0.15625
  0
INSERT
  5
453
330
442
100
AcDbEntity
  8
CCENTER
100
AcDbBlockReference
  2
100CROSS
 10
0.0
 20
0.0
 30
0.0
 41
0.375
 42
0.375
  0
CIRCLE
  5
454
330
442
100
AcDbEntity
  8
CHIDDEN
100
AcDbCircle
 10
0.0
 20
-3.5
 30
0.0
 40
0.1875
  0
CIRCLE
  5
455
330
442
100
AcDbEntity
  8
CHIDDEN
100
AcDbCircle
 10
0.0
 20
0.0
 30
0.0
 40
0.1875
  0
CIRCLE
  5
456
330
442
100
AcDbEntity
  8
CHIDDEN
100
AcDbCircle
 10
2.75
 20
-3.5
 30
0.0
 40
0.1875
  0
CIRCLE
  5
457
330
442
100
AcDbEntity
  8
CHIDDEN
100
AcDbCircle
 10
2.75
 20
0.0
 30
0.0
 40
0.1875
  0
ENDBLK
  5
458
330
442
100
AcDbEntity
  8
0
100
AcDbBlockEnd
  0
BLOCK
  5
45A
330
459
100
AcDbEntity
  8
0
100
AcDbBlockBegin
  2
125NPTFT
 70
     0
 10
0.0
 20
0.0
 30
0.0
  3
125NPTFT
  1

  0
CIRCLE
  5
45B
330
459
100
AcDbEntity
  8
DAMAN
100
AcDbCircle
 10
0.0
 20
0.0
 30
0.0
 40
0.8440000000000001
  0
CIRCLE
  5
45C
330
459
100
AcDbEntity
  8
DAMAN
100
AcDbCircle
 10
0.0
 20
0.0
 30
0.0
 40
0.7265000000000001
  0
INSERT
  5
45D
330
459
100
AcDbEntity
  8
DAMAN
100
AcDbBlockReference
  2
100CROSS
 10
0.0
 20
0.0
 30
0.0
 41
1.399999999999999
 42
1.399999999999999
  0
CIRCLE
  5
45E
330
459
100
AcDbEntity
  8
DAMAN
100
AcDbCircle
 10
0.0
 20
0.0
 30
0.0
 40
0.78125
  0
ENDBLK
  5
45F
330
459
100
AcDbEntity
  8
0
100
AcDbBlockEnd
  0
BLOCK
  5
461
330
460
100
AcDbEntity
  8
0
100
AcDbBlockBegin
  2
D05
 70
     0
 10
0.0
 20
0.0
 30
0.0
  3
D05
  1

  0
CIRCLE
  5
462
330
460
100
AcDbEntity
  8
DAMAN
  6
HIDDEN
100
AcDbCircle
 10
1.8125
 20
0.0
 30
0.0
 40
0.125
  0
CIRCLE
  5
463
330
460
100
AcDbEntity
  8
DAMAN
  6
HIDDEN
100
AcDbCircle
 10
1.8125
 20
-2.125
 30
0.0
 40
0.125
  0
CIRCLE
  5
464
330
460
100
AcDbEntity
  8
DAMAN
  6
HIDDEN
100
AcDbCircle
 10
0.0
 20
0.0
 30
0.0
 40
0.125
  0
CIRCLE
  5
465
330
460
100
AcDbEntity
  8
DAMAN
  6
HIDDEN
100
AcDbCircle
 10
0.0
 20
-2.125
 30
0.0
 40
0.125
  0
INSERT
  5
466
330
460
100
AcDbEntity
  8
DAMAN
100
AcDbBlockReference
  2
100CROSS
 10
0.0
 20
0.0
 30
0.0
 41
0.25
 42
0.25
  0
CIRCLE
  5
467
330
460
100
AcDbEntity
  8
DAMAN
100
AcDbCircle
 10
0.0
 20
0.0
 30
0.0
 40
0.1055
  0
CIRCLE
  5
468
330
460
100
AcDbEntity
  8
DAMAN
100
AcDbCircle
 10
0.0
 20
-2.125
 30
0.0
 40
0.1055
  0
INSERT
  5
469
330
460
100
AcDbEntity
  8
DAMAN
100
AcDbBlockReference
  2
100CROSS
 10
0.0
 20
-2.125
 30
0.0
 41
0.25
 42
0.25
  0
CIRCLE
  5
46A
330
460
100
AcDbEntity
  8
DAMAN
100
AcDbCircle
 10
1.8125
 20
0.0
 30
0.0
 40
0.1055
  0
INSERT
  5
46B
330
460
100
AcDbEntity
  8
DAMAN
100
AcDbBlockReference
  2
100CROSS
 10
1.8125
 20
0.0
 30
0.0
 41
0.25
 42
0.25
  0
CIRCLE
  5
46C
330
460
100
AcDbEntity
  8
DAMAN
100
AcDbCircle
 10
1.8125
 20
-2.125
 30
0.0
 40
0.1055
  0
INSERT
  5
46D
330
460
100
AcDbEntity
  8
DAMAN
100
AcDbBlockReference
  2
100CROSS
 10
1.8125
 20
-2.125
 30
0.0
 41
0.25
 42
0.25
  0
INSERT
  5
46E
330
460
100
AcDbEntity
  8
DAMAN
100
AcDbBlockReference
  2
100CROSS
 10
0.5310000000000001
 20
-0.125
 30
0.0
 41
0.4379999999999999
 42
0.4379999999999999
  0
CIRCLE
  5
46F
330
460
100
AcDbEntity
  8
DAMAN
100
AcDbCircle
 10
0.5310000000000001
 20
-0.125
 30
0.0
 40
0.21875
  0
CIRCLE
  5
470
330
460
100
AcDbEntity
  8
DAMAN
100
AcDbCircle
 10
0.9685
 20
-0.6559999999999999
 30
0.0
 40
0.21875
  0
INSERT
  5
471
330
460
100
AcDbEntity
  8
DAMAN
100
AcDbBlockReference
  2
100CROSS
 10
0.9685
 20
-0.6559999999999999
 30
0.0
 41
0.4379999999999999
 42
0.4379999999999999
  0
INSERT
  5
472
330
460
100
AcDbEntity
  8
DAMAN
100
AcDbBlockReference
  2
100CROSS
 10
0.9685
 20
-1.468499999999999
 30
0.0
 41
0.4379999999999999
 42
0.4379999999999999
  0
CIRCLE
  5
473
330
460
100
AcDbEntity
  8
DAMAN
100
AcDbCircle
 10
0.9685
 20
-1.468499999999999
 30
0.0
 40
0.21875
  0
CIRCLE
  5
474
330
460
100
AcDbEntity
  8
DAMAN
100
AcDbCircle
 10
1.5625
 20
-1.062249999999999
 30
0.0
 40
0.21875
  0
INSERT
  5
475
330
460
100
AcDbEntity
  8
DAMAN
100
AcDbBlockReference
  2
100CROSS
 10
1.5625
 20
-1.062249999999999
 30
0.0
 41
0.4379999999999999
 42
0.4379999999999999
  0
CIRCLE
  5
476
330
460
100
AcDbEntity
  8
DAMAN
100
AcDbCircle
 10
0.5310000000000001
 20
-1.9995
 30
0.0
 40
0.21875
  0
INSERT
  5
477
330
460
100
AcDbEntity
  8
DAMAN
100
AcDbBlockReference
  2
100CROSS
 10
0.5310000000000001
 20
-1.9995
 30
0.0
 41
-0.4379999999999999
 42
0.4379999999999999
 50
180.0
  0
ENDBLK
  5
478
330
460
100
AcDbEntity
  8
0
100
AcDbBlockEnd
  0
BLOCK
  5
47A
330
479
100
AcDbEntity
  8
0
100
AcDbBlockBegin
  2
T16AT
 70
     0
 10
0.0
 20
0.0
 30
0.0
  3
T16AT
  1

  0
CIRCLE
  5
47B
330
479
100
AcDbEntity
  8
DAMAN
100
AcDbCircle
 10
0.0
 20
0.0
 30
0.0
 40
0.5
  0
CIRCLE
  5
47C
330
479
100
AcDbEntity
  8
DAMAN
100
AcDbCircle
 10
0.0
 20
0.0
 30
0.0
 40
0.625
  0
CIRCLE
  5
47D
330
479
100
AcDbEntity
  8
DAMAN
100
AcDbCircle
 10
0.0
 20
0.0
 30
0.0
 40
0.6720000000000001
  0
CIRCLE
  5
47E
330
479
100
AcDbEntity
  8
DAMAN
100
AcDbCircle
 10
0.0
 20
0.0
 30
0.0
 40
0.72
  0
CIRCLE
  5
47F
330
479
100
AcDbEntity
  8
DAMAN
100
AcDbCircle
 10
0.0
 20
0.0
 30
0.0
 40
0.7809999999999999
  0
CIRCLE
  5
480
330
479
100
AcDbEntity
  8
DAMAN
  6
HIDDEN
100
AcDbCircle
 10
0.0
 20
0.0
 30
0.0
 40
0.6875
  0
INSERT
  5
481
330
479
100
AcDbEntity
  8
DAMAN
100
AcDbBlockReference
  2
100CROSS
 10
0.0
 20
0.0
 30
0.0
 41
1.399999999999999
 42
1.399999999999999
  0
ENDBLK
  5
482
330
479
100
AcDbEntity
  8
0
100
AcDbBlockEnd
  0
BLOCK
  5
484
330
483
100
AcDbEntity
  8
0
100
AcDbBlockBegin
  2
006NPTFT
 70
     0
 10
0.0
 20
0.0
 30
0.0
  3
006NPTFT
  1

  0
CIRCLE
  5
485
330
483
100
AcDbEntity
  8
DAMAN
 62
     5
100
AcDbCircle
 10
0.0
 20
0.0
 30
0.0
 40
0.125
  0
CIRCLE
  5
486
330
483
100
AcDbEntity
  8
DAMAN
 62
     5
100
AcDbCircle
 10
0.0
 20
0.0
 30
0.0
 40
0.164
  0
CIRCLE
  5
487
330
483
100
AcDbEntity
  8
DAMAN
  6
HIDDEN
 62
     5
100
AcDbCircle
 10
0.0
 20
0.0
 30
0.0
 40
0.142704
  0
INSERT
  5
488
330
483
100
AcDbEntity
  8
DAMAN
  6
CENTER
 62
     5
100
AcDbBlockReference
  2
100CROSS
 10
0.0
 20
0.0
 30
0.0
 41
0.3279999999999999
 42
0.3279999999999999
  0
ENDBLK
  5
489
330
483
100
AcDbEntity
  8
0
100
AcDbBlockEnd
  0
BLOCK
  5
48B
330
48A
100
AcDbEntity
  8
0
100
AcDbBlockBegin
  2
16SAET
 70
     0
 10
0.0
 20
0.0
 30
0.0
  3
16SAET
  1

  0
CIRCLE
  5
48C
330
48A
100
AcDbEntity
  8
DAMAN
100
AcDbCircle
 10
0.0
 20
0.0
 30
0.0
 40
0.6125
  0
CIRCLE
  5
48D
330
48A
100
AcDbEntity
  8
DAMAN
100
AcDbCircle
 10
0.0
 20
0.0
 30
0.0
 40
0.5620000000000001
  0
CIRCLE
  5
48E
330
48A
100
AcDbEntity
  8
DAMAN
100
AcDbCircle
 10
0.0
 20
0.0
 30
0.0
 40
1.0
  0
INSERT
  5
48F
330
48A
100
AcDbEntity
  8
DAMAN
100
AcDbBlockReference
  2
100CROSS
 10
0.0
 20
0.0
 30
0.0
 41
1.6
 42
1.6
  0
CIRCLE
  5
490
330
48A
100
AcDbEntity
  8
DAMAN
100
AcDbCircle
 10
0.0
 20
0.0
 30
0.0
 40
0.65625
  0
ENDBLK
  5
491
330
48A
100
AcDbEntity
  8
0
100
AcDbBlockEnd
  0
BLOCK
  5
493
330
492
100
AcDbEntity
  8
0
100
AcDbBlockBegin
  2
20SAET
 70
     0
 10
0.0
 20
0.0
 30
0.0
  3
20SAET
  1

  0
INSERT
  5
494
330
492
100
AcDbEntity
  8
DAMAN
100
AcDbBlockReference
  2
100CROSS
 10
0.0
 20
0.0
 30
0.0
 41
1.7
 42
1.7
  0
CIRCLE
  5
495
330
492
100
AcDbEntity
  8
DAMAN
100
AcDbCircle
 10
0.0
 20
0.0
 30
0.0
 40
0.8125
  0
CIRCLE
  5
496
330
492
100
AcDbEntity
  8
DAMAN
100
AcDbCircle
 10
0.0
 20
0.0
 30
0.0
 40
1.125
  0
CIRCLE
  5
497
330
492
100
AcDbEntity
  8
DAMAN
100
AcDbCircle
 10
0.0
 20
0.0
 30
0.0
 40
0.75
  0
ENDBLK
  5
498
330
492
100
AcDbEntity
  8
0
100
AcDbBlockEnd
  0
BLOCK
  5
49A
330
499
100
AcDbEntity
  8
0
100
AcDbBlockBegin
  2
162SAET
 70
     0
 10
0.0
 20
0.0
 30
0.0
  3
162SAET
  1

  0
INSERT
  5
49B
330
499
100
AcDbEntity
  8
CCENTER
100
AcDbBlockReference
  2
100CROSS
 10
0.0
 20
0.0
 30
0.0
 41
1.7
 42
1.7
  0
CIRCLE
  5
49C
330
499
100
AcDbEntity
  8
CHIDDEN
100
AcDbCircle
 10
0.0
 20
0.0
 30
0.0
 40
0.8125
  0
CIRCLE
  5
49D
330
499
100
AcDbEntity
  8
CSOLID
100
AcDbCircle
 10
0.0
 20
0.0
 30
0.0
 40
1.125
  0
CIRCLE
  5
49E
330
499
100
AcDbEntity
  8
CSOLID
100
AcDbCircle
 10
0.0
 20
0.0
 30
0.0
 40
0.75
  0
CIRCLE
  5
49F
330
499
100
AcDbEntity
  8
PHANTOM
100
AcDbCircle
 10
0.0
 20
0.0
 30
0.0
 40
1.084999999999999
  0
ENDBLK
  5
4A0
330
499
100
AcDbEntity
  8
0
100
AcDbBlockEnd
  0
BLOCK
  5
4A2
330
4A1
100
AcDbEntity
  8
0
100
AcDbBlockBegin
  2
06SAET
 70
     0
 10
0.0
 20
0.0
 30
0.0
  3
06SAET
  1

  0
INSERT
  5
4A3
330
4A1
100
AcDbEntity
  8
DAMAN
100
AcDbBlockReference
  2
100CROSS
 10
0.0
 20
0.0
 30
0.0
  0
CIRCLE
  5
4A4
330
4A1
100
AcDbEntity
  8
DAMAN
100
AcDbCircle
 10
0.0
 20
0.0
 30
0.0
 40
0.28125
  0
CIRCLE
  5
4A5
330
4A1
100
AcDbEntity
  8
DAMAN
100
AcDbCircle
 10
0.0
 20
0.0
 30
0.0
 40
0.5
  0
CIRCLE
  5
4A6
330
4A1
100
AcDbEntity
  8
DAMAN
100
AcDbCircle
 10
0.0
 20
0.0
 30
0.0
 40
0.25
  0
ENDBLK
  5
4A7
330
4A1
100
AcDbEntity
  8
0
100
AcDbBlockEnd
  0
BLOCK
  5
4A9
330
4A8
100
AcDbEntity
  8
0
100
AcDbBlockBegin
  2
MIBFBE
 70
     0
 10
0.0
 20
0.0
 30
0.0
  3
MIBFBE
  1

  0
LINE
  5
4AA
330
4A8
100
AcDbEntity
  8
DAMAN
100
AcDbLine
 10
-1.0
 20
1.0
 30
0.0
 11
4.0
 21
1.0
 31
0.0
  0
LINE
  5
4AB
330
4A8
100
AcDbEntity
  8
DAMAN
100
AcDbLine
 10
4.0
 20
1.0
 30
0.0
 11
4.0
 21
6.0
 31
0.0
  0
LINE
  5
4AC
330
4A8
100
AcDbEntity
  8
DAMAN
100
AcDbLine
 10
4.0
 20
6.0
 30
0.0
 11
-1.0
 21
6.0
 31
0.0
  0
LINE
  5
4AD
330
4A8
100
AcDbEntity
  8
DAMAN
  6
HIDDEN
100
AcDbLine
 10
-1.0
 20
6.0
 30
0.0
 11
-1.0
 21
1.0
 31
0.0
  0
LINE
  5
4AE
330
4A8
100
AcDbEntity
  8
DAMAN
100
AcDbLine
 10
6.75
 20
1.0
 30
0.0
 11
14.25
 21
1.0
 31
0.0
  0
LINE
  5
4AF
330
4A8
100
AcDbEntity
  8
DAMAN
100
AcDbLine
 10
14.25
 20
1.0
 30
0.0
 11
14.25
 21
6.0
 31
0.0
  0
LINE
  5
4B0
330
4A8
100
AcDbEntity
  8
DAMAN
100
AcDbLine
 10
14.25
 20
6.0
 30
0.0
 11
6.75
 21
6.0
 31
0.0
  0
LINE
  5
4B1
330
4A8
100
AcDbEntity
  8
DAMAN
100
AcDbLine
 10
6.75
 20
6.0
 30
0.0
 11
6.75
 21
1.0
 31
0.0
  0
LINE
  5
4B2
330
4A8
100
AcDbEntity
  8
DAMAN
100
AcDbLine
 10
17.0
 20
6.0
 30
0.0
 11
22.0
 21
6.0
 31
0.0
  0
LINE
  5
4B3
330
4A8
100
AcDbEntity
  8
DAMAN
100
AcDbLine
 10
22.0
 20
1.0
 30
0.0
 11
17.0
 21
1.0
 31
0.0
  0
LINE
  5
4B4
330
4A8
100
AcDbEntity
  8
DAMAN
  6
HIDDEN
100
AcDbLine
 10
22.0
 20
6.0
 30
0.0
 11
22.0
 21
1.0
 31
0.0
  0
LINE
  5
4B5
330
4A8
100
AcDbEntity
  8
DAMAN
100
AcDbLine
 10
17.0
 20
1.0
 30
0.0
 11
17.0
 21
6.0
 31
0.0
  0
LINE
  5
4B6
330
4A8
100
AcDbEntity
  8
DAMAN
100
AcDbLine
 10
14.25
 20
0.0
 30
0.0
 11
6.75
 21
0.0
 31
0.0
  0
LINE
  5
4B7
330
4A8
100
AcDbEntity
  8
DAMAN
100
AcDbLine
 10
6.75
 20
-5.0
 30
0.0
 11
14.25
 21
-5.0
 31
0.0
  0
LINE
  5
4B8
330
4A8
100
AcDbEntity
  8
DAMAN
100
AcDbLine
 10
6.75
 20
0.0
 30
0.0
 11
6.75
 21
-5.0
 31
0.0
  0
LINE
  5
4B9
330
4A8
100
AcDbEntity
  8
DAMAN
100
AcDbLine
 10
14.25
 20
-5.0
 30
0.0
 11
14.25
 21
0.0
 31
0.0
  0
INSERT
  5
4BA
330
4A8
100
AcDbEntity
  8
DAMAN
100
AcDbBlockReference
  2
500MKCT
 10
6.75
 20
6.0
 30
0.0
  0
INSERT
  5
4BB
330
4A8
100
AcDbEntity
  8
DAMAN
100
AcDbBlockReference
  2
500MKCT
 10
14.25
 20
1.0
 30
0.0
 50
180.0
  0
INSERT
  5
4BC
330
4A8
100
AcDbEntity
  8
DAMAN
100
AcDbBlockReference
  2
500MKT
 10
22.563
 20
6.0
 30
0.0
  0
INSERT
  5
4BD
330
4A8
100
AcDbEntity
  8
DAMAN
100
AcDbBlockReference
  2
500MKT
 10
-1.563
 20
1.0
 30
0.0
 50
180.0
  0
INSERT
  5
4BE
330
4A8
100
AcDbEntity
  8
DAMAN
100
AcDbBlockReference
  2
500MKS
 10
6.531
 20
-4.625
 30
0.0
  0
INSERT
  5
4BF
330
4A8
100
AcDbEntity
  8
DAMAN
100
AcDbBlockReference
  2
500MKS
 10
14.469
 20
-4.625
 30
0.0
 41
-1.0
  0
INSERT
  5
4C0
330
4A8
100
AcDbEntity
  8
DAMAN
100
AcDbBlockReference
  2
100NPTFT
 10
1.5
 20
2.75
 30
0.0
  0
TEXT
  5
4C1
330
4A8
100
AcDbEntity
  8
DAMAN
100
AcDbText
 10
2.46875
 20
5.6875
 30
0.0
 40
0.2
  1
T
 50
270.0
100
AcDbText
  0
TEXT
  5
4C2
330
4A8
100
AcDbEntity
  8
DAMAN
100
AcDbText
 10
18.59375
 20
5.6875
 30
0.0
 40
0.2
  1
T
 50
90.0
100
AcDbText
  0
TEXT
  5
4C3
330
4A8
100
AcDbEntity
  8
DAMAN
100
AcDbText
 10
2.375
 20
1.78125
 30
0.0
 40
0.2
  1
P
 50
270.0
100
AcDbText
  0
TEXT
  5
4C4
330
4A8
100
AcDbEntity
  8
DAMAN
100
AcDbText
 10
18.84375
 20
1.625
 30
0.0
 40
0.2
  1
P
 50
90.0
100
AcDbText
  0
INSERT
  5
4C5
330
4A8
100
AcDbEntity
  8
DAMAN
100
AcDbBlockReference
  2
025NPTFT
 10
10.43749999999999
 20
-3.061999999999999
 30
0.0
  0
TEXT
  5
4C6
330
4A8
100
AcDbEntity
  8
DAMAN
100
AcDbText
 10
10.74999999999999
 20
-2.686999999999999
 30
0.0
 40
0.2
  1
GA
100
AcDbText
  0
TEXT
  5
4C7
330
4A8
100
AcDbEntity
  8
DAMAN
100
AcDbText
 10
9.3125
 20
-1.84375
 30
0.0
 40
0.2
  1
DAMAN ****
100
AcDbText
  0
INSERT
  5
4C8
330
4A8
100
AcDbEntity
  8
DAMAN
100
AcDbBlockReference
  2
100NPTFT
 10
19.5
 20
2.75
 30
0.0
  0
INSERT
  5
4C9
330
4A8
100
AcDbEntity
  8
DAMAN
100
AcDbBlockReference
  2
100NPTFT
 10
8.781
 20
-1.0625
 30
0.0
  0
INSERT
  5
4CA
330
4A8
100
AcDbEntity
  8
DAMAN
100
AcDbBlockReference
  2
100NPTFT
 10
8.781
 20
-3.938
 30
0.0
  0
TEXT
  5
4CB
330
4A8
100
AcDbEntity
  8
DAMAN
100
AcDbText
 10
9.75
 20
-0.5
 30
0.0
 40
0.2
  1
B
100
AcDbText
  0
TEXT
  5
4CC
330
4A8
100
AcDbEntity
  8
DAMAN
100
AcDbText
 10
9.8125
 20
-3.46875
 30
0.0
 40
0.2
  1
A
100
AcDbText
  0
INSERT
  5
4CD
330
4A8
100
AcDbEntity
  8
DAMAN
100
AcDbBlockReference
  2
100NPTFT
 10
12.031
 20
-1.0625
 30
0.0
  0
TEXT
  5
4CE
330
4A8
100
AcDbEntity
  8
DAMAN
100
AcDbText
 10
13.0
 20
-0.5
 30
0.0
 40
0.2
  1
B
100
AcDbText
  0
INSERT
  5
4CF
330
4A8
100
AcDbEntity
  8
DAMAN
100
AcDbBlockReference
  2
100NPTFT
 10
12.031
 20
-3.938
 30
0.0
  0
TEXT
  5
4D0
330
4A8
100
AcDbEntity
  8
DAMAN
100
AcDbText
 10
13.0625
 20
-3.46875
 30
0.0
 40
0.2
  1
A
100
AcDbText
  0
INSERT
  5
4D1
330
4A8
100
AcDbEntity
  8
DAMAN
100
AcDbBlockReference
  2
125NPTFT
 10
1.5
 20
4.875
 30
0.0
  0
INSERT
  5
4D2
330
4A8
100
AcDbEntity
  8
DAMAN
100
AcDbBlockReference
  2
125NPTFT
 10
19.5
 20
4.875
 30
0.0
  0
INSERT
  5
4D3
330
4A8
100
AcDbEntity
  8
DAMAN
100
AcDbBlockReference
  2
D05
 10
7.968499999999999
 20
4.34325
 30
0.0
  0
INSERT
  5
4D4
330
4A8
100
AcDbEntity
  8
DAMAN
100
AcDbBlockReference
  2
D05
 10
11.2185
 20
4.34325
 30
0.0
  0
LINE
  5
4D5
330
4A8
100
AcDbEntity
  8
DAMAN
100
AcDbLine
 10
14.25
 20
7.0
 30
0.0
 11
6.75
 21
7.0
 31
0.0
  0
LINE
  5
4D6
330
4A8
100
AcDbEntity
  8
DAMAN
100
AcDbLine
 10
14.25
 20
12.0
 30
0.0
 11
14.25
 21
7.0
 31
0.0
  0
INSERT
  5
4D7
330
4A8
100
AcDbEntity
  8
DAMAN
100
AcDbBlockReference
  2
500MKS
 10
14.469
 20
11.625
 30
0.0
 50
180.0
  0
LINE
  5
4D8
330
4A8
100
AcDbEntity
  8
DAMAN
100
AcDbLine
 10
6.75
 20
12.0
 30
0.0
 11
14.25
 21
12.0
 31
0.0
  0
INSERT
  5
4D9
330
4A8
100
AcDbEntity
  8
DAMAN
100
AcDbBlockReference
  2
500MKS
 10
6.531
 20
11.625
 30
0.0
 41
-1.0
 50
180.0
  0
LINE
  5
4DA
330
4A8
100
AcDbEntity
  8
DAMAN
100
AcDbLine
 10
6.75
 20
7.0
 30
0.0
 11
6.75
 21
12.0
 31
0.0
  0
INSERT
  5
4DB
330
4A8
100
AcDbEntity
  8
DAMAN
  6
CENTER
 62
     5
100
AcDbBlockReference
  2
100CROSS
 10
6.75
 20
1.0
 30
0.0
 41
0.246
 42
0.246
  0
INSERT
  5
4DC
330
4A8
100
AcDbEntity
  8
DAMAN
100
AcDbBlockReference
  2
038NPTFT
 10
13.25
 20
8.0
 30
0.0
  0
INSERT
  5
4DD
330
4A8
100
AcDbEntity
  8
DAMAN
100
AcDbBlockReference
  2
038NPTFT
 10
7.75
 20
8.0
 30
0.0
  0
INSERT
  5
4DE
330
4A8
100
AcDbEntity
  8
DAMAN
100
AcDbBlockReference
  2
T16AT
 10
10.5
 20
10.74999999999999
 30
0.0
  0
CIRCLE
  5
4DF
330
4A8
100
AcDbEntity
  8
DAMAN
100
AcDbCircle
 10
6.75
 20
1.0
 30
0.0
 40
0.125
  0
CIRCLE
  5
4E0
330
4A8
100
AcDbEntity
  8
DAMAN
100
AcDbCircle
 10
9.343999999999999
 20
4.656
 30
0.0
 40
0.125
  0
INSERT
  5
4E1
330
4A8
100
AcDbEntity
  8
DAMAN
  6
CENTER
 62
     5
100
AcDbBlockReference
  2
100CROSS
 10
9.343999999999999
 20
4.656
 30
0.0
 41
0.246
 42
0.246
  0
INSERT
  5
4E2
330
4A8
100
AcDbEntity
  8
DAMAN
  6
CENTER
 62
     5
100
AcDbBlockReference
  2
100CROSS
 10
12.594
 20
4.656
 30
0.0
 41
0.246
 42
0.246
  0
CIRCLE
  5
4E3
330
4A8
100
AcDbEntity
  8
DAMAN
100
AcDbCircle
 10
12.594
 20
4.656
 30
0.0
 40
0.125
  0
TEXT
  5
4E4
330
4A8
100
AcDbEntity
  8
DAMAN
100
AcDbText
 10
7.1875
 20
7.40625
 30
0.0
 40
0.2
  1
X
 50
180.0
100
AcDbText
  0
TEXT
  5
4E5
330
4A8
100
AcDbEntity
  8
DAMAN
100
AcDbText
 10
13.875
 20
7.40625
 30
0.0
 40
0.2
  1
X
 50
180.0
100
AcDbText
  0
ENDBLK
  5
4E6
330
4A8
100
AcDbEntity
  8
0
100
AcDbBlockEnd
  0
BLOCK
  5
4E8
330
4E7
100
AcDbEntity
  8
0
100
AcDbBlockBegin
  2
C162T
 70
     0
 10
0.0
 20
0.0
 30
0.0
  3
C162T
  1

  0
CIRCLE
  5
4E9
330
4E7
100
AcDbEntity
  8
DAMAN
100
AcDbCircle
 10
0.0
 20
0.0
 30
0.0
 40
0.375
  0
CIRCLE
  5
4EA
330
4E7
100
AcDbEntity
  8
DAMAN
100
AcDbCircle
 10
0.0
 20
0.0
 30
0.0
 40
0.5635
  0
CIRCLE
  5
4EB
330
4E7
100
AcDbEntity
  8
DAMAN
100
AcDbCircle
 10
0.0
 20
0.0
 30
0.0
 40
0.617
  0
CIRCLE
  5
4EC
330
4E7
100
AcDbEntity
  8
DAMAN
100
AcDbCircle
 10
0.0
 20
0.0
 30
0.0
 40
0.7005
  0
CIRCLE
  5
4ED
330
4E7
100
AcDbEntity
  8
DAMAN
100
AcDbCircle
 10
0.0
 20
0.0
 30
0.0
 40
0.875
  0
CIRCLE
  5
4EE
330
4E7
100
AcDbEntity
  8
DAMAN
  6
HIDDEN
100
AcDbCircle
 10
0.0
 20
0.0
 30
0.0
 40
0.6559999999999999
  0
INSERT
  5
4EF
330
4E7
100
AcDbEntity
  8
DAMAN
100
AcDbBlockReference
  2
100CROSS
 10
0.0
 20
0.0
 30
0.0
 41
1.32
 42
1.32
 43
1.5
  0
ENDBLK
  5
4F0
330
4E7
100
AcDbEntity
  8
0
100
AcDbBlockEnd
  0
BLOCK
  5
4F2
330
4F1
100
AcDbEntity
  8
0
100
AcDbBlockBegin
  2
T3AT
 70
     0
 10
0.0
 20
0.0
 30
0.0
  3
T3AT
  1

  0
CIRCLE
  5
4F3
330
4F1
100
AcDbEntity
  8
DAMAN
100
AcDbCircle
 10
0.0
 20
0.0
 30
0.0
 40
0.4665
  0
CIRCLE
  5
4F4
330
4F1
100
AcDbEntity
  8
DAMAN
100
AcDbCircle
 10
0.0
 20
0.0
 30
0.0
 40
0.4375
  0
CIRCLE
  5
4F5
330
4F1
100
AcDbEntity
  8
DAMAN
  6
HIDDEN
100
AcDbCircle
 10
0.0
 20
0.0
 30
0.0
 40
0.5
  0
INSERT
  5
4F6
330
4F1
100
AcDbEntity
  8
DAMAN
100
AcDbBlockReference
  2
100CROSS
 10
0.0
 20
0.0
 30
0.0
 41
0.88
 42
0.88
  0
CIRCLE
  5
4F7
330
4F1
100
AcDbEntity
  8
DAMAN
100
AcDbCircle
 10
0.0
 20
0.0
 30
0.0
 40
0.5160000000000001
  0
CIRCLE
  5
4F8
330
4F1
100
AcDbEntity
  8
DAMAN
100
AcDbCircle
 10
0.0
 20
0.0
 30
0.0
 40
0.5390000000000001
  0
CIRCLE
  5
4F9
330
4F1
100
AcDbEntity
  8
DAMAN
100
AcDbCircle
 10
0.0
 20
0.0
 30
0.0
 40
0.3439999999999999
  0
ENDBLK
  5
4FA
330
4F1
100
AcDbEntity
  8
0
100
AcDbBlockEnd
  0
BLOCK
  5
4FC
330
4FB
100
AcDbEntity
  8
0
100
AcDbBlockBegin
  2
MIBGBG
 70
     0
 10
0.0
 20
0.0
 30
0.0
  3
MIBGBG
  1

  0
LINE
  5
4FD
330
4FB
100
AcDbEntity
  8
DAMAN
100
AcDbLine
 10
-1.0
 20
1.0
 30
0.0
 11
4.0
 21
1.0
 31
0.0
  0
LINE
  5
4FE
330
4FB
100
AcDbEntity
  8
DAMAN
100
AcDbLine
 10
4.0
 20
1.0
 30
0.0
 11
4.0
 21
6.0
 31
0.0
  0
LINE
  5
4FF
330
4FB
100
AcDbEntity
  8
DAMAN
100
AcDbLine
 10
4.0
 20
6.0
 30
0.0
 11
-1.0
 21
6.0
 31
0.0
  0
LINE
  5
500
330
4FB
100
AcDbEntity
  8
DAMAN
  6
HIDDEN
100
AcDbLine
 10
-1.0
 20
6.0
 30
0.0
 11
-1.0
 21
1.0
 31
0.0
  0
LINE
  5
501
330
4FB
100
AcDbEntity
  8
DAMAN
100
AcDbLine
 10
6.75
 20
1.0
 30
0.0
 11
14.25
 21
1.0
 31
0.0
  0
LINE
  5
502
330
4FB
100
AcDbEntity
  8
DAMAN
100
AcDbLine
 10
14.25
 20
1.0
 30
0.0
 11
14.25
 21
6.0
 31
0.0
  0
LINE
  5
503
330
4FB
100
AcDbEntity
  8
DAMAN
100
AcDbLine
 10
14.25
 20
6.0
 30
0.0
 11
6.75
 21
6.0
 31
0.0
  0
LINE
  5
504
330
4FB
100
AcDbEntity
  8
DAMAN
100
AcDbLine
 10
6.75
 20
6.0
 30
0.0
 11
6.75
 21
1.0
 31
0.0
  0
LINE
  5
505
330
4FB
100
AcDbEntity
  8
DAMAN
100
AcDbLine
 10
17.0
 20
6.0
 30
0.0
 11
22.0
 21
6.0
 31
0.0
  0
LINE
  5
506
330
4FB
100
AcDbEntity
  8
DAMAN
100
AcDbLine
 10
22.0
 20
1.0
 30
0.0
 11
17.0
 21
1.0
 31
0.0
  0
LINE
  5
507
330
4FB
100
AcDbEntity
  8
DAMAN
  6
HIDDEN
100
AcDbLine
 10
22.0
 20
6.0
 30
0.0
 11
22.0
 21
1.0
 31
0.0
  0
LINE
  5
508
330
4FB
100
AcDbEntity
  8
DAMAN
100
AcDbLine
 10
17.0
 20
1.0
 30
0.0
 11
17.0
 21
6.0
 31
0.0
  0
LINE
  5
509
330
4FB
100
AcDbEntity
  8
DAMAN
100
AcDbLine
 10
14.25
 20
0.0
 30
0.0
 11
6.75
 21
0.0
 31
0.0
  0
LINE
  5
50A
330
4FB
100
AcDbEntity
  8
DAMAN
100
AcDbLine
 10
6.75
 20
-5.0
 30
0.0
 11
14.25
 21
-5.0
 31
0.0
  0
LINE
  5
50B
330
4FB
100
AcDbEntity
  8
DAMAN
100
AcDbLine
 10
6.75
 20
0.0
 30
0.0
 11
6.75
 21
-5.0
 31
0.0
  0
LINE
  5
50C
330
4FB
100
AcDbEntity
  8
DAMAN
100
AcDbLine
 10
14.25
 20
-5.0
 30
0.0
 11
14.25
 21
0.0
 31
0.0
  0
INSERT
  5
50D
330
4FB
100
AcDbEntity
  8
DAMAN
100
AcDbBlockReference
  2
500MKCT
 10
6.75
 20
6.0
 30
0.0
  0
INSERT
  5
50E
330
4FB
100
AcDbEntity
  8
DAMAN
100
AcDbBlockReference
  2
500MKCT
 10
14.25
 20
1.0
 30
0.0
 50
180.0
  0
INSERT
  5
50F
330
4FB
100
AcDbEntity
  8
DAMAN
100
AcDbBlockReference
  2
500MKT
 10
22.563
 20
6.0
 30
0.0
  0
INSERT
  5
510
330
4FB
100
AcDbEntity
  8
DAMAN
100
AcDbBlockReference
  2
500MKT
 10
-1.563
 20
1.0
 30
0.0
 50
180.0
  0
INSERT
  5
511
330
4FB
100
AcDbEntity
  8
DAMAN
100
AcDbBlockReference
  2
500MKS
 10
6.531
 20
-4.625
 30
0.0
  0
INSERT
  5
512
330
4FB
100
AcDbEntity
  8
DAMAN
100
AcDbBlockReference
  2
500MKS
 10
14.469
 20
-4.625
 30
0.0
 41
-1.0
  0
TEXT
  5
513
330
4FB
100
AcDbEntity
  8
DAMAN
100
AcDbText
 10
2.46875
 20
5.6875
 30
0.0
 40
0.2
  1
T
 50
270.0
100
AcDbText
  0
TEXT
  5
514
330
4FB
100
AcDbEntity
  8
DAMAN
100
AcDbText
 10
18.59375
 20
5.6875
 30
0.0
 40
0.2
  1
T
 50
90.0
100
AcDbText
  0
TEXT
  5
515
330
4FB
100
AcDbEntity
  8
DAMAN
100
AcDbText
 10
2.375
 20
1.78125
 30
0.0
 40
0.2
  1
P
 50
270.0
100
AcDbText
  0
TEXT
  5
516
330
4FB
100
AcDbEntity
  8
DAMAN
100
AcDbText
 10
18.84375
 20
1.625
 30
0.0
 40
0.2
  1
P
 50
90.0
100
AcDbText
  0
TEXT
  5
517
330
4FB
100
AcDbEntity
  8
DAMAN
100
AcDbText
 10
9.375
 20
-2.03125
 30
0.0
 40
0.2
  1
DAMAN ****
100
AcDbText
  0
TEXT
  5
518
330
4FB
100
AcDbEntity
  8
DAMAN
100
AcDbText
 10
9.75
 20
-0.5
 30
0.0
 40
0.2
  1
B
100
AcDbText
  0
TEXT
  5
519
330
4FB
100
AcDbEntity
  8
DAMAN
100
AcDbText
 10
9.8125
 20
-3.46875
 30
0.0
 40
0.2
  1
A
100
AcDbText
  0
TEXT
  5
51A
330
4FB
100
AcDbEntity
  8
DAMAN
100
AcDbText
 10
13.0
 20
-0.5
 30
0.0
 40
0.2
  1
B
100
AcDbText
  0
TEXT
  5
51B
330
4FB
100
AcDbEntity
  8
DAMAN
100
AcDbText
 10
13.0625
 20
-3.46875
 30
0.0
 40
0.2
  1
A
100
AcDbText
  0
INSERT
  5
51C
330
4FB
100
AcDbEntity
  8
DAMAN
100
AcDbBlockReference
  2
D05
 10
7.968499999999999
 20
4.34325
 30
0.0
  0
INSERT
  5
51D
330
4FB
100
AcDbEntity
  8
DAMAN
100
AcDbBlockReference
  2
D05
 10
11.2185
 20
4.34325
 30
0.0
  0
LINE
  5
51E
330
4FB
100
AcDbEntity
  8
DAMAN
100
AcDbLine
 10
14.25
 20
7.0
 30
0.0
 11
6.75
 21
7.0
 31
0.0
  0
LINE
  5
51F
330
4FB
100
AcDbEntity
  8
DAMAN
100
AcDbLine
 10
14.25
 20
12.0
 30
0.0
 11
14.25
 21
7.0
 31
0.0
  0
INSERT
  5
520
330
4FB
100
AcDbEntity
  8
DAMAN
100
AcDbBlockReference
  2
500MKS
 10
14.469
 20
11.625
 30
0.0
 50
180.0
  0
LINE
  5
521
330
4FB
100
AcDbEntity
  8
DAMAN
100
AcDbLine
 10
6.75
 20
12.0
 30
0.0
 11
14.25
 21
12.0
 31
0.0
  0
INSERT
  5
522
330
4FB
100
AcDbEntity
  8
DAMAN
100
AcDbBlockReference
  2
500MKS
 10
6.531
 20
11.625
 30
0.0
 41
-1.0
 50
180.0
  0
LINE
  5
523
330
4FB
100
AcDbEntity
  8
DAMAN
100
AcDbLine
 10
6.75
 20
7.0
 30
0.0
 11
6.75
 21
12.0
 31
0.0
  0
INSERT
  5
524
330
4FB
100
AcDbEntity
  8
DAMAN
100
AcDbBlockReference
  2
T16AT
 10
10.5
 20
10.74999999999999
 30
0.0
  0
INSERT
  5
525
330
4FB
100
AcDbEntity
  8
DAMAN
100
AcDbBlockReference
  2
20SAET
 10
1.5
 20
4.875
 30
0.0
  0
INSERT
  5
526
330
4FB
100
AcDbEntity
  8
DAMAN
100
AcDbBlockReference
  2
20SAET
 10
19.5
 20
4.875
 30
0.0
  0
INSERT
  5
527
330
4FB
100
AcDbEntity
  8
DAMAN
100
AcDbBlockReference
  2
16SAET
 10
1.5
 20
2.75
 30
0.0
  0
INSERT
  5
528
330
4FB
100
AcDbEntity
  8
DAMAN
100
AcDbBlockReference
  2
16SAET
 10
8.781
 20
-1.0625
 30
0.0
  0
INSERT
  5
529
330
4FB
100
AcDbEntity
  8
DAMAN
100
AcDbBlockReference
  2
16SAET
 10
8.781
 20
-3.938
 30
0.0
  0
INSERT
  5
52A
330
4FB
100
AcDbEntity
  8
DAMAN
100
AcDbBlockReference
  2
16SAET
 10
12.031
 20
-1.0625
 30
0.0
  0
INSERT
  5
52B
330
4FB
100
AcDbEntity
  8
DAMAN
100
AcDbBlockReference
  2
16SAET
 10
12.031
 20
-3.938
 30
0.0
  0
INSERT
  5
52C
330
4FB
100
AcDbEntity
  8
DAMAN
100
AcDbBlockReference
  2
16SAET
 10
19.5
 20
2.75
 30
0.0
  0
INSERT
  5
52D
330
4FB
100
AcDbEntity
  8
DAMAN
100
AcDbBlockReference
  2
06SAET
 10
10.43799999999999
 20
-3.0625
 30
0.0
  0
TEXT
  5
52E
330
4FB
100
AcDbEntity
  8
DAMAN
100
AcDbText
 10
11.06249999999999
 20
-2.65625
 30
0.0
 40
0.2
  1
GA
100
AcDbText
  0
INSERT
  5
52F
330
4FB
100
AcDbEntity
  8
DAMAN
  6
CENTER
 62
     5
100
AcDbBlockReference
  2
100CROSS
 10
9.343999999999999
 20
1.905999999999999
 30
0.0
 41
0.246
 42
0.246
  0
INSERT
  5
530
330
4FB
100
AcDbEntity
  8
DAMAN
  6
CENTER
 62
     5
100
AcDbBlockReference
  2
100CROSS
 10
12.594
 20
1.905999999999999
 30
0.0
 41
0.246
 42
0.246
  0
CIRCLE
  5
531
330
4FB
100
AcDbEntity
  8
DAMAN
100
AcDbCircle
 10
9.343999999999999
 20
1.905999999999999
 30
0.0
 40
0.125
  0
CIRCLE
  5
532
330
4FB
100
AcDbEntity
  8
DAMAN
100
AcDbCircle
 10
12.594
 20
1.905999999999999
 30
0.0
 40
0.125
  0
TEXT
  5
533
330
4FB
100
AcDbEntity
  8
DAMAN
100
AcDbText
 10
13.75
 20
-1.65625
 30
0.0
 40
0.2
  1
Y
100
AcDbText
  0
TEXT
  5
534
330
4FB
100
AcDbEntity
  8
DAMAN
100
AcDbText
 10
7.1875
 20
-1.65625
 30
0.0
 40
0.2
  1
Y
100
AcDbText
  0
INSERT
  5
535
330
4FB
100
AcDbEntity
  8
DAMAN
100
AcDbBlockReference
  2
06SAET
 10
7.75
 20
-2.156
 30
0.0
  0
INSERT
  5
536
330
4FB
100
AcDbEntity
  8
DAMAN
100
AcDbBlockReference
  2
06SAET
 10
13.25
 20
-2.156
 30
0.0
  0
ENDBLK
  5
537
330
4FB
100
AcDbEntity
  8
0
100
AcDbBlockEnd
  0
BLOCK
  5
539
330
538
100
AcDbEntity
  8
0
100
AcDbBlockBegin
  2
MIBFBF
 70
     0
 10
0.0
 20
0.0
 30
0.0
  3
MIBFBF
  1

  0
LINE
  5
53A
330
538
100
AcDbEntity
  8
DAMAN
100
AcDbLine
 10
-1.0
 20
1.0
 30
0.0
 11
4.0
 21
1.0
 31
0.0
  0
LINE
  5
53B
330
538
100
AcDbEntity
  8
DAMAN
100
AcDbLine
 10
4.0
 20
1.0
 30
0.0
 11
4.0
 21
6.0
 31
0.0
  0
LINE
  5
53C
330
538
100
AcDbEntity
  8
DAMAN
100
AcDbLine
 10
4.0
 20
6.0
 30
0.0
 11
-1.0
 21
6.0
 31
0.0
  0
LINE
  5
53D
330
538
100
AcDbEntity
  8
DAMAN
  6
HIDDEN
100
AcDbLine
 10
-1.0
 20
6.0
 30
0.0
 11
-1.0
 21
1.0
 31
0.0
  0
LINE
  5
53E
330
538
100
AcDbEntity
  8
DAMAN
100
AcDbLine
 10
6.75
 20
1.0
 30
0.0
 11
14.25
 21
1.0
 31
0.0
  0
LINE
  5
53F
330
538
100
AcDbEntity
  8
DAMAN
100
AcDbLine
 10
14.25
 20
1.0
 30
0.0
 11
14.25
 21
6.0
 31
0.0
  0
LINE
  5
540
330
538
100
AcDbEntity
  8
DAMAN
100
AcDbLine
 10
14.25
 20
6.0
 30
0.0
 11
6.75
 21
6.0
 31
0.0
  0
LINE
  5
541
330
538
100
AcDbEntity
  8
DAMAN
100
AcDbLine
 10
6.75
 20
6.0
 30
0.0
 11
6.75
 21
1.0
 31
0.0
  0
LINE
  5
542
330
538
100
AcDbEntity
  8
DAMAN
100
AcDbLine
 10
17.0
 20
6.0
 30
0.0
 11
22.0
 21
6.0
 31
0.0
  0
LINE
  5
543
330
538
100
AcDbEntity
  8
DAMAN
100
AcDbLine
 10
22.0
 20
1.0
 30
0.0
 11
17.0
 21
1.0
 31
0.0
  0
LINE
  5
544
330
538
100
AcDbEntity
  8
DAMAN
  6
HIDDEN
100
AcDbLine
 10
22.0
 20
6.0
 30
0.0
 11
22.0
 21
1.0
 31
0.0
  0
LINE
  5
545
330
538
100
AcDbEntity
  8
DAMAN
100
AcDbLine
 10
17.0
 20
1.0
 30
0.0
 11
17.0
 21
6.0
 31
0.0
  0
LINE
  5
546
330
538
100
AcDbEntity
  8
DAMAN
100
AcDbLine
 10
14.25
 20
0.0
 30
0.0
 11
6.75
 21
0.0
 31
0.0
  0
LINE
  5
547
330
538
100
AcDbEntity
  8
DAMAN
100
AcDbLine
 10
6.75
 20
-5.0
 30
0.0
 11
14.25
 21
-5.0
 31
0.0
  0
LINE
  5
548
330
538
100
AcDbEntity
  8
DAMAN
100
AcDbLine
 10
6.75
 20
0.0
 30
0.0
 11
6.75
 21
-5.0
 31
0.0
  0
LINE
  5
549
330
538
100
AcDbEntity
  8
DAMAN
100
AcDbLine
 10
14.25
 20
-5.0
 30
0.0
 11
14.25
 21
0.0
 31
0.0
  0
INSERT
  5
54A
330
538
100
AcDbEntity
  8
DAMAN
100
AcDbBlockReference
  2
500MKCT
 10
6.75
 20
6.0
 30
0.0
  0
INSERT
  5
54B
330
538
100
AcDbEntity
  8
DAMAN
100
AcDbBlockReference
  2
500MKCT
 10
14.25
 20
1.0
 30
0.0
 50
180.0
  0
INSERT
  5
54C
330
538
100
AcDbEntity
  8
DAMAN
100
AcDbBlockReference
  2
500MKT
 10
22.563
 20
6.0
 30
0.0
  0
INSERT
  5
54D
330
538
100
AcDbEntity
  8
DAMAN
100
AcDbBlockReference
  2
500MKT
 10
-1.563
 20
1.0
 30
0.0
 50
180.0
  0
INSERT
  5
54E
330
538
100
AcDbEntity
  8
DAMAN
100
AcDbBlockReference
  2
500MKS
 10
6.531
 20
-4.625
 30
0.0
  0
INSERT
  5
54F
330
538
100
AcDbEntity
  8
DAMAN
100
AcDbBlockReference
  2
500MKS
 10
14.469
 20
-4.625
 30
0.0
 41
-1.0
  0
INSERT
  5
550
330
538
100
AcDbEntity
  8
DAMAN
100
AcDbBlockReference
  2
100NPTFT
 10
1.5
 20
2.75
 30
0.0
  0
TEXT
  5
551
330
538
100
AcDbEntity
  8
DAMAN
100
AcDbText
 10
2.46875
 20
5.6875
 30
0.0
 40
0.2
  1
T
 50
270.0
100
AcDbText
  0
TEXT
  5
552
330
538
100
AcDbEntity
  8
DAMAN
100
AcDbText
 10
18.59375
 20
5.6875
 30
0.0
 40
0.2
  1
T
 50
90.0
100
AcDbText
  0
TEXT
  5
553
330
538
100
AcDbEntity
  8
DAMAN
100
AcDbText
 10
2.375
 20
1.78125
 30
0.0
 40
0.2
  1
P
 50
270.0
100
AcDbText
  0
TEXT
  5
554
330
538
100
AcDbEntity
  8
DAMAN
100
AcDbText
 10
18.84375
 20
1.625
 30
0.0
 40
0.2
  1
P
 50
90.0
100
AcDbText
  0
INSERT
  5
555
330
538
100
AcDbEntity
  8
DAMAN
100
AcDbBlockReference
  2
025NPTFT
 10
10.43749999999999
 20
-3.061999999999999
 30
0.0
  0
TEXT
  5
556
330
538
100
AcDbEntity
  8
DAMAN
100
AcDbText
 10
10.74999999999999
 20
-2.686999999999999
 30
0.0
 40
0.2
  1
GA
100
AcDbText
  0
TEXT
  5
557
330
538
100
AcDbEntity
  8
DAMAN
100
AcDbText
 10
9.3125
 20
-1.84375
 30
0.0
 40
0.2
  1
DAMAN ****
100
AcDbText
  0
INSERT
  5
558
330
538
100
AcDbEntity
  8
DAMAN
100
AcDbBlockReference
  2
100NPTFT
 10
19.5
 20
2.75
 30
0.0
  0
INSERT
  5
559
330
538
100
AcDbEntity
  8
DAMAN
100
AcDbBlockReference
  2
100NPTFT
 10
8.781
 20
-1.0625
 30
0.0
  0
INSERT
  5
55A
330
538
100
AcDbEntity
  8
DAMAN
100
AcDbBlockReference
  2
100NPTFT
 10
8.781
 20
-3.938
 30
0.0
  0
TEXT
  5
55B
330
538
100
AcDbEntity
  8
DAMAN
100
AcDbText
 10
9.75
 20
-0.5
 30
0.0
 40
0.2
  1
B
100
AcDbText
  0
TEXT
  5
55C
330
538
100
AcDbEntity
  8
DAMAN
100
AcDbText
 10
9.8125
 20
-3.46875
 30
0.0
 40
0.2
  1
A
100
AcDbText
  0
INSERT
  5
55D
330
538
100
AcDbEntity
  8
DAMAN
100
AcDbBlockReference
  2
100NPTFT
 10
12.031
 20
-1.0625
 30
0.0
  0
TEXT
  5
55E
330
538
100
AcDbEntity
  8
DAMAN
100
AcDbText
 10
13.0
 20
-0.5
 30
0.0
 40
0.2
  1
B
100
AcDbText
  0
INSERT
  5
55F
330
538
100
AcDbEntity
  8
DAMAN
100
AcDbBlockReference
  2
100NPTFT
 10
12.031
 20
-3.938
 30
0.0
  0
TEXT
  5
560
330
538
100
AcDbEntity
  8
DAMAN
100
AcDbText
 10
13.0625
 20
-3.46875
 30
0.0
 40
0.2
  1
A
100
AcDbText
  0
INSERT
  5
561
330
538
100
AcDbEntity
  8
DAMAN
100
AcDbBlockReference
  2
125NPTFT
 10
1.5
 20
4.875
 30
0.0
  0
INSERT
  5
562
330
538
100
AcDbEntity
  8
DAMAN
100
AcDbBlockReference
  2
125NPTFT
 10
19.5
 20
4.875
 30
0.0
  0
INSERT
  5
563
330
538
100
AcDbEntity
  8
DAMAN
100
AcDbBlockReference
  2
D05
 10
7.968499999999999
 20
4.34325
 30
0.0
  0
INSERT
  5
564
330
538
100
AcDbEntity
  8
DAMAN
100
AcDbBlockReference
  2
D05
 10
11.2185
 20
4.34325
 30
0.0
  0
LINE
  5
565
330
538
100
AcDbEntity
  8
DAMAN
100
AcDbLine
 10
14.25
 20
7.0
 30
0.0
 11
6.75
 21
7.0
 31
0.0
  0
LINE
  5
566
330
538
100
AcDbEntity
  8
DAMAN
100
AcDbLine
 10
14.25
 20
12.0
 30
0.0
 11
14.25
 21
7.0
 31
0.0
  0
INSERT
  5
567
330
538
100
AcDbEntity
  8
DAMAN
100
AcDbBlockReference
  2
500MKS
 10
14.469
 20
11.625
 30
0.0
 50
180.0
  0
LINE
  5
568
330
538
100
AcDbEntity
  8
DAMAN
100
AcDbLine
 10
6.75
 20
12.0
 30
0.0
 11
14.25
 21
12.0
 31
0.0
  0
INSERT
  5
569
330
538
100
AcDbEntity
  8
DAMAN
100
AcDbBlockReference
  2
500MKS
 10
6.531
 20
11.625
 30
0.0
 41
-1.0
 50
180.0
  0
LINE
  5
56A
330
538
100
AcDbEntity
  8
DAMAN
100
AcDbLine
 10
6.75
 20
7.0
 30
0.0
 11
6.75
 21
12.0
 31
0.0
  0
INSERT
  5
56B
330
538
100
AcDbEntity
  8
DAMAN
100
AcDbBlockReference
  2
038NPTFT
 10
13.25
 20
8.0
 30
0.0
  0
INSERT
  5
56C
330
538
100
AcDbEntity
  8
DAMAN
100
AcDbBlockReference
  2
038NPTFT
 10
7.75
 20
8.0
 30
0.0
  0
TEXT
  5
56D
330
538
100
AcDbEntity
  8
DAMAN
100
AcDbText
 10
7.375
 20
7.375
 30
0.0
 40
0.2
  1
Y
 50
180.0
100
AcDbText
  0
TEXT
  5
56E
330
538
100
AcDbEntity
  8
DAMAN
100
AcDbText
 10
13.8125
 20
7.375
 30
0.0
 40
0.2
  1
Y
 50
180.0
100
AcDbText
  0
INSERT
  5
56F
330
538
100
AcDbEntity
  8
DAMAN
  6
CENTER
 62
     5
100
AcDbBlockReference
  2
100CROSS
 10
8.062999999999998
 20
4.781
 30
0.0
 41
0.246
 42
0.246
  0
CIRCLE
  5
570
330
538
100
AcDbEntity
  8
DAMAN
100
AcDbCircle
 10
8.062999999999998
 20
4.781
 30
0.0
 40
0.094
  0
INSERT
  5
571
330
538
100
AcDbEntity
  8
DAMAN
  6
CENTER
 62
     5
100
AcDbBlockReference
  2
100CROSS
 10
11.31299999999999
 20
4.781
 30
0.0
 41
0.246
 42
0.246
  0
CIRCLE
  5
572
330
538
100
AcDbEntity
  8
DAMAN
100
AcDbCircle
 10
11.31299999999999
 20
4.781
 30
0.0
 40
0.094
  0
INSERT
  5
573
330
538
100
AcDbEntity
  8
DAMAN
100
AcDbBlockReference
  2
T16AT
 10
10.5
 20
10.74999999999999
 30
0.0
  0
ENDBLK
  5
574
330
538
100
AcDbEntity
  8
0
100
AcDbBlockEnd
  0
BLOCK
  5
576
330
575
100
AcDbEntity
  8
0
100
AcDbBlockBegin
  2
MIBFBG
 70
     0
 10
0.0
 20
0.0
 30
0.0
  3
MIBFBG
  1

  0
LINE
  5
577
330
575
100
AcDbEntity
  8
DAMAN
100
AcDbLine
 10
-1.0
 20
1.0
 30
0.0
 11
4.0
 21
1.0
 31
0.0
  0
LINE
  5
578
330
575
100
AcDbEntity
  8
DAMAN
100
AcDbLine
 10
4.0
 20
1.0
 30
0.0
 11
4.0
 21
6.0
 31
0.0
  0
LINE
  5
579
330
575
100
AcDbEntity
  8
DAMAN
100
AcDbLine
 10
4.0
 20
6.0
 30
0.0
 11
-1.0
 21
6.0
 31
0.0
  0
LINE
  5
57A
330
575
100
AcDbEntity
  8
DAMAN
  6
HIDDEN
100
AcDbLine
 10
-1.0
 20
6.0
 30
0.0
 11
-1.0
 21
1.0
 31
0.0
  0
LINE
  5
57B
330
575
100
AcDbEntity
  8
DAMAN
100
AcDbLine
 10
6.75
 20
1.0
 30
0.0
 11
14.25
 21
1.0
 31
0.0
  0
LINE
  5
57C
330
575
100
AcDbEntity
  8
DAMAN
100
AcDbLine
 10
14.25
 20
1.0
 30
0.0
 11
14.25
 21
6.0
 31
0.0
  0
LINE
  5
57D
330
575
100
AcDbEntity
  8
DAMAN
100
AcDbLine
 10
14.25
 20
6.0
 30
0.0
 11
6.75
 21
6.0
 31
0.0
  0
LINE
  5
57E
330
575
100
AcDbEntity
  8
DAMAN
100
AcDbLine
 10
6.75
 20
6.0
 30
0.0
 11
6.75
 21
1.0
 31
0.0
  0
LINE
  5
57F
330
575
100
AcDbEntity
  8
DAMAN
100
AcDbLine
 10
17.0
 20
6.0
 30
0.0
 11
22.0
 21
6.0
 31
0.0
  0
LINE
  5
580
330
575
100
AcDbEntity
  8
DAMAN
100
AcDbLine
 10
22.0
 20
1.0
 30
0.0
 11
17.0
 21
1.0
 31
0.0
  0
LINE
  5
581
330
575
100
AcDbEntity
  8
DAMAN
  6
HIDDEN
100
AcDbLine
 10
22.0
 20
6.0
 30
0.0
 11
22.0
 21
1.0
 31
0.0
  0
LINE
  5
582
330
575
100
AcDbEntity
  8
DAMAN
100
AcDbLine
 10
17.0
 20
1.0
 30
0.0
 11
17.0
 21
6.0
 31
0.0
  0
LINE
  5
583
330
575
100
AcDbEntity
  8
DAMAN
100
AcDbLine
 10
14.25
 20
0.0
 30
0.0
 11
6.75
 21
0.0
 31
0.0
  0
LINE
  5
584
330
575
100
AcDbEntity
  8
DAMAN
100
AcDbLine
 10
6.75
 20
-5.0
 30
0.0
 11
14.25
 21
-5.0
 31
0.0
  0
LINE
  5
585
330
575
100
AcDbEntity
  8
DAMAN
100
AcDbLine
 10
6.75
 20
0.0
 30
0.0
 11
6.75
 21
-5.0
 31
0.0
  0
LINE
  5
586
330
575
100
AcDbEntity
  8
DAMAN
100
AcDbLine
 10
14.25
 20
-5.0
 30
0.0
 11
14.25
 21
0.0
 31
0.0
  0
INSERT
  5
587
330
575
100
AcDbEntity
  8
DAMAN
100
AcDbBlockReference
  2
500MKCT
 10
6.75
 20
6.0
 30
0.0
  0
INSERT
  5
588
330
575
100
AcDbEntity
  8
DAMAN
100
AcDbBlockReference
  2
500MKCT
 10
14.25
 20
1.0
 30
0.0
 50
180.0
  0
INSERT
  5
589
330
575
100
AcDbEntity
  8
DAMAN
100
AcDbBlockReference
  2
500MKT
 10
22.563
 20
6.0
 30
0.0
  0
INSERT
  5
58A
330
575
100
AcDbEntity
  8
DAMAN
100
AcDbBlockReference
  2
500MKT
 10
-1.563
 20
1.0
 30
0.0
 50
180.0
  0
INSERT
  5
58B
330
575
100
AcDbEntity
  8
DAMAN
100
AcDbBlockReference
  2
500MKS
 10
6.531
 20
-4.625
 30
0.0
  0
INSERT
  5
58C
330
575
100
AcDbEntity
  8
DAMAN
100
AcDbBlockReference
  2
500MKS
 10
14.469
 20
-4.625
 30
0.0
 41
-1.0
  0
INSERT
  5
58D
330
575
100
AcDbEntity
  8
DAMAN
100
AcDbBlockReference
  2
100NPTFT
 10
1.5
 20
2.75
 30
0.0
  0
TEXT
  5
58E
330
575
100
AcDbEntity
  8
DAMAN
100
AcDbText
 10
2.46875
 20
5.6875
 30
0.0
 40
0.2
  1
T
 50
270.0
100
AcDbText
  0
TEXT
  5
58F
330
575
100
AcDbEntity
  8
DAMAN
100
AcDbText
 10
18.59375
 20
5.6875
 30
0.0
 40
0.2
  1
T
 50
90.0
100
AcDbText
  0
TEXT
  5
590
330
575
100
AcDbEntity
  8
DAMAN
100
AcDbText
 10
2.375
 20
1.78125
 30
0.0
 40
0.2
  1
P
 50
270.0
100
AcDbText
  0
TEXT
  5
591
330
575
100
AcDbEntity
  8
DAMAN
100
AcDbText
 10
18.84375
 20
1.625
 30
0.0
 40
0.2
  1
P
 50
90.0
100
AcDbText
  0
INSERT
  5
592
330
575
100
AcDbEntity
  8
DAMAN
100
AcDbBlockReference
  2
025NPTFT
 10
10.43749999999999
 20
-3.061999999999999
 30
0.0
  0
TEXT
  5
593
330
575
100
AcDbEntity
  8
DAMAN
100
AcDbText
 10
10.74999999999999
 20
-2.686999999999999
 30
0.0
 40
0.2
  1
GA
100
AcDbText
  0
TEXT
  5
594
330
575
100
AcDbEntity
  8
DAMAN
100
AcDbText
 10
9.3125
 20
-1.84375
 30
0.0
 40
0.2
  1
DAMAN ****
100
AcDbText
  0
INSERT
  5
595
330
575
100
AcDbEntity
  8
DAMAN
100
AcDbBlockReference
  2
100NPTFT
 10
19.5
 20
2.75
 30
0.0
  0
INSERT
  5
596
330
575
100
AcDbEntity
  8
DAMAN
100
AcDbBlockReference
  2
100NPTFT
 10
8.781
 20
-1.0625
 30
0.0
  0
INSERT
  5
597
330
575
100
AcDbEntity
  8
DAMAN
100
AcDbBlockReference
  2
100NPTFT
 10
8.781
 20
-3.938
 30
0.0
  0
TEXT
  5
598
330
575
100
AcDbEntity
  8
DAMAN
100
AcDbText
 10
9.75
 20
-0.5
 30
0.0
 40
0.2
  1
B
100
AcDbText
  0
TEXT
  5
599
330
575
100
AcDbEntity
  8
DAMAN
100
AcDbText
 10
9.8125
 20
-3.46875
 30
0.0
 40
0.2
  1
A
100
AcDbText
  0
INSERT
  5
59A
330
575
100
AcDbEntity
  8
DAMAN
100
AcDbBlockReference
  2
100NPTFT
 10
12.031
 20
-1.0625
 30
0.0
  0
TEXT
  5
59B
330
575
100
AcDbEntity
  8
DAMAN
100
AcDbText
 10
13.0
 20
-0.5
 30
0.0
 40
0.2
  1
B
100
AcDbText
  0
INSERT
  5
59C
330
575
100
AcDbEntity
  8
DAMAN
100
AcDbBlockReference
  2
100NPTFT
 10
12.031
 20
-3.938
 30
0.0
  0
TEXT
  5
59D
330
575
100
AcDbEntity
  8
DAMAN
100
AcDbText
 10
13.0625
 20
-3.46875
 30
0.0
 40
0.2
  1
A
100
AcDbText
  0
INSERT
  5
59E
330
575
100
AcDbEntity
  8
DAMAN
100
AcDbBlockReference
  2
125NPTFT
 10
1.5
 20
4.875
 30
0.0
  0
INSERT
  5
59F
330
575
100
AcDbEntity
  8
DAMAN
100
AcDbBlockReference
  2
125NPTFT
 10
19.5
 20
4.875
 30
0.0
  0
INSERT
  5
5A0
330
575
100
AcDbEntity
  8
DAMAN
100
AcDbBlockReference
  2
D05
 10
7.968499999999999
 20
4.34325
 30
0.0
  0
INSERT
  5
5A1
330
575
100
AcDbEntity
  8
DAMAN
100
AcDbBlockReference
  2
D05
 10
11.2185
 20
4.34325
 30
0.0
  0
LINE
  5
5A2
330
575
100
AcDbEntity
  8
DAMAN
100
AcDbLine
 10
14.25
 20
7.0
 30
0.0
 11
6.75
 21
7.0
 31
0.0
  0
LINE
  5
5A3
330
575
100
AcDbEntity
  8
DAMAN
100
AcDbLine
 10
14.25
 20
12.0
 30
0.0
 11
14.25
 21
7.0
 31
0.0
  0
INSERT
  5
5A4
330
575
100
AcDbEntity
  8
DAMAN
100
AcDbBlockReference
  2
500MKS
 10
14.469
 20
11.625
 30
0.0
 50
180.0
  0
LINE
  5
5A5
330
575
100
AcDbEntity
  8
DAMAN
100
AcDbLine
 10
6.75
 20
12.0
 30
0.0
 11
14.25
 21
12.0
 31
0.0
  0
INSERT
  5
5A6
330
575
100
AcDbEntity
  8
DAMAN
100
AcDbBlockReference
  2
500MKS
 10
6.531
 20
11.625
 30
0.0
 41
-1.0
 50
180.0
  0
LINE
  5
5A7
330
575
100
AcDbEntity
  8
DAMAN
100
AcDbLine
 10
6.75
 20
7.0
 30
0.0
 11
6.75
 21
12.0
 31
0.0
  0
INSERT
  5
5A8
330
575
100
AcDbEntity
  8
DAMAN
  6
CENTER
 62
     5
100
AcDbBlockReference
  2
100CROSS
 10
6.75
 20
1.0
 30
0.0
 41
0.246
 42
0.246
  0
INSERT
  5
5A9
330
575
100
AcDbEntity
  8
DAMAN
100
AcDbBlockReference
  2
038NPTFT
 10
13.25
 20
-2.156
 30
0.0
  0
INSERT
  5
5AA
330
575
100
AcDbEntity
  8
DAMAN
100
AcDbBlockReference
  2
T16AT
 10
10.5
 20
10.74999999999999
 30
0.0
  0
CIRCLE
  5
5AB
330
575
100
AcDbEntity
  8
DAMAN
100
AcDbCircle
 10
6.75
 20
1.0
 30
0.0
 40
0.125
  0
CIRCLE
  5
5AC
330
575
100
AcDbEntity
  8
DAMAN
100
AcDbCircle
 10
9.343999999999999
 20
1.905999999999999
 30
0.0
 40
0.125
  0
INSERT
  5
5AD
330
575
100
AcDbEntity
  8
DAMAN
  6
CENTER
 62
     5
100
AcDbBlockReference
  2
100CROSS
 10
9.343999999999999
 20
1.905999999999999
 30
0.0
 41
0.246
 42
0.246
  0
INSERT
  5
5AE
330
575
100
AcDbEntity
  8
DAMAN
  6
CENTER
 62
     5
100
AcDbBlockReference
  2
100CROSS
 10
12.594
 20
1.905999999999999
 30
0.0
 41
0.246
 42
0.246
  0
CIRCLE
  5
5AF
330
575
100
AcDbEntity
  8
DAMAN
100
AcDbCircle
 10
12.594
 20
1.905999999999999
 30
0.0
 40
0.125
  0
INSERT
  5
5B0
330
575
100
AcDbEntity
  8
DAMAN
100
AcDbBlockReference
  2
038NPTFT
 10
7.75
 20
-2.156
 30
0.0
  0
TEXT
  5
5B1
330
575
100
AcDbEntity
  8
DAMAN
100
AcDbText
 10
7.1875
 20
-1.65625
 30
0.0
 40
0.2
  1
Y
100
AcDbText
  0
TEXT
  5
5B2
330
575
100
AcDbEntity
  8
DAMAN
100
AcDbText
 10
13.75
 20
-1.65625
 30
0.0
 40
0.2
  1
Y
100
AcDbText
  0
ENDBLK
  5
5B3
330
575
100
AcDbEntity
  8
0
100
AcDbBlockEnd
  0
BLOCK
  5
5B5
330
5B4
100
AcDbEntity
  8
0
100
AcDbBlockBegin
  2
MIBFC
 70
     0
 10
0.0
 20
0.0
 30
0.0
  3
MIBFC
  1

  0
LINE
  5
5B6
330
5B4
100
AcDbEntity
  8
DAMAN
100
AcDbLine
 10
-1.0
 20
1.0
 30
0.0
 11
4.0
 21
1.0
 31
0.0
  0
LINE
  5
5B7
330
5B4
100
AcDbEntity
  8
DAMAN
100
AcDbLine
 10
4.0
 20
1.0
 30
0.0
 11
4.0
 21
6.0
 31
0.0
  0
LINE
  5
5B8
330
5B4
100
AcDbEntity
  8
DAMAN
100
AcDbLine
 10
4.0
 20
6.0
 30
0.0
 11
-1.0
 21
6.0
 31
0.0
  0
LINE
  5
5B9
330
5B4
100
AcDbEntity
  8
DAMAN
  6
HIDDEN
100
AcDbLine
 10
-1.0
 20
6.0
 30
0.0
 11
-1.0
 21
1.0
 31
0.0
  0
LINE
  5
5BA
330
5B4
100
AcDbEntity
  8
DAMAN
100
AcDbLine
 10
6.75
 20
1.0
 30
0.0
 11
14.25
 21
1.0
 31
0.0
  0
LINE
  5
5BB
330
5B4
100
AcDbEntity
  8
DAMAN
100
AcDbLine
 10
14.25
 20
1.0
 30
0.0
 11
14.25
 21
6.0
 31
0.0
  0
LINE
  5
5BC
330
5B4
100
AcDbEntity
  8
DAMAN
100
AcDbLine
 10
14.25
 20
6.0
 30
0.0
 11
6.75
 21
6.0
 31
0.0
  0
LINE
  5
5BD
330
5B4
100
AcDbEntity
  8
DAMAN
100
AcDbLine
 10
6.75
 20
6.0
 30
0.0
 11
6.75
 21
1.0
 31
0.0
  0
LINE
  5
5BE
330
5B4
100
AcDbEntity
  8
DAMAN
100
AcDbLine
 10
17.0
 20
6.0
 30
0.0
 11
22.0
 21
6.0
 31
0.0
  0
LINE
  5
5BF
330
5B4
100
AcDbEntity
  8
DAMAN
100
AcDbLine
 10
22.0
 20
1.0
 30
0.0
 11
17.0
 21
1.0
 31
0.0
  0
LINE
  5
5C0
330
5B4
100
AcDbEntity
  8
DAMAN
  6
HIDDEN
100
AcDbLine
 10
22.0
 20
6.0
 30
0.0
 11
22.0
 21
1.0
 31
0.0
  0
LINE
  5
5C1
330
5B4
100
AcDbEntity
  8
DAMAN
100
AcDbLine
 10
17.0
 20
1.0
 30
0.0
 11
17.0
 21
6.0
 31
0.0
  0
LINE
  5
5C2
330
5B4
100
AcDbEntity
  8
DAMAN
100
AcDbLine
 10
14.25
 20
0.0
 30
0.0
 11
6.75
 21
0.0
 31
0.0
  0
LINE
  5
5C3
330
5B4
100
AcDbEntity
  8
DAMAN
100
AcDbLine
 10
6.75
 20
-5.0
 30
0.0
 11
14.25
 21
-5.0
 31
0.0
  0
LINE
  5
5C4
330
5B4
100
AcDbEntity
  8
DAMAN
100
AcDbLine
 10
6.75
 20
0.0
 30
0.0
 11
6.75
 21
-5.0
 31
0.0
  0
LINE
  5
5C5
330
5B4
100
AcDbEntity
  8
DAMAN
100
AcDbLine
 10
14.25
 20
-5.0
 30
0.0
 11
14.25
 21
0.0
 31
0.0
  0
INSERT
  5
5C6
330
5B4
100
AcDbEntity
  8
DAMAN
100
AcDbBlockReference
  2
500MKCT
 10
6.75
 20
6.0
 30
0.0
  0
INSERT
  5
5C7
330
5B4
100
AcDbEntity
  8
DAMAN
100
AcDbBlockReference
  2
500MKCT
 10
14.25
 20
1.0
 30
0.0
 50
180.0
  0
INSERT
  5
5C8
330
5B4
100
AcDbEntity
  8
DAMAN
100
AcDbBlockReference
  2
500MKT
 10
22.563
 20
6.0
 30
0.0
  0
INSERT
  5
5C9
330
5B4
100
AcDbEntity
  8
DAMAN
100
AcDbBlockReference
  2
500MKT
 10
-1.563
 20
1.0
 30
0.0
 50
180.0
  0
INSERT
  5
5CA
330
5B4
100
AcDbEntity
  8
DAMAN
100
AcDbBlockReference
  2
500MKS
 10
6.531
 20
-4.625
 30
0.0
  0
INSERT
  5
5CB
330
5B4
100
AcDbEntity
  8
DAMAN
100
AcDbBlockReference
  2
500MKS
 10
14.469
 20
-4.625
 30
0.0
 41
-1.0
  0
INSERT
  5
5CC
330
5B4
100
AcDbEntity
  8
DAMAN
100
AcDbBlockReference
  2
100NPTFT
 10
1.5
 20
2.75
 30
0.0
  0
TEXT
  5
5CD
330
5B4
100
AcDbEntity
  8
DAMAN
100
AcDbText
 10
2.46875
 20
5.6875
 30
0.0
 40
0.2
  1
T
 50
270.0
100
AcDbText
  0
TEXT
  5
5CE
330
5B4
100
AcDbEntity
  8
DAMAN
100
AcDbText
 10
18.59375
 20
5.6875
 30
0.0
 40
0.2
  1
T
 50
90.0
100
AcDbText
  0
TEXT
  5
5CF
330
5B4
100
AcDbEntity
  8
DAMAN
100
AcDbText
 10
2.375
 20
1.78125
 30
0.0
 40
0.2
  1
P
 50
270.0
100
AcDbText
  0
TEXT
  5
5D0
330
5B4
100
AcDbEntity
  8
DAMAN
100
AcDbText
 10
18.84375
 20
1.625
 30
0.0
 40
0.2
  1
P
 50
90.0
100
AcDbText
  0
TEXT
  5
5D1
330
5B4
100
AcDbEntity
  8
DAMAN
100
AcDbText
 10
9.3125
 20
-1.84375
 30
0.0
 40
0.2
  1
DAMAN ****
100
AcDbText
  0
INSERT
  5
5D2
330
5B4
100
AcDbEntity
  8
DAMAN
100
AcDbBlockReference
  2
100NPTFT
 10
19.5
 20
2.75
 30
0.0
  0
INSERT
  5
5D3
330
5B4
100
AcDbEntity
  8
DAMAN
100
AcDbBlockReference
  2
100NPTFT
 10
8.781
 20
-1.0625
 30
0.0
  0
INSERT
  5
5D4
330
5B4
100
AcDbEntity
  8
DAMAN
100
AcDbBlockReference
  2
100NPTFT
 10
8.781
 20
-3.938
 30
0.0
  0
TEXT
  5
5D5
330
5B4
100
AcDbEntity
  8
DAMAN
100
AcDbText
 10
9.75
 20
-0.5
 30
0.0
 40
0.2
  1
B
100
AcDbText
  0
TEXT
  5
5D6
330
5B4
100
AcDbEntity
  8
DAMAN
100
AcDbText
 10
9.8125
 20
-3.46875
 30
0.0
 40
0.2
  1
A
100
AcDbText
  0
INSERT
  5
5D7
330
5B4
100
AcDbEntity
  8
DAMAN
100
AcDbBlockReference
  2
100NPTFT
 10
12.031
 20
-1.0625
 30
0.0
  0
TEXT
  5
5D8
330
5B4
100
AcDbEntity
  8
DAMAN
100
AcDbText
 10
13.0
 20
-0.5
 30
0.0
 40
0.2
  1
B
100
AcDbText
  0
INSERT
  5
5D9
330
5B4
100
AcDbEntity
  8
DAMAN
100
AcDbBlockReference
  2
100NPTFT
 10
12.031
 20
-3.938
 30
0.0
  0
TEXT
  5
5DA
330
5B4
100
AcDbEntity
  8
DAMAN
100
AcDbText
 10
13.0625
 20
-3.46875
 30
0.0
 40
0.2
  1
A
100
AcDbText
  0
INSERT
  5
5DB
330
5B4
100
AcDbEntity
  8
DAMAN
100
AcDbBlockReference
  2
125NPTFT
 10
1.5
 20
4.875
 30
0.0
  0
INSERT
  5
5DC
330
5B4
100
AcDbEntity
  8
DAMAN
100
AcDbBlockReference
  2
125NPTFT
 10
19.5
 20
4.875
 30
0.0
  0
INSERT
  5
5DD
330
5B4
100
AcDbEntity
  8
DAMAN
100
AcDbBlockReference
  2
D05
 10
7.968499999999999
 20
4.34325
 30
0.0
  0
INSERT
  5
5DE
330
5B4
100
AcDbEntity
  8
DAMAN
100
AcDbBlockReference
  2
D05
 10
11.2185
 20
4.34325
 30
0.0
  0
LINE
  5
5DF
330
5B4
100
AcDbEntity
  8
DAMAN
100
AcDbLine
 10
14.25
 20
7.0
 30
0.0
 11
6.75
 21
7.0
 31
0.0
  0
LINE
  5
5E0
330
5B4
100
AcDbEntity
  8
DAMAN
100
AcDbLine
 10
14.25
 20
12.0
 30
0.0
 11
14.25
 21
7.0
 31
0.0
  0
INSERT
  5
5E1
330
5B4
100
AcDbEntity
  8
DAMAN
100
AcDbBlockReference
  2
500MKS
 10
14.469
 20
11.625
 30
0.0
 50
180.0
  0
LINE
  5
5E2
330
5B4
100
AcDbEntity
  8
DAMAN
100
AcDbLine
 10
6.75
 20
12.0
 30
0.0
 11
14.25
 21
12.0
 31
0.0
  0
INSERT
  5
5E3
330
5B4
100
AcDbEntity
  8
DAMAN
100
AcDbBlockReference
  2
500MKS
 10
6.531
 20
11.625
 30
0.0
 41
-1.0
 50
180.0
  0
LINE
  5
5E4
330
5B4
100
AcDbEntity
  8
DAMAN
100
AcDbLine
 10
6.75
 20
7.0
 30
0.0
 11
6.75
 21
12.0
 31
0.0
  0
INSERT
  5
5E5
330
5B4
100
AcDbEntity
  8
DAMAN
100
AcDbBlockReference
  2
C162T
 10
10.5
 20
10.875
 30
0.0
  0
ENDBLK
  5
5E6
330
5B4
100
AcDbEntity
  8
0
100
AcDbBlockEnd
  0
ENDSEC
  0
SECTION
  2
ENTITIES
  0
LINE
  5
5E7
330
302
100
AcDbEntity
  8
DAMAN
100
AcDbLine
 10
-1.0
 20
1.0
 30
0.0
 11
4.0
 21
1.0
 31
0.0
  0
LINE
  5
5E8
330
302
100
AcDbEntity
  8
DAMAN
100
AcDbLine
 10
4.0
 20
1.0
 30
0.0
 11
4.0
 21
6.0
 31
0.0
  0
LINE
  5
5E9
330
302
100
AcDbEntity
  8
DAMAN
100
AcDbLine
 10
4.0
 20
6.0
 30
0.0
 11
-1.0
 21
6.0
 31
0.0
  0
LINE
  5
5EA
330
302
100
AcDbEntity
  8
DAMAN
  6
HIDDEN
100
AcDbLine
 10
-1.0
 20
6.0
 30
0.0
 11
-1.0
 21
1.0
 31
0.0
  0
LINE
  5
5EB
330
302
100
AcDbEntity
  8
DAMAN
100
AcDbLine
 10
6.75
 20
1.0
 30
0.0
 11
12.25
 21
1.0
 31
0.0
  0
LINE
  5
5EC
330
302
100
AcDbEntity
  8
DAMAN
100
AcDbLine
 10
12.25
 20
1.0
 30
0.0
 11
12.25
 21
6.0
 31
0.0
  0
LINE
  5
5ED
330
302
100
AcDbEntity
  8
DAMAN
100
AcDbLine
 10
12.25
 20
6.0
 30
0.0
 11
6.75
 21
6.0
 31
0.0
  0
LINE
  5
5EE
330
302
100
AcDbEntity
  8
DAMAN
100
AcDbLine
 10
6.75
 20
6.0
 30
0.0
 11
6.75
 21
1.0
 31
0.0
  0
LINE
  5
5EF
330
302
100
AcDbEntity
  8
DAMAN
100
AcDbLine
 10
15.0
 20
6.0
 30
0.0
 11
20.0
 21
6.0
 31
0.0
  0
LINE
  5
5F0
330
302
100
AcDbEntity
  8
DAMAN
100
AcDbLine
 10
20.0
 20
1.0
 30
0.0
 11
15.0
 21
1.0
 31
0.0
  0
LINE
  5
5F1
330
302
100
AcDbEntity
  8
DAMAN
  6
HIDDEN
100
AcDbLine
 10
20.0
 20
6.0
 30
0.0
 11
20.0
 21
1.0
 31
0.0
  0
LINE
  5
5F2
330
302
100
AcDbEntity
  8
DAMAN
100
AcDbLine
 10
15.0
 20
1.0
 30
0.0
 11
15.0
 21
6.0
 31
0.0
  0
LINE
  5
5F3
330
302
100
AcDbEntity
  8
DAMAN
100
AcDbLine
 10
12.25
 20
0.0
 30
0.0
 11
6.75
 21
0.0
 31
0.0
  0
LINE
  5
5F4
330
302
100
AcDbEntity
  8
DAMAN
100
AcDbLine
 10
6.75
 20
-5.0
 30
0.0
 11
12.25
 21
-5.0
 31
0.0
  0
LINE
  5
5F5
330
302
100
AcDbEntity
  8
DAMAN
100
AcDbLine
 10
6.75
 20
0.0
 30
0.0
 11
6.75
 21
-5.0
 31
0.0
  0
LINE
  5
5F6
330
302
100
AcDbEntity
  8
DAMAN
100
AcDbLine
 10
12.25
 20
-5.0
 30
0.0
 11
12.25
 21
0.0
 31
0.0
  0
INSERT
  5
5F7
330
302
100
AcDbEntity
  8
DAMAN
100
AcDbBlockReference
  2
500MKCT
 10
6.75
 20
6.0
 30
0.0
  0
INSERT
  5
5F8
330
302
100
AcDbEntity
  8
DAMAN
100
AcDbBlockReference
  2
500MKCT
 10
12.25
 20
1.0
 30
0.0
 50
180.0
  0
INSERT
  5
5F9
330
302
100
AcDbEntity
  8
DAMAN
100
AcDbBlockReference
  2
500MKT
 10
20.563
 20
6.0
 30
0.0
  0
INSERT
  5
5FA
330
302
100
AcDbEntity
  8
DAMAN
100
AcDbBlockReference
  2
500MKT
 10
-1.563
 20
1.0
 30
0.0
 50
180.0
  0
INSERT
  5
5FB
330
302
100
AcDbEntity
  8
DAMAN
100
AcDbBlockReference
  2
500MKS
 10
6.531
 20
-4.625
 30
0.0
  0
INSERT
  5
5FC
330
302
100
AcDbEntity
  8
DAMAN
100
AcDbBlockReference
  2
500MKS
 10
12.469
 20
-4.625
 30
0.0
 41
-1.0
  0
TEXT
  5
5FD
330
302
100
AcDbEntity
  8
DAMAN
100
AcDbText
 10
2.46875
 20
5.6875
 30
0.0
 40
0.2
  1
T
 50
270.0
100
AcDbText
  0
TEXT
  5
5FE
330
302
100
AcDbEntity
  8
DAMAN
100
AcDbText
 10
16.59375
 20
5.6875
 30
0.0
 40
0.2
  1
T
 50
90.0
100
AcDbText
  0
TEXT
  5
5FF
330
302
100
AcDbEntity
  8
DAMAN
100
AcDbText
 10
2.375
 20
1.78125
 30
0.0
 40
0.2
  1
P
 50
270.0
100
AcDbText
  0
TEXT
  5
600
330
302
100
AcDbEntity
  8
DAMAN
100
AcDbText
 10
16.84375
 20
1.625
 30
0.0
 40
0.2
  1
P
 50
90.0
100
AcDbText
  0
TEXT
  5
601
330
302
100
AcDbEntity
  8
DAMAN
100
AcDbText
 10
9.375
 20
-2.03125
 30
0.0
 40
0.2
  1
DAMAN ****
100
AcDbText
  0
TEXT
  5
602
330
302
100
AcDbEntity
  8
DAMAN
100
AcDbText
 10
9.75
 20
-0.5
 30
0.0
 40
0.2
  1
B
100
AcDbText
  0
TEXT
  5
603
330
302
100
AcDbEntity
  8
DAMAN
100
AcDbText
 10
9.8125
 20
-3.46875
 30
0.0
 40
0.2
  1
A
100
AcDbText
  0
INSERT
  5
604
330
302
100
AcDbEntity
  8
DAMAN
100
AcDbBlockReference
  2
D05
 10
7.968499999999999
 20
4.90575
 30
0.0
  0
LINE
  5
605
330
302
100
AcDbEntity
  8
DAMAN
100
AcDbLine
 10
12.25
 20
7.0
 30
0.0
 11
6.75
 21
7.0
 31
0.0
  0
LINE
  5
606
330
302
100
AcDbEntity
  8
DAMAN
100
AcDbLine
 10
12.25
 20
12.0
 30
0.0
 11
12.25
 21
7.0
 31
0.0
  0
INSERT
  5
607
330
302
100
AcDbEntity
  8
DAMAN
100
AcDbBlockReference
  2
500MKS
 10
12.469
 20
11.625
 30
0.0
 50
180.0
  0
LINE
  5
608
330
302
100
AcDbEntity
  8
DAMAN
100
AcDbLine
 10
6.75
 20
12.0
 30
0.0
 11
12.25
 21
12.0
 31
0.0
  0
INSERT
  5
609
330
302
100
AcDbEntity
  8
DAMAN
100
AcDbBlockReference
  2
500MKS
 10
6.531
 20
11.625
 30
0.0
 41
-1.0
 50
180.0
  0
LINE
  5
60A
330
302
100
AcDbEntity
  8
DAMAN
100
AcDbLine
 10
6.75
 20
7.0
 30
0.0
 11
6.75
 21
12.0
 31
0.0
  0
INSERT
  5
60B
330
302
100
AcDbEntity
  8
DAMAN
100
AcDbBlockReference
  2
20SAET
 10
1.5
 20
4.875
 30
0.0
  0
INSERT
  5
60C
330
302
100
AcDbEntity
  8
DAMAN
100
AcDbBlockReference
  2
20SAET
 10
17.5
 20
4.875
 30
0.0
  0
INSERT
  5
60D
330
302
100
AcDbEntity
  8
DAMAN
100
AcDbBlockReference
  2
16SAET
 10
1.5
 20
2.75
 30
0.0
  0
INSERT
  5
60E
330
302
100
AcDbEntity
  8
DAMAN
100
AcDbBlockReference
  2
16SAET
 10
8.781
 20
-1.0625
 30
0.0
  0
INSERT
  5
60F
330
302
100
AcDbEntity
  8
DAMAN
100
AcDbBlockReference
  2
16SAET
 10
8.781
 20
-3.938
 30
0.0
  0
INSERT
  5
610
330
302
100
AcDbEntity
  8
DAMAN
100
AcDbBlockReference
  2
16SAET
 10
17.5
 20
2.75
 30
0.0
  0
INSERT
  5
611
330
302
100
AcDbEntity
  8
DAMAN
100
AcDbBlockReference
  2
C162T
 10
10.5
 20
10.875
 30
0.0
  0
CIRCLE
  5
612
330
302
100
AcDbEntity
  8
DAMAN
100
AcDbCircle
 10
8.781
 20
-1.0625
 30
0.0
 40
0.21875
  0
ENDSEC
  0
SECTION
  2
OBJECTS
  0
DICTIONARY
  5
2F0
330
0
100
AcDbDictionary
  3
ACAD_GROUP
350
2F1
  3
ACAD_LAYOUT
350
2FD
  3
ACAD_MLINESTYLE
350
2FA
  3
ACAD_PLOTSETTINGS
350
2FC
  3
ACAD_PLOTSTYLENAME
350
2F2
  3
ACDBHEADERROUNDTRIPXREC
350
615
  0
DICTIONARY
  5
637
330
302
100
AcDbDictionary
280
     1
  3
ACAD_LAYOUTSELFREF
360
638
  0
DICTIONARY
  5
635
330
2FE
100
AcDbDictionary
280
     1
  3
ACAD_LAYOUTSELFREF
360
636
  0
DICTIONARY
  5
2F1
102
{ACAD_REACTORS
330
2F0
102
}
330
2F0
100
AcDbDictionary
  0
DICTIONARY
  5
2FD
102
{ACAD_REACTORS
330
2F0
102
}
330
2F0
100
AcDbDictionary
  0
DICTIONARY
  5
2FA
102
{ACAD_REACTORS
330
2F0
102
}
330
2F0
100
AcDbDictionary
  3
STANDARD
350
2FB
  0
DICTIONARY
  5
2FC
102
{ACAD_REACTORS
330
2F0
102
}
330
2F0
100
AcDbDictionary
  0
ACDBDICTIONARYWDFLT
  5
2F2
102
{ACAD_REACTORS
330
2F0
102
}
330
2F0
100
AcDbDictionary
281
     1
  3
Normal
350
2F3
100
AcDbDictionaryWithDefault
340
2F3
  0
DICTIONARY
  5
615
102
{ACAD_REACTORS
330
2F0
102
}
330
2F0
100
AcDbDictionary
  3
CEPSNTYPE
350
61F
  3
FINGERPRINTGUID
350
620
  3
HYPERLINKBASE
350
618
  3
INSUNITS
350
61E
  3
LAYOUTDICT
350
61A
  3
LWETCUNION
350
61D
  3
PLOTSETDICT
350
61B
  3
PLOTSTYLNAMDICT
350
61C
  3
PSVPSCALE
350
622
  3
PUCSBASE
350
625
  3
PUCSORGBACK
350
62B
  3
PUCSORGBOTTOM
350
627
  3
PUCSORGFRONT
350
62A
  3
PUCSORGLEFT
350
628
  3
PUCSORGRIGHT
350
629
  3
PUCSORGTOP
350
626
  3
PUCSORTHOREF
350
623
  3
PUCSORTHOVIEW
350
624
  3
STYLESHEET
350
619
  3
TSTACKALIGN
350
616
  3
TSTACKSIZE
350
617
  3
UCSBASE
350
62E
  3
UCSORGBACK
350
634
  3
UCSORGBOTTOM
350
630
  3
UCSORGFRONT
350
633
  3
UCSORGLEFT
350
631
  3
UCSORGRIGHT
350
632
  3
UCSORGTOP
350
62F
  3
UCSORTHOREF
350
62C
  3
UCSORTHOVIEW
350
62D
  3
VERSIONGUID
350
621
  0
XRECORD
  5
638
102
{ACAD_REACTORS
330
637
102
}
330
637
100
AcDbXrecord
340
302
  0
XRECORD
  5
636
102
{ACAD_REACTORS
330
635
102
}
330
635
100
AcDbXrecord
340
2FE
  0
MLINESTYLE
  5
2FB
102
{ACAD_REACTORS
330
2FA
102
}
330
2FA
100
AcDbMlineStyle
  2
STANDARD
 70
     0
  3

 62
   256
 51
90.0
 52
90.0
 71
     2
 49
0.5
 62
   256
  6
BYLAYER
 49
-0.5
 62
   256
  6
BYLAYER
  0
ACDBPLACEHOLDER
  5
2F3
102
{ACAD_REACTORS
330
2F2
102
}
330
2F2
100
AcDbPlaceHolder
280
     0
  0
XRECORD
  5
61F
102
{ACAD_REACTORS
330
615
102
}
330
615
100
AcDbXrecord
 90
        0
  0
XRECORD
  5
620
102
{ACAD_REACTORS
330
615
102
}
330
615
100
AcDbXrecord
  1
{BD65AC87-4943-4A97-9895-E51F9F6A20FA}
  0
XRECORD
  5
618
102
{ACAD_REACTORS
330
615
102
}
330
615
100
AcDbXrecord
  1

  0
XRECORD
  5
61E
102
{ACAD_REACTORS
330
615
102
}
330
615
100
AcDbXrecord
 90
        0
  0
XRECORD
  5
61A
102
{ACAD_REACTORS
330
615
102
}
330
615
100
AcDbXrecord
340
2FD
  0
XRECORD
  5
61D
102
{ACAD_REACTORS
330
615
102
}
330
615
100
AcDbXrecord
 90
    10781
  0
XRECORD
  5
61B
102
{ACAD_REACTORS
330
615
102
}
330
615
100
AcDbXrecord
340
2FC
  0
XRECORD
  5
61C
102
{ACAD_REACTORS
330
615
102
}
330
615
100
AcDbXrecord
340
2F2
  0
XRECORD
  5
622
102
{ACAD_REACTORS
330
615
102
}
330
615
100
AcDbXrecord
 40
0.0
  0
XRECORD
  5
625
102
{ACAD_REACTORS
330
615
102
}
330
615
100
AcDbXrecord
340
0
  0
XRECORD
  5
62B
102
{ACAD_REACTORS
330
615
102
}
330
615
100
AcDbXrecord
 10
0.0
 20
0.0
 30
0.0
  0
XRECORD
  5
627
102
{ACAD_REACTORS
330
615
102
}
330
615
100
AcDbXrecord
 10
0.0
 20
0.0
 30
0.0
  0
XRECORD
  5
62A
102
{ACAD_REACTORS
330
615
102
}
330
615
100
AcDbXrecord
 10
0.0
 20
0.0
 30
0.0
  0
XRECORD
  5
628
102
{ACAD_REACTORS
330
615
102
}
330
615
100
AcDbXrecord
 10
0.0
 20
0.0
 30
0.0
  0
XRECORD
  5
629
102
{ACAD_REACTORS
330
615
102
}
330
615
100
AcDbXrecord
 10
0.0
 20
0.0
 30
0.0
  0
XRECORD
  5
626
102
{ACAD_REACTORS
330
615
102
}
330
615
100
AcDbXrecord
 10
0.0
 20
0.0
 30
0.0
  0
XRECORD
  5
623
102
{ACAD_REACTORS
330
615
102
}
330
615
100
AcDbXrecord
340
0
  0
XRECORD
  5
624
102
{ACAD_REACTORS
330
615
102
}
330
615
100
AcDbXrecord
 70
     0
  0
XRECORD
  5
619
102
{ACAD_REACTORS
330
615
102
}
330
615
100
AcDbXrecord
  1

  0
XRECORD
  5
616
102
{ACAD_REACTORS
330
615
102
}
330
615
100
AcDbXrecord
 90
        1
  0
XRECORD
  5
617
102
{ACAD_REACTORS
330
615
102
}
330
615
100
AcDbXrecord
 90
       70
  0
XRECORD
  5
62E
102
{ACAD_REACTORS
330
615
102
}
330
615
100
AcDbXrecord
340
0
  0
XRECORD
  5
634
102
{ACAD_REACTORS
330
615
102
}
330
615
100
AcDbXrecord
 10
0.0
 20
0.0
 30
0.0
  0
XRECORD
  5
630
102
{ACAD_REACTORS
330
615
102
}
330
615
100
AcDbXrecord
 10
0.0
 20
0.0
 30
0.0
  0
XRECORD
  5
633
102
{ACAD_REACTORS
330
615
102
}
330
615
100
AcDbXrecord
 10
0.0
 20
0.0
 30
0.0
  0
XRECORD
  5
631
102
{ACAD_REACTORS
330
615
102
}
330
615
100
AcDbXrecord
 10
0.0
 20
0.0
 30
0.0
  0
XRECORD
  5
632
102
{ACAD_REACTORS
330
615
102
}
330
615
100
AcDbXrecord
 10
0.0
 20
0.0
 30
0.0
  0
XRECORD
  5
62F
102
{ACAD_REACTORS
330
615
102
}
330
615
100
AcDbXrecord
 10
0.0
 20
0.0
 30
0.0
  0
XRECORD
  5
62C
102
{ACAD_REACTORS
330
615
102
}
330
615
100
AcDbXrecord
340
0
  0
XRECORD
  5
62D
102
{ACAD_REACTORS
330
615
102
}
330
615
100
AcDbXrecord
 70
     0
  0
XRECORD
  5
621
102
{ACAD_REACTORS
330
615
102
}
330
615
100
AcDbXrecord
  1
{398EC03A-CF43-4482-A83D-B7FBB08E5E46}
  0
ENDSEC
  0
EOF
