  0
SECTION
  2
HEADER
  9
$ACADVER
  1
AC1009
  9
$INSBASE
 10
0.0
 20
0.0
 30
0.0
  9
$EXTMIN
 10
1.797972
 20
1.279713
 30
0.0
  9
$EXTMAX
 10
14.535472
 20
14.567213
 30
0.0
  9
$LIMMIN
 10
0.0
 20
0.0
  9
$LIMMAX
 10
26.995439
 20
15.855738
  9
$ORTHOMODE
 70
     0
  9
$REGENMODE
 70
     1
  9
$FILLMODE
 70
     1
  9
$QTEXTMODE
 70
     0
  9
$MIRRTEXT
 70
     1
  9
$DRAGMODE
 70
     2
  9
$LTSCALE
 40
1.0
  9
$OSMODE
 70
    37
  9
$ATTMODE
 70
     1
  9
$TEXTSIZE
 40
0.2
  9
$TRACEWID
 40
0.05
  9
$TEXTSTYLE
  7
STANDARD
  9
$CLAYER
  8
DAMAN
  9
$CELTYPE
  6
BYLAYER
  9
$CECOLOR
 62
   256
  9
$DIMSCALE
 40
1.0
  9
$DIMASZ
 40
0.18
  9
$DIMEXO
 40
0.0625
  9
$DIMDLI
 40
0.38
  9
$DIMRND
 40
0.0
  9
$DIMDLE
 40
0.0
  9
$DIMEXE
 40
0.18
  9
$DIMTP
 40
0.0
  9
$DIMTM
 40
0.0
  9
$DIMTXT
 40
0.18
  9
$DIMCEN
 40
0.09
  9
$DIMTSZ
 40
0.0
  9
$DIMTOL
 70
     0
  9
$DIMLIM
 70
     0
  9
$DIMTIH
 70
     1
  9
$DIMTOH
 70
     1
  9
$DIMSE1
 70
     0
  9
$DIMSE2
 70
     0
  9
$DIMTAD
 70
     0
  9
$DIMZIN
 70
     0
  9
$DIMBLK
  1

  9
$DIMASO
 70
     1
  9
$DIMSHO
 70
     1
  9
$DIMPOST
  1

  9
$DIMAPOST
  1

  9
$DIMALT
 70
     0
  9
$DIMALTD
 70
     2
  9
$DIMALTF
 40
25.4
  9
$DIMLFAC
 40
1.0
  9
$DIMTOFL
 70
     0
  9
$DIMTVP
 40
0.0
  9
$DIMTIX
 70
     0
  9
$DIMSOXD
 70
     0
  9
$DIMSAH
 70
     0
  9
$DIMBLK1
  1

  9
$DIMBLK2
  1

  9
$DIMSTYLE
  2
*UNNAMED
  9
$DIMCLRD
 70
     0
  9
$DIMCLRE
 70
     0
  9
$DIMCLRT
 70
     0
  9
$DIMTFAC
 40
1.0
  9
$DIMGAP
 40
0.09
  9
$LUNITS
 70
     2
  9
$LUPREC
 70
     4
  9
$SKETCHINC
 40
0.1
  9
$FILLETRAD
 40
0.0
  9
$AUNITS
 70
     0
  9
$AUPREC
 70
     0
  9
$MENU
  1
tom
  9
$ELEVATION
 40
0.0
  9
$PELEVATION
 40
0.0
  9
$THICKNESS
 40
0.0
  9
$LIMCHECK
 70
     0
  9
$BLIPMODE
 70
     1
  9
$CHAMFERA
 40
0.0
  9
$CHAMFERB
 40
0.0
  9
$SKPOLY
 70
     0
  9
$TDCREATE
 40
2450457.422530138
  9
$TDUPDATE
 40
2450457.422530138
  9
$TDINDWG
 40
0.0000000000
  9
$TDUSRTIMER
 40
0.0000000000
  9
$USRTIMER
 70
     1
  9
$ANGBASE
 50
0.0
  9
$ANGDIR
 70
     0
  9
$PDMODE
 70
     0
  9
$PDSIZE
 40
0.0
  9
$PLINEWID
 40
0.0
  9
$COORDS
 70
     1
  9
$SPLFRAME
 70
     0
  9
$SPLINETYPE
 70
     6
  9
$SPLINESEGS
 70
     8
  9
$ATTDIA
 70
     0
  9
$ATTREQ
 70
     1
  9
$HANDLING
 70
     0
  9
$HANDSEED
  5
0
  9
$SURFTAB1
 70
     6
  9
$SURFTAB2
 70
     6
  9
$SURFTYPE
 70
     6
  9
$SURFU
 70
     6
  9
$SURFV
 70
     6
  9
$UCSNAME
  2

  9
$UCSORG
 10
0.0
 20
0.0
 30
0.0
  9
$UCSXDIR
 10
1.0
 20
0.0
 30
0.0
  9
$UCSYDIR
 10
0.0
 20
1.0
 30
0.0
  9
$PUCSNAME
  2

  9
$PUCSORG
 10
0.0
 20
0.0
 30
0.0
  9
$PUCSXDIR
 10
1.0
 20
0.0
 30
0.0
  9
$PUCSYDIR
 10
0.0
 20
1.0
 30
0.0
  9
$USERI1
 70
     0
  9
$USERI2
 70
     0
  9
$USERI3
 70
     0
  9
$USERI4
 70
     0
  9
$USERI5
 70
     0
  9
$USERR1
 40
0.0
  9
$USERR2
 40
0.0
  9
$USERR3
 40
0.0
  9
$USERR4
 40
0.0
  9
$USERR5
 40
0.0
  9
$WORLDVIEW
 70
     1
  9
$SHADEDGE
 70
     3
  9
$SHADEDIF
 70
    70
  9
$TILEMODE
 70
     1
  9
$MAXACTVP
 70
    16
  9
$PINSBASE
 10
0.0
 20
0.0
 30
0.0
  9
$PLIMCHECK
 70
     0
  9
$PEXTMIN
 10
1.000000E+20
 20
1.000000E+20
 30
1.000000E+20
  9
$PEXTMAX
 10
-1.000000E+20
 20
-1.000000E+20
 30
-1.000000E+20
  9
$PLIMMIN
 10
0.0
 20
0.0
  9
$PLIMMAX
 10
12.0
 20
9.0
  9
$UNITMODE
 70
     0
  9
$VISRETAIN
 70
     0
  9
$PLINEGEN
 70
     0
  9
$PSLTSCALE
 70
     1
  9
$TREEDEPTH
 70
  3020
  9
$DWGCODEPAGE
  3
ascii
  0
ENDSEC
  0
SECTION
  2
TABLES
  0
TABLE
  2
VPORT
 70
     2
  0
VPORT
  2
*ACTIVE
 70
     0
 10
0.0
 20
0.0
 11
1.0
 21
1.0
 12
13.564597
 22
7.927869
 13
0.0
 23
0.0
 14
1.0
 24
1.0
 15
0.0
 25
0.0
 16
0.0
 26
0.0
 36
1.0
 17
0.0
 27
0.0
 37
0.0
 40
15.855738
 41
1.711002
 42
50.0
 43
0.0
 44
0.0
 50
0.0
 51
0.0
 71
     0
 72
   100
 73
     1
 74
     0
 75
     0
 76
     0
 77
     0
 78
     0
  0
ENDTAB
  0
TABLE
  2
LTYPE
 70
     6
  0
LTYPE
  2
CONTINUOUS
 70
    64
  3
Solid line
 72
    65
 73
     0
 40
0.0
  0
LTYPE
  2
HIDDEN
 70
    64
  3
_ _ _ _ _ _ _ _ _ _ _ _ _ _ _ _ _ _ _ _ _ _ _
 72
    65
 73
     2
 40
0.375
 49
0.25
 49
-0.125
  0
LTYPE
  2
CENTER
 70
    64
  3
____ _ ____ _ ____ _ ____ _ ____ _ ____ _ ____
 72
    65
 73
     4
 40
2.0
 49
1.25
 49
-0.25
 49
0.25
 49
-0.25
  0
LTYPE
  2
DOT
 70
     0
  3
. . . . . . . . . . . . . . . . . . . . . . . .
 72
    65
 73
     2
 40
0.25
 49
0.0
 49
-0.25
  0
LTYPE
  2
DASHED
 70
     0
  3
__ __ __ __ __ __ __ __ __ __ __ __ __ __ __ __
 72
    65
 73
     2
 40
0.75
 49
0.5
 49
-0.25
  0
LTYPE
  2
PHANTOM
 70
    64
  3
_____ _ _ _____ _ _ _____ _ _ _____ _ _ ____
 72
    65
 73
     6
 40
2.5
 49
1.25
 49
-0.25
 49
0.25
 49
-0.25
 49
0.25
 49
-0.25
  0
ENDTAB
  0
TABLE
  2
LAYER
 70
    13
  0
LAYER
  2
0
 70
    64
 62
     7
  6
CONTINUOUS
  0
LAYER
  2
DAMAN
 70
    64
 62
     5
  6
CONTINUOUS
  0
LAYER
  2
CSOLID
 70
    64
 62
     3
  6
CONTINUOUS
  0
LAYER
  2
CCENTER
 70
    64
 62
     4
  6
CENTER
  0
LAYER
  2
CHIDDEN
 70
    64
 62
     3
  6
HIDDEN
  0
LAYER
  2
SOLID
 70
     0
 62
     4
  6
CONTINUOUS
  0
LAYER
  2
PHANTOM
 70
    64
 62
     1
  6
PHANTOM
  0
LAYER
  2
CDIM
 70
     0
 62
     2
  6
CONTINUOUS
  0
LAYER
  2
BORDER
 70
     0
 62
     7
  6
CONTINUOUS
  0
LAYER
  2
PIPE
 70
    65
 62
     5
  6
CONTINUOUS
  0
LAYER
  2
SAE
 70
    64
 62
     5
  6
CONTINUOUS
  0
LAYER
  2
BSPP
 70
    65
 62
     5
  6
CONTINUOUS
  0
LAYER
  2
METRIC
 70
    65
 62
     5
  6
CONTINUOUS
  0
ENDTAB
  0
TABLE
  2
STYLE
 70
     2
  0
STYLE
  2
STANDARD
 70
    64
 40
0.0
 41
1.0
 50
0.0
 71
     0
 42
0.2
  3
txt
  4

  0
STYLE
  2
STR
 70
     0
 40
0.0
 41
1.0
 50
0.0
 71
     0
 42
0.25
  3
SIMPLEX
  4

  0
ENDTAB
  0
TABLE
  2
VIEW
 70
     0
  0
ENDTAB
  0
TABLE
  2
UCS
 70
     0
  0
ENDTAB
  0
TABLE
  2
APPID
 70
     1
  0
APPID
  2
ACAD
 70
    64
  0
ENDTAB
  0
TABLE
  2
DIMSTYLE
 70
     0
  0
ENDTAB
  0
ENDSEC
  0
SECTION
  2
BLOCKS
  0
BLOCK
  8
0
  2
32MMDIN
 70
     0
 10
0.0
 20
0.0
 30
0.0
  3
32MMDIN
  0
CIRCLE
  8
DAMAN
 10
2.501359
 20
2.575075
 30
0.0
 40
1.18
  0
CIRCLE
  8
DAMAN
 10
2.501359
 20
2.575075
 30
0.0
 40
0.885
  0
CIRCLE
  8
DAMAN
 10
2.501359
 20
2.575075
 30
0.0
 40
0.63
  0
CIRCLE
  8
DAMAN
 10
1.121359
 20
3.955075
 30
0.0
 40
0.259766
  0
CIRCLE
  8
DAMAN
 10
1.121359
 20
3.955075
 30
0.0
 40
0.311719
  0
INSERT
  8
DAMAN
  2
100CROSS
 10
1.121359
 20
3.955075
 30
0.0
 41
0.623438
 42
0.623438
 43
0.0
  0
INSERT
  8
DAMAN
  2
100CROSS
 10
1.121359
 20
1.195075
 30
0.0
 41
0.623438
 42
0.623438
 43
0.0
  0
CIRCLE
  8
DAMAN
 10
1.121359
 20
1.195075
 30
0.0
 40
0.259766
  0
CIRCLE
  8
DAMAN
 10
1.121359
 20
1.195075
 30
0.0
 40
0.311719
  0
INSERT
  8
DAMAN
  2
100CROSS
 10
3.881359
 20
1.195075
 30
0.0
 41
0.623438
 42
0.623438
 43
0.0
  0
CIRCLE
  8
DAMAN
 10
3.881359
 20
1.195075
 30
0.0
 40
0.259766
  0
CIRCLE
  8
DAMAN
 10
3.881359
 20
1.195075
 30
0.0
 40
0.311719
  0
INSERT
  8
DAMAN
  2
100CROSS
 10
3.881359
 20
3.955075
 30
0.0
 41
0.623438
 42
0.623438
 43
0.0
  0
CIRCLE
  8
DAMAN
 10
3.881359
 20
3.955075
 30
0.0
 40
0.259766
  0
CIRCLE
  8
DAMAN
 10
3.881359
 20
3.955075
 30
0.0
 40
0.311719
  0
CIRCLE
  8
DAMAN
 10
2.501359
 20
4.195075
 30
0.0
 40
0.157
  0
CIRCLE
  8
DAMAN
 10
0.881359
 20
2.575075
 30
0.0
 40
0.157
  0
CIRCLE
  8
DAMAN
 10
2.501359
 20
0.955075
 30
0.0
 40
0.157
  0
CIRCLE
  8
DAMAN
 10
4.121359
 20
2.575075
 30
0.0
 40
0.157
  0
CIRCLE
  8
DAMAN
 10
1.821359
 20
3.955075
 30
0.0
 40
0.12
  0
INSERT
  8
DAMAN
  2
100CROSS
 10
0.881359
 20
2.575075
 30
0.0
 41
0.49875
 42
0.49875
 43
0.0
  0
INSERT
  8
DAMAN
  2
100CROSS
 10
1.821359
 20
3.955075
 30
0.0
 41
0.49875
 42
0.49875
 43
0.0
  0
INSERT
  8
DAMAN
  2
100CROSS
 10
2.501359
 20
4.195075
 30
0.0
 41
0.49875
 42
0.49875
 43
0.0
  0
INSERT
  8
DAMAN
  2
100CROSS
 10
4.121359
 20
2.575075
 30
0.0
 41
0.49875
 42
0.49875
 43
0.0
  0
INSERT
  8
DAMAN
  2
100CROSS
 10
2.501359
 20
0.955075
 30
0.0
 41
0.49875
 42
0.49875
 43
0.0
  0
INSERT
  8
DAMAN
  2
100CROSS
 10
2.501359
 20
2.575075
 30
0.0
 41
1.563849
 42
1.563849
 43
0.0
  0
ENDBLK
  8
0
  0
BLOCK
  8
0
  2
D05
 70
     0
 10
0.0
 20
0.0
 30
0.0
  3
D05
  0
CIRCLE
  8
DAMAN
  6
HIDDEN
 10
1.8125
 20
0.0
 30
0.0
 40
0.125
  0
CIRCLE
  8
DAMAN
  6
HIDDEN
 10
1.8125
 20
-2.125
 30
0.0
 40
0.125
  0
CIRCLE
  8
DAMAN
  6
HIDDEN
 10
0.0
 20
0.0
 30
0.0
 40
0.125
  0
CIRCLE
  8
DAMAN
  6
HIDDEN
 10
0.0
 20
-2.125
 30
0.0
 40
0.125
  0
INSERT
  8
DAMAN
  2
100CROSS
 10
0.0
 20
0.0
 30
0.0
 41
0.25
 42
0.25
 43
0.0
  0
CIRCLE
  8
DAMAN
 10
0.0
 20
0.0
 30
0.0
 40
0.1055
  0
CIRCLE
  8
DAMAN
 10
0.0
 20
-2.125
 30
0.0
 40
0.1055
  0
INSERT
  8
DAMAN
  2
100CROSS
 10
0.0
 20
-2.125
 30
0.0
 41
0.25
 42
0.25
 43
0.0
  0
CIRCLE
  8
DAMAN
 10
1.8125
 20
0.0
 30
0.0
 40
0.1055
  0
INSERT
  8
DAMAN
  2
100CROSS
 10
1.8125
 20
0.0
 30
0.0
 41
0.25
 42
0.25
 43
0.0
  0
CIRCLE
  8
DAMAN
 10
1.8125
 20
-2.125
 30
0.0
 40
0.1055
  0
INSERT
  8
DAMAN
  2
100CROSS
 10
1.8125
 20
-2.125
 30
0.0
 41
0.25
 42
0.25
 43
0.0
  0
INSERT
  8
DAMAN
  2
100CROSS
 10
0.531
 20
-0.125
 30
0.0
 41
0.438
 42
0.438
 43
0.0
  0
CIRCLE
  8
DAMAN
 10
0.531
 20
-0.125
 30
0.0
 40
0.21875
  0
CIRCLE
  8
DAMAN
 10
0.9685
 20
-0.656
 30
0.0
 40
0.21875
  0
INSERT
  8
DAMAN
  2
100CROSS
 10
0.9685
 20
-0.656
 30
0.0
 41
0.438
 42
0.438
 43
0.0
  0
INSERT
  8
DAMAN
  2
100CROSS
 10
0.9685
 20
-1.4685
 30
0.0
 41
0.438
 42
0.438
 43
0.0
  0
CIRCLE
  8
DAMAN
 10
0.9685
 20
-1.4685
 30
0.0
 40
0.21875
  0
CIRCLE
  8
DAMAN
 10
1.5625
 20
-1.06225
 30
0.0
 40
0.21875
  0
INSERT
  8
DAMAN
  2
100CROSS
 10
1.5625
 20
-1.06225
 30
0.0
 41
0.438
 42
0.438
 43
0.0
  0
ENDBLK
  8
0
  0
BLOCK
  8
0
  2
100CROSS
 70
    64
 10
5.625
 20
4.59375
 30
0.0
  3
100CROSS
  0
INSERT
  8
0
  2
050CROSS
 10
5.625
 20
4.59375
 30
0.0
 43
0.0
  0
ENDBLK
  8
0
  0
BLOCK
  8
0
  2
050CROSS
 70
    64
 10
5.0
 20
5.0
 30
0.0
  3
050CROSS
  0
LINE
  8
0
 10
5.0
 20
5.28125
 30
0.0
 11
5.0
 21
5.78125
 31
0.0
  0
LINE
  8
0
 10
5.0
 20
4.875
 30
0.0
 11
5.0
 21
5.125
 31
0.0
  0
LINE
  8
0
 10
5.0
 20
4.15625
 30
0.0
 11
5.0
 21
4.71875
 31
0.0
  0
LINE
  8
0
 10
5.25
 20
5.0
 30
0.0
 11
5.8125
 21
5.0
 31
0.0
  0
LINE
  8
0
 10
4.90625
 20
5.0
 30
0.0
 11
5.09375
 21
5.0
 31
0.0
  0
LINE
  8
0
 10
4.1875
 20
5.0
 30
0.0
 11
4.75
 21
5.0
 31
0.0
  0
ENDBLK
  8
0
  0
BLOCK
  8
0
  2
D02
 70
     0
 10
0.0
 20
0.0
 30
0.0
  3
D02
  0
INSERT
  8
DAMAN
 62
     5
  2
100CROSS
 10
2.119268
 20
1.520489
 30
0.0
 41
0.1875
 42
0.1875
 43
0.0
  0
INSERT
  8
DAMAN
 62
     5
  2
100CROSS
 10
1.862704
 20
0.646489
 30
0.0
 41
0.171
 42
0.171
 43
0.0
  0
INSERT
  8
DAMAN
 62
     5
  2
100CROSS
 10
1.647268
 20
0.744489
 30
0.0
 41
0.188
 42
0.188
 43
0.0
  0
CIRCLE
  8
DAMAN
  6
HIDDEN
 62
     5
 10
1.647268
 20
0.744489
 30
0.0
 40
0.095
  0
CIRCLE
  8
DAMAN
 62
     5
 10
1.647268
 20
0.744739
 30
0.0
 40
0.078
  0
INSERT
  8
DAMAN
 62
     5
  2
100CROSS
 10
1.676268
 20
1.689489
 30
0.0
 41
0.188
 42
0.188
 43
0.0
  0
CIRCLE
  8
DAMAN
 62
     5
 10
1.676268
 20
1.689489
 30
0.0
 40
0.078
  0
CIRCLE
  8
DAMAN
  6
HIDDEN
 62
     5
 10
1.676268
 20
1.689489
 30
0.0
 40
0.095
  0
INSERT
  8
DAMAN
 62
     5
  2
100CROSS
 10
2.591268
 20
0.744489
 30
0.0
 41
0.188
 42
0.188
 43
0.0
  0
CIRCLE
  8
DAMAN
  6
HIDDEN
 62
     5
 10
2.591268
 20
0.744489
 30
0.0
 40
0.095
  0
CIRCLE
  8
DAMAN
 62
     5
 10
2.591268
 20
0.744739
 30
0.0
 40
0.078
  0
CIRCLE
  8
DAMAN
 62
     5
 10
2.562268
 20
1.689489
 30
0.0
 40
0.078
  0
INSERT
  8
DAMAN
 62
     5
  2
100CROSS
 10
2.562268
 20
1.689489
 30
0.0
 41
0.188
 42
0.188
 43
0.0
  0
CIRCLE
  8
DAMAN
  6
HIDDEN
 62
     5
 10
2.562268
 20
1.689489
 30
0.0
 40
0.095
  0
CIRCLE
  8
DAMAN
 62
     5
 10
2.119268
 20
1.520489
 30
0.0
 40
0.0885
  0
CIRCLE
  8
DAMAN
 62
     5
 10
2.474268
 20
1.217489
 30
0.0
 40
0.0885
  0
INSERT
  8
DAMAN
 62
     5
  2
100CROSS
 10
2.474268
 20
1.217489
 30
0.0
 41
0.1875
 42
0.1875
 43
0.0
  0
CIRCLE
  8
DAMAN
 62
     5
 10
2.119268
 20
0.913489
 30
0.0
 40
0.0885
  0
INSERT
  8
DAMAN
 62
     5
  2
100CROSS
 10
2.119268
 20
0.913489
 30
0.0
 41
0.1875
 42
0.1875
 43
0.0
  0
CIRCLE
  8
DAMAN
 62
     5
 10
1.765268
 20
1.217489
 30
0.0
 40
0.0885
  0
INSERT
  8
DAMAN
 62
     5
  2
100CROSS
 10
1.765268
 20
1.217489
 30
0.0
 41
0.1875
 42
0.1875
 43
0.0
  0
CIRCLE
  8
DAMAN
 62
     5
 10
1.862704
 20
0.646489
 30
0.0
 40
0.0885
  0
ENDBLK
  8
0
  0
BLOCK
  8
0
  2
D03
 70
     0
 10
0.0
 20
0.0
 30
0.0
  3
D03
  0
INSERT
  8
DAMAN
  2
100CROSS
 10
0.61
 20
-1.1875
 30
0.0
 41
0.25
 42
0.25
 43
0.0
  0
INSERT
  8
DAMAN
  2
100CROSS
 10
0.61
 20
-0.5
 30
0.0
 41
0.25
 42
0.25
 43
0.0
  0
CIRCLE
  8
DAMAN
 10
0.61
 20
-0.5
 30
0.0
 40
0.141125
  0
CIRCLE
  8
DAMAN
 10
0.61
 20
-1.1875
 30
0.0
 40
0.141125
  0
INSERT
  8
DAMAN
  2
100CROSS
 10
0.2035
 20
-0.844
 30
0.0
 41
0.25
 42
0.25
 43
0.0
  0
CIRCLE
  8
DAMAN
 10
0.2035
 20
-0.844
 30
0.0
 40
0.141375
  0
INSERT
  8
DAMAN
  2
100CROSS
 10
-0.03
 20
-1.3
 30
0.0
 41
0.171
 42
0.171
 43
0.0
  0
INSERT
  8
DAMAN
  2
100CROSS
 10
-0.03
 20
-1.594
 30
0.0
 41
0.188
 42
0.188
 43
0.0
  0
CIRCLE
  8
DAMAN
  6
HIDDEN
 10
-0.03
 20
-1.594
 30
0.0
 40
0.095
  0
CIRCLE
  8
DAMAN
 10
-0.03
 20
-1.59375
 30
0.0
 40
0.078
  0
CIRCLE
  8
DAMAN
 10
-0.03
 20
-1.3
 30
0.0
 40
0.0855
  0
POINT
  8
DAMAN
  6
BYBLOCK
 62
     0
 10
0.20425
 20
-0.75
 30
0.0
  0
POINT
  8
DAMAN
  6
BYBLOCK
 62
     0
 10
0.20425
 20
-0.75
 30
0.0
  0
INSERT
  8
DAMAN
  2
100CROSS
 10
0.0
 20
0.0
 30
0.0
 41
0.188
 42
0.188
 43
0.0
  0
CIRCLE
  8
DAMAN
 10
0.0
 20
0.0
 30
0.0
 40
0.078
  0
CIRCLE
  8
DAMAN
  6
HIDDEN
 10
0.0
 20
0.0
 30
0.0
 40
0.095
  0
INSERT
  8
DAMAN
  2
100CROSS
 10
1.016
 20
-0.844
 30
0.0
 41
0.25
 42
0.25
 43
0.0
  0
CIRCLE
  8
DAMAN
 10
1.016
 20
-0.844
 30
0.0
 40
0.141375
  0
INSERT
  8
DAMAN
  2
100CROSS
 10
1.25
 20
-1.594
 30
0.0
 41
0.188
 42
0.188
 43
0.0
  0
CIRCLE
  8
DAMAN
  6
HIDDEN
 10
1.25
 20
-1.594
 30
0.0
 40
0.095
  0
CIRCLE
  8
DAMAN
 10
1.25
 20
-1.59375
 30
0.0
 40
0.078
  0
CIRCLE
  8
DAMAN
 10
1.22
 20
0.0
 30
0.0
 40
0.078
  0
INSERT
  8
DAMAN
  2
100CROSS
 10
1.22
 20
0.0
 30
0.0
 41
0.188
 42
0.188
 43
0.0
  0
CIRCLE
  8
DAMAN
  6
HIDDEN
 10
1.22
 20
0.0
 30
0.0
 40
0.095
  0
ENDBLK
  8
0
  0
BLOCK
  8
0
  2
D03SF
 70
     0
 10
0.0
 20
0.0
 30
0.0
  3
D03SF
  0
INSERT
  8
DAMAN
  2
D01I
 10
1.21875
 20
0.0
 30
0.0
 41
-1.0
 43
0.0
  0
ENDBLK
  8
0
  0
BLOCK
  8
0
  2
D01I
 70
    64
 10
9.0625
 20
9.75
 30
0.0
  3
D01I
  0
CIRCLE
  8
CSOLID
 10
9.03245
 20
8.450385
 30
0.0
 40
0.0625
  0
CIRCLE
  8
CSOLID
 10
10.07725
 20
8.90625
 30
0.0
 40
0.219
  0
CIRCLE
  8
CSOLID
 10
9.67125
 20
9.25025
 30
0.0
 40
0.219
  0
CIRCLE
  8
CSOLID
 10
9.26525
 20
8.90625
 30
0.0
 40
0.219
  0
CIRCLE
  8
CSOLID
 10
9.67125
 20
8.56225
 30
0.0
 40
0.219
  0
CIRCLE
  8
CSOLID
 10
9.03125
 20
8.15625
 30
0.0
 40
0.1095
  0
CIRCLE
  8
CSOLID
 10
10.3125
 20
8.15625
 30
0.0
 40
0.1095
  0
CIRCLE
  8
CSOLID
 10
10.28125
 20
9.75
 30
0.0
 40
0.1095
  0
CIRCLE
  8
CSOLID
 10
9.0625
 20
9.75
 30
0.0
 40
0.1095
  0
CIRCLE
  8
CSOLID
 10
9.6725
 20
9.25
 30
0.0
 40
0.125
  0
CIRCLE
  8
CSOLID
 10
10.0785
 20
8.906
 30
0.0
 40
0.125
  0
CIRCLE
  8
CSOLID
 10
9.266
 20
8.906
 30
0.0
 40
0.125
  0
CIRCLE
  8
CSOLID
 10
9.6725
 20
8.5625
 30
0.0
 40
0.125
  0
INSERT
  8
CCENTER
  2
100CROSS
 10
9.0325
 20
8.45
 30
0.0
 41
0.171
 42
0.171
 43
0.0
  0
INSERT
  8
CCENTER
  2
100CROSS
 10
9.671
 20
8.562
 30
0.0
 41
0.4
 42
0.4
 43
0.0
  0
INSERT
  8
CCENTER
  2
100CROSS
 10
10.0775
 20
8.906
 30
0.0
 41
0.4
 42
0.4
 43
0.0
  0
INSERT
  8
CCENTER
  2
100CROSS
 10
9.671
 20
9.25
 30
0.0
 41
0.4
 42
0.4
 43
0.0
  0
INSERT
  8
CCENTER
  2
100CROSS
 10
9.265
 20
8.906
 30
0.0
 41
0.4
 42
0.4
 43
0.0
  0
INSERT
  8
CCENTER
  2
100CROSS
 10
9.03125
 20
8.15625
 30
0.0
 41
0.34
 42
0.34
 43
0.34
  0
INSERT
  8
CCENTER
  2
100CROSS
 10
10.3125
 20
8.15625
 30
0.0
 41
0.34
 42
0.34
 43
0.34
  0
INSERT
  8
CCENTER
  2
100CROSS
 10
10.28125
 20
9.75
 30
0.0
 41
0.34
 42
0.34
 43
0.34
  0
INSERT
  8
CCENTER
  2
100CROSS
 10
9.0625
 20
9.75
 30
0.0
 41
0.34
 42
0.34
 43
0.34
  0
ENDBLK
  8
0
  0
BLOCK
  8
0
  2
012NPTFT
 70
     0
 10
0.0
 20
0.0
 30
0.0
  3
012NPTFT
  0
CIRCLE
  8
DAMAN
  6
HIDDEN
 10
0.0
 20
0.0
 30
0.0
 40
0.1875
  0
CIRCLE
  8
DAMAN
 10
0.0
 20
0.0
 30
0.0
 40
0.2105
  0
CIRCLE
  8
DAMAN
 10
0.0
 20
0.0
 30
0.0
 40
0.1695
  0
INSERT
  8
DAMAN
  2
100CROSS
 10
0.0
 20
0.0
 30
0.0
 41
0.43
 42
0.43
 43
0.0
  0
ENDBLK
  8
0
  0
BLOCK
  8
0
  2
S06
 70
     0
 10
0.0
 20
0.0
 30
0.0
  3
S06
  0
CIRCLE
  8
DAMAN
 10
1.919962
 20
1.510946
 30
0.0
 40
0.203
  0
CIRCLE
  8
DAMAN
 10
4.794962
 20
1.510946
 30
0.0
 40
0.203
  0
CIRCLE
  8
DAMAN
 10
4.794962
 20
4.885946
 30
0.0
 40
0.203
  0
CIRCLE
  8
DAMAN
 10
1.919962
 20
4.885946
 30
0.0
 40
0.203
  0
CIRCLE
  8
DAMAN
 10
3.359962
 20
4.195946
 30
0.0
 40
0.34375
  0
CIRCLE
  8
DAMAN
 10
2.359962
 20
3.195946
 30
0.0
 40
0.34375
  0
CIRCLE
  8
DAMAN
 10
3.359962
 20
2.195946
 30
0.0
 40
0.34375
  0
CIRCLE
  8
DAMAN
 10
4.359962
 20
3.195946
 30
0.0
 40
0.34375
  0
CIRCLE
  8
DAMAN
 10
2.609962
 20
1.698446
 30
0.0
 40
0.125
  0
CIRCLE
  8
DAMAN
 10
4.359962
 20
2.445946
 30
0.0
 40
0.08
  0
LINE
  8
DAMAN
  6
CENTER
 10
2.922462
 20
4.195946
 30
0.0
 11
3.797462
 21
4.195946
 31
0.0
  0
LINE
  8
DAMAN
  6
CENTER
 10
3.359962
 20
3.758446
 30
0.0
 11
3.359962
 21
4.633446
 31
0.0
  0
LINE
  8
DAMAN
  6
CENTER
 10
1.922462
 20
3.195946
 30
0.0
 11
2.797462
 21
3.195946
 31
0.0
  0
LINE
  8
DAMAN
  6
CENTER
 10
2.359962
 20
2.758446
 30
0.0
 11
2.359962
 21
3.633446
 31
0.0
  0
LINE
  8
DAMAN
  6
CENTER
 10
2.922462
 20
2.195946
 30
0.0
 11
3.797462
 21
2.195946
 31
0.0
  0
LINE
  8
DAMAN
  6
CENTER
 10
3.359962
 20
1.758446
 30
0.0
 11
3.359962
 21
2.633446
 31
0.0
  0
LINE
  8
DAMAN
  6
CENTER
 10
3.922462
 20
3.195946
 30
0.0
 11
4.797462
 21
3.195946
 31
0.0
  0
LINE
  8
DAMAN
  6
CENTER
 10
4.359962
 20
2.758446
 30
0.0
 11
4.359962
 21
3.633446
 31
0.0
  0
LINE
  8
DAMAN
  6
CENTER
 10
4.357462
 20
4.885946
 30
0.0
 11
5.232462
 21
4.885946
 31
0.0
  0
LINE
  8
DAMAN
  6
CENTER
 10
4.794962
 20
4.448446
 30
0.0
 11
4.794962
 21
5.323446
 31
0.0
  0
LINE
  8
DAMAN
  6
CENTER
 10
1.482462
 20
4.885946
 30
0.0
 11
2.357462
 21
4.885946
 31
0.0
  0
LINE
  8
DAMAN
  6
CENTER
 10
1.919962
 20
4.448446
 30
0.0
 11
1.919962
 21
5.323446
 31
0.0
  0
LINE
  8
DAMAN
  6
CENTER
 10
1.482462
 20
1.510946
 30
0.0
 11
2.357462
 21
1.510946
 31
0.0
  0
LINE
  8
DAMAN
  6
CENTER
 10
1.919962
 20
1.073446
 30
0.0
 11
1.919962
 21
1.948446
 31
0.0
  0
LINE
  8
DAMAN
  6
CENTER
 10
4.357462
 20
1.510946
 30
0.0
 11
5.232462
 21
1.510946
 31
0.0
  0
LINE
  8
DAMAN
  6
CENTER
 10
4.794962
 20
1.073446
 30
0.0
 11
4.794962
 21
1.948446
 31
0.0
  0
LINE
  8
DAMAN
  6
CENTER
 10
4.141212
 20
2.445946
 30
0.0
 11
4.578712
 21
2.445946
 31
0.0
  0
LINE
  8
DAMAN
  6
CENTER
 10
4.359962
 20
2.227196
 30
0.0
 11
4.359962
 21
2.664696
 31
0.0
  0
LINE
  8
DAMAN
  6
CENTER
 10
2.391212
 20
1.698446
 30
0.0
 11
2.828712
 21
1.698446
 31
0.0
  0
LINE
  8
DAMAN
  6
CENTER
 10
2.609962
 20
1.479696
 30
0.0
 11
2.609962
 21
1.917196
 31
0.0
  0
POINT
  8
DAMAN
 10
3.359962
 20
2.195946
 30
0.0
  0
ENDBLK
  8
0
  0
BLOCK
  8
0
  2
S06SF
 70
     0
 10
0.0
 20
0.0
 30
0.0
  3
S06SF
  0
CIRCLE
  8
DAMAN
 10
4.826946
 20
1.510946
 30
0.0
 40
0.203
  0
CIRCLE
  8
DAMAN
 10
1.951946
 20
1.510946
 30
0.0
 40
0.203
  0
CIRCLE
  8
DAMAN
 10
1.951946
 20
4.885946
 30
0.0
 40
0.203
  0
CIRCLE
  8
DAMAN
 10
4.826946
 20
4.885946
 30
0.0
 40
0.203
  0
CIRCLE
  8
DAMAN
 10
3.386946
 20
4.195946
 30
0.0
 40
0.34375
  0
CIRCLE
  8
DAMAN
 10
4.386946
 20
3.195946
 30
0.0
 40
0.34375
  0
CIRCLE
  8
DAMAN
 10
3.386946
 20
2.195946
 30
0.0
 40
0.34375
  0
CIRCLE
  8
DAMAN
 10
2.386946
 20
3.195946
 30
0.0
 40
0.34375
  0
CIRCLE
  8
DAMAN
 10
2.386946
 20
2.445946
 30
0.0
 40
0.08
  0
LINE
  8
DAMAN
  6
CENTER
 10
4.043196
 20
4.195946
 30
0.0
 11
2.730696
 21
4.195946
 31
0.0
  0
LINE
  8
DAMAN
  6
CENTER
 10
3.386946
 20
3.539696
 30
0.0
 11
3.386946
 21
4.852196
 31
0.0
  0
LINE
  8
DAMAN
  6
CENTER
 10
5.043196
 20
3.195946
 30
0.0
 11
3.730696
 21
3.195946
 31
0.0
  0
LINE
  8
DAMAN
  6
CENTER
 10
4.386946
 20
2.539696
 30
0.0
 11
4.386946
 21
3.852196
 31
0.0
  0
LINE
  8
DAMAN
  6
CENTER
 10
4.043196
 20
2.195946
 30
0.0
 11
2.730696
 21
2.195946
 31
0.0
  0
LINE
  8
DAMAN
  6
CENTER
 10
3.386946
 20
1.539696
 30
0.0
 11
3.386946
 21
2.852196
 31
0.0
  0
LINE
  8
DAMAN
  6
CENTER
 10
3.043196
 20
3.195946
 30
0.0
 11
1.730696
 21
3.195946
 31
0.0
  0
LINE
  8
DAMAN
  6
CENTER
 10
2.386946
 20
2.539696
 30
0.0
 11
2.386946
 21
3.852196
 31
0.0
  0
LINE
  8
DAMAN
  6
CENTER
 10
2.389446
 20
4.885946
 30
0.0
 11
1.514446
 21
4.885946
 31
0.0
  0
LINE
  8
DAMAN
  6
CENTER
 10
1.951946
 20
4.448446
 30
0.0
 11
1.951946
 21
5.323446
 31
0.0
  0
LINE
  8
DAMAN
  6
CENTER
 10
5.264446
 20
4.885946
 30
0.0
 11
4.389446
 21
4.885946
 31
0.0
  0
LINE
  8
DAMAN
  6
CENTER
 10
4.826946
 20
4.448446
 30
0.0
 11
4.826946
 21
5.323446
 31
0.0
  0
LINE
  8
DAMAN
  6
CENTER
 10
5.264446
 20
1.510946
 30
0.0
 11
4.389446
 21
1.510946
 31
0.0
  0
LINE
  8
DAMAN
  6
CENTER
 10
4.826946
 20
1.073446
 30
0.0
 11
4.826946
 21
1.948446
 31
0.0
  0
LINE
  8
DAMAN
  6
CENTER
 10
2.389446
 20
1.510946
 30
0.0
 11
1.514446
 21
1.510946
 31
0.0
  0
LINE
  8
DAMAN
  6
CENTER
 10
1.951946
 20
1.073446
 30
0.0
 11
1.951946
 21
1.948446
 31
0.0
  0
LINE
  8
DAMAN
  6
CENTER
 10
2.605696
 20
2.445946
 30
0.0
 11
2.168196
 21
2.445946
 31
0.0
  0
LINE
  8
DAMAN
  6
CENTER
 10
2.386946
 20
2.227196
 30
0.0
 11
2.386946
 21
2.664696
 31
0.0
  0
POINT
  8
DAMAN
 10
3.386946
 20
2.195946
 30
0.0
  0
CIRCLE
  8
DAMAN
 10
3.386946
 20
4.195946
 30
0.0
 40
0.5
  0
CIRCLE
  8
DAMAN
 10
4.386946
 20
3.195946
 30
0.0
 40
0.5
  0
CIRCLE
  8
DAMAN
 10
3.386946
 20
2.195946
 30
0.0
 40
0.5
  0
CIRCLE
  8
DAMAN
 10
2.386946
 20
3.195946
 30
0.0
 40
0.5
  0
ENDBLK
  8
0
  0
BLOCK
  8
0
  2
04SAET
 70
    64
 10
0.0
 20
0.0
 30
0.0
  3
04SAET
  0
CIRCLE
  8
DAMAN
 10
0.0
 20
0.0
 30
0.0
 40
0.4375
  0
INSERT
  8
DAMAN
  2
100CROSS
 10
0.0
 20
0.0
 30
0.0
 41
0.8
 42
0.8
 43
0.0
  0
CIRCLE
  8
DAMAN
  6
HIDDEN
 10
0.0
 20
0.0
 30
0.0
 40
0.21875
  0
CIRCLE
  8
DAMAN
 10
0.0
 20
0.0
 30
0.0
 40
0.1875
  0
CIRCLE
  8
DAMAN
 10
0.0
 20
0.0
 30
0.0
 40
0.2435
  0
ENDBLK
  8
0
  0
BLOCK
  8
0
  2
025BSPPT
 70
    64
 10
0.0
 20
0.0
 30
0.0
  3
025BSPPT
  0
CIRCLE
  8
DAMAN
 10
0.0
 20
0.0
 30
0.0
 40
0.425
  0
CIRCLE
  8
DAMAN
 10
0.0
 20
0.0
 30
0.0
 40
0.225
  0
CIRCLE
  8
DAMAN
 10
0.0
 20
0.0
 30
0.0
 40
0.26
  0
INSERT
  8
DAMAN
  2
100CROSS
 10
0.0
 20
0.0
 30
0.0
 41
0.748
 42
0.748
 43
0.0
  0
ENDBLK
  8
0
  0
BLOCK
  8
0
  2
0375BSPPT
 70
     0
 10
0.0
 20
0.0
 30
0.0
  3
0375BSPPT
  0
CIRCLE
  8
CSOLID
  6
HIDDEN
 10
0.0
 20
0.0
 30
0.0
 40
0.328
  0
CIRCLE
  8
CSOLID
 10
0.0
 20
0.0
 30
0.0
 40
0.3325
  0
CIRCLE
  8
CSOLID
 10
0.0
 20
0.0
 30
0.0
 40
0.3035
  0
CIRCLE
  8
CSOLID
 10
0.0
 20
0.0
 30
0.0
 40
0.51
  0
INSERT
  8
DAMAN
  2
100CROSS
 10
0.0
 20
0.0
 30
0.0
 41
0.88
 42
0.88
 43
0.0
  0
ENDBLK
  8
0
  0
BLOCK
  8
0
  2
D05W
 70
     0
 10
0.0
 20
0.0
 30
0.0
  3
D05W
  0
INSERT
  8
DAMAN
  2
100CROSS
 10
0.531
 20
-2.0
 30
0.0
 41
0.438
 42
0.438
 43
0.0
  0
CIRCLE
  8
DAMAN
 10
0.0
 20
-2.125
 30
0.0
 40
0.1405
  0
CIRCLE
  8
DAMAN
 10
1.8125
 20
-2.125
 30
0.0
 40
0.1405
  0
CIRCLE
  8
DAMAN
 10
0.531
 20
-2.0
 30
0.0
 40
0.21875
  0
INSERT
  8
DAMAN
  2
050CROSS
 10
0.0
 20
-2.125
 30
0.0
 41
0.406
 42
0.406
 43
0.0
  0
INSERT
  8
DAMAN
  2
050CROSS
 10
1.8125
 20
-2.125
 30
0.0
 41
0.406
 42
0.406
 43
0.0
  0
INSERT
  8
DAMAN
  2
100CROSS
 10
0.9685
 20
-1.4685
 30
0.0
 41
0.438
 42
0.438
 43
0.0
  0
INSERT
  8
DAMAN
  2
100CROSS
 10
0.9685
 20
-0.656
 30
0.0
 41
0.438
 42
0.438
 43
0.0
  0
CIRCLE
  8
DAMAN
 10
0.9685
 20
-1.4685
 30
0.0
 40
0.21875
  0
CIRCLE
  8
DAMAN
 10
0.9685
 20
-0.656
 30
0.0
 40
0.21875
  0
CIRCLE
  8
DAMAN
 10
0.0
 20
0.0
 30
0.0
 40
0.1405
  0
INSERT
  8
DAMAN
  2
050CROSS
 10
0.0
 20
0.0
 30
0.0
 41
0.406
 42
0.406
 43
0.0
  0
INSERT
  8
DAMAN
  2
100CROSS
 10
0.531
 20
-0.125
 30
0.0
 41
0.438
 42
0.438
 43
0.0
  0
CIRCLE
  8
DAMAN
 10
0.531
 20
-0.125
 30
0.0
 40
0.21875
  0
INSERT
  8
DAMAN
  2
100CROSS
 10
1.5625
 20
-1.06225
 30
0.0
 41
0.438
 42
0.438
 43
0.0
  0
CIRCLE
  8
DAMAN
 10
1.5625
 20
-1.06225
 30
0.0
 40
0.21875
  0
INSERT
  8
DAMAN
  2
050CROSS
 10
1.8125
 20
0.0
 30
0.0
 41
0.406
 42
0.406
 43
0.0
  0
CIRCLE
  8
DAMAN
 10
1.8125
 20
0.0
 30
0.0
 40
0.1405
  0
ENDBLK
  8
0
  0
BLOCK
  8
0
  2
D05HE
 70
    64
 10
0.0
 20
0.0
 30
0.0
  3
D05HE
  0
INSERT
  8
DAMAN
  2
100CROSS
 10
6.40625
 20
3.28175
 30
0.0
 41
0.25
 42
0.25
 43
0.0
  0
CIRCLE
  8
DAMAN
  6
HIDDEN
 10
6.84375
 20
5.71875
 30
0.0
 40
0.125
  0
CIRCLE
  8
DAMAN
  6
HIDDEN
 10
6.84375
 20
3.59375
 30
0.0
 40
0.125
  0
CIRCLE
  8
DAMAN
  6
HIDDEN
 10
5.03125
 20
5.71875
 30
0.0
 40
0.125
  0
CIRCLE
  8
DAMAN
  6
HIDDEN
 10
5.03125
 20
3.59375
 30
0.0
 40
0.125
  0
INSERT
  8
DAMAN
  2
100CROSS
 10
5.03125
 20
5.71875
 30
0.0
 41
0.25
 42
0.25
 43
0.0
  0
CIRCLE
  8
DAMAN
 10
5.03125
 20
5.71875
 30
0.0
 40
0.1055
  0
CIRCLE
  8
DAMAN
 10
5.03125
 20
3.59375
 30
0.0
 40
0.1055
  0
INSERT
  8
DAMAN
  2
100CROSS
 10
5.03125
 20
3.59375
 30
0.0
 41
0.25
 42
0.25
 43
0.0
  0
CIRCLE
  8
DAMAN
 10
6.84375
 20
5.71875
 30
0.0
 40
0.1055
  0
INSERT
  8
DAMAN
  2
100CROSS
 10
6.84375
 20
5.71875
 30
0.0
 41
0.25
 42
0.25
 43
0.0
  0
CIRCLE
  8
DAMAN
 10
6.84375
 20
3.59375
 30
0.0
 40
0.1055
  0
INSERT
  8
DAMAN
  2
100CROSS
 10
6.84375
 20
3.59375
 30
0.0
 41
0.25
 42
0.25
 43
0.0
  0
INSERT
  8
DAMAN
  2
100CROSS
 10
5.56225
 20
5.59375
 30
0.0
 41
0.438
 42
0.438
 43
0.0
  0
CIRCLE
  8
DAMAN
 10
5.56225
 20
5.59375
 30
0.0
 40
0.21875
  0
CIRCLE
  8
DAMAN
 10
5.99975
 20
5.06275
 30
0.0
 40
0.21875
  0
INSERT
  8
DAMAN
  2
100CROSS
 10
5.99975
 20
5.06275
 30
0.0
 41
0.438
 42
0.438
 43
0.0
  0
INSERT
  8
DAMAN
  2
100CROSS
 10
5.99975
 20
4.25025
 30
0.0
 41
0.438
 42
0.438
 43
0.0
  0
CIRCLE
  8
DAMAN
 10
5.99975
 20
4.25025
 30
0.0
 40
0.21875
  0
CIRCLE
  8
DAMAN
 10
6.59375
 20
4.6565
 30
0.0
 40
0.21875
  0
INSERT
  8
DAMAN
  2
100CROSS
 10
6.59375
 20
4.6565
 30
0.0
 41
0.438
 42
0.438
 43
0.0
  0
CIRCLE
  8
DAMAN
 10
5.56225
 20
3.71925
 30
0.0
 40
0.21875
  0
INSERT
  8
DAMAN
  2
100CROSS
 10
5.56225
 20
3.71925
 30
0.0
 41
-0.438
 42
0.438
 50
180.0
 43
0.0
  0
CIRCLE
  8
DAMAN
 10
6.40625
 20
3.28175
 30
0.0
 40
0.136
  0
CIRCLE
  8
DAMAN
 10
6.40625
 20
6.03125
 30
0.0
 40
0.136
  0
INSERT
  8
DAMAN
  2
100CROSS
 10
6.40625
 20
6.03125
 30
0.0
 41
-0.25
 42
0.25
 50
180.0
 43
0.0
  0
ENDBLK
  8
0
  0
BLOCK
  8
0
  2
D05HH
 70
     0
 10
0.0
 20
0.0
 30
0.0
  3
D05HH
  0
CIRCLE
  8
DAMAN
  6
HIDDEN
 10
1.8125
 20
0.0
 30
0.0
 40
0.125
  0
CIRCLE
  8
DAMAN
  6
HIDDEN
 10
1.8125
 20
-2.125
 30
0.0
 40
0.125
  0
CIRCLE
  8
DAMAN
  6
HIDDEN
 10
0.0
 20
0.0
 30
0.0
 40
0.125
  0
CIRCLE
  8
DAMAN
  6
HIDDEN
 10
0.0
 20
-2.125
 30
0.0
 40
0.125
  0
INSERT
  8
DAMAN
  2
100CROSS
 10
0.0
 20
0.0
 30
0.0
 41
0.25
 42
0.25
 43
0.0
  0
CIRCLE
  8
DAMAN
 10
0.0
 20
0.0
 30
0.0
 40
0.1055
  0
CIRCLE
  8
DAMAN
 10
0.0
 20
-2.125
 30
0.0
 40
0.1055
  0
INSERT
  8
DAMAN
  2
100CROSS
 10
0.0
 20
-2.125
 30
0.0
 41
0.25
 42
0.25
 43
0.0
  0
CIRCLE
  8
DAMAN
 10
1.8125
 20
0.0
 30
0.0
 40
0.1055
  0
INSERT
  8
DAMAN
  2
100CROSS
 10
1.8125
 20
0.0
 30
0.0
 41
0.25
 42
0.25
 43
0.0
  0
CIRCLE
  8
DAMAN
 10
1.8125
 20
-2.125
 30
0.0
 40
0.1055
  0
INSERT
  8
DAMAN
  2
100CROSS
 10
1.8125
 20
-2.125
 30
0.0
 41
0.25
 42
0.25
 43
0.0
  0
INSERT
  8
DAMAN
  2
100CROSS
 10
0.531
 20
-0.125
 30
0.0
 41
0.438
 42
0.438
 43
0.0
  0
CIRCLE
  8
DAMAN
 10
0.531
 20
-0.125
 30
0.0
 40
0.21875
  0
CIRCLE
  8
DAMAN
 10
0.9685
 20
-0.656
 30
0.0
 40
0.21875
  0
INSERT
  8
DAMAN
  2
100CROSS
 10
0.9685
 20
-0.656
 30
0.0
 41
0.438
 42
0.438
 43
0.0
  0
INSERT
  8
DAMAN
  2
100CROSS
 10
0.9685
 20
-1.4685
 30
0.0
 41
0.438
 42
0.438
 43
0.0
  0
CIRCLE
  8
DAMAN
 10
0.9685
 20
-1.4685
 30
0.0
 40
0.21875
  0
CIRCLE
  8
DAMAN
 10
1.5625
 20
-1.06225
 30
0.0
 40
0.21875
  0
INSERT
  8
DAMAN
  2
100CROSS
 10
1.5625
 20
-1.06225
 30
0.0
 41
0.438
 42
0.438
 43
0.0
  0
CIRCLE
  8
DAMAN
 10
0.531
 20
-1.9995
 30
0.0
 40
0.21875
  0
INSERT
  8
DAMAN
  2
100CROSS
 10
0.531
 20
-1.9995
 30
0.0
 41
-0.438
 42
0.438
 50
180.0
 43
0.0
  0
ENDBLK
  8
0
  0
BLOCK
  8
0
  2
D05SF
 70
     0
 10
0.0
 20
0.0
 30
0.0
  3
D05SF
  0
INSERT
  8
DAMAN
  2
D02I
 10
1.8125
 20
0.0
 30
0.0
 41
-1.0
 43
0.0
  0
SOLID
  8
DAMAN
 10
-0.876488
 20
-0.883675
 30
0.0
 11
-0.936013
 21
-0.883675
 31
0.0
 12
-0.90625
 22
-1.06225
 32
0.0
 13
-0.90625
 23
-1.06225
 33
0.0
  0
ENDBLK
  8
0
  0
BLOCK
  8
0
  2
D02I
 70
    64
 10
10.03125
 20
6.625
 30
0.0
  3
D02I
  0
CIRCLE
  8
CSOLID
 10
10.56225
 20
4.625
 30
0.0
 40
0.21875
  0
CIRCLE
  8
CSOLID
 10
10.5625
 20
4.625
 30
0.0
 40
0.3125
  0
CIRCLE
  8
CSOLID
 10
11.0
 20
5.15625
 30
0.0
 40
0.3125
  0
CIRCLE
  8
CSOLID
 10
11.59375
 20
5.5625
 30
0.0
 40
0.3125
  0
CIRCLE
  8
CSOLID
 10
11.0
 20
5.96875
 30
0.0
 40
0.3125
  0
CIRCLE
  8
CSOLID
 10
10.5625
 20
6.5
 30
0.0
 40
0.3125
  0
CIRCLE
  8
CSOLID
 10
11.84375
 20
4.5
 30
0.0
 40
0.1405
  0
CIRCLE
  8
CSOLID
 10
11.84375
 20
6.625
 30
0.0
 40
0.1405
  0
CIRCLE
  8
CSOLID
 10
10.03125
 20
4.5
 30
0.0
 40
0.1405
  0
CIRCLE
  8
CSOLID
 10
10.03125
 20
6.625
 30
0.0
 40
0.1405
  0
CIRCLE
  8
CSOLID
 10
10.56225
 20
6.5
 30
0.0
 40
0.21875
  0
CIRCLE
  8
CSOLID
 10
10.99975
 20
5.969
 30
0.0
 40
0.21875
  0
CIRCLE
  8
CSOLID
 10
10.99975
 20
5.1565
 30
0.0
 40
0.21875
  0
CIRCLE
  8
CSOLID
 10
11.59375
 20
5.56275
 30
0.0
 40
0.21875
  0
INSERT
  8
CCENTER
  2
100CROSS
 10
10.56225
 20
6.5
 30
0.0
 41
0.438
 42
0.438
 43
0.0
  0
INSERT
  8
CCENTER
  2
100CROSS
 10
10.99975
 20
5.969
 30
0.0
 41
0.438
 42
0.438
 43
0.0
  0
INSERT
  8
CCENTER
  2
100CROSS
 10
11.59375
 20
5.56275
 30
0.0
 41
0.438
 42
0.438
 43
0.0
  0
INSERT
  8
CCENTER
  2
100CROSS
 10
10.99975
 20
5.1565
 30
0.0
 41
0.438
 42
0.438
 43
0.0
  0
INSERT
  8
CCENTER
  2
100CROSS
 10
10.56225
 20
4.625
 30
0.0
 41
0.438
 42
0.438
 43
0.0
  0
INSERT
  8
CCENTER
  2
100CROSS
 10
10.03125
 20
4.5
 30
0.0
 41
0.406
 42
0.406
 43
0.406
  0
INSERT
  8
CCENTER
  2
100CROSS
 10
10.03125
 20
6.625
 30
0.0
 41
0.406
 42
0.406
 43
0.406
  0
INSERT
  8
CCENTER
  2
100CROSS
 10
11.84375
 20
4.5
 30
0.0
 41
0.406
 42
0.406
 43
0.406
  0
INSERT
  8
CCENTER
  2
100CROSS
 10
11.84375
 20
6.625
 30
0.0
 41
0.406
 42
0.406
 43
0.406
  0
ENDBLK
  8
0
  0
BLOCK
  8
0
  2
375SHCS
 70
     0
 10
0.0
 20
0.0
 30
0.0
  3
375SHCS
  0
LINE
  8
DAMAN
 10
-0.28125
 20
0.0
 30
0.0
 11
-0.28125
 21
0.328125
 31
0.0
  0
LINE
  8
DAMAN
 10
-0.234375
 20
0.375
 30
0.0
 11
0.234375
 21
0.375
 31
0.0
  0
LINE
  8
DAMAN
 10
0.28125
 20
0.328125
 30
0.0
 11
0.28125
 21
0.0
 31
0.0
  0
LINE
  8
DAMAN
 10
-0.28125
 20
0.328125
 30
0.0
 11
0.28125
 21
0.328125
 31
0.0
  0
LINE
  8
DAMAN
 10
0.28125
 20
0.0
 30
0.0
 11
-0.28125
 21
0.0
 31
0.0
  0
LINE
  8
DAMAN
 10
0.234375
 20
0.375
 30
0.0
 11
0.28125
 21
0.328125
 31
0.0
  0
LINE
  8
DAMAN
 10
-0.234375
 20
0.375
 30
0.0
 11
-0.28125
 21
0.328125
 31
0.0
  0
ENDBLK
  8
0
  0
BLOCK
  8
0
  2
038THDT
 70
     0
 10
0.0
 20
0.0
 30
0.0
  3
038THDT
  0
CIRCLE
  8
DAMAN
 10
3.0
 20
6.375
 30
0.0
 40
0.1875
  0
CIRCLE
  8
DAMAN
 10
3.0
 20
6.375
 30
0.0
 40
0.15625
  0
INSERT
  8
DAMAN
  2
100CROSS
 10
3.0
 20
6.375
 30
0.0
 41
0.375
 42
0.375
 43
0.0
  0
INSERT
  8
DAMAN
  2
100CROSS
 10
5.75
 20
6.375
 30
0.0
 41
0.375
 42
0.375
 43
0.0
  0
CIRCLE
  8
DAMAN
 10
5.75
 20
6.375
 30
0.0
 40
0.1875
  0
CIRCLE
  8
DAMAN
 10
5.75
 20
6.375
 30
0.0
 40
0.15625
  0
ENDBLK
  8
0
  0
BLOCK
  8
0
  2
038TOP
 70
     0
 10
0.0
 20
0.0
 30
0.0
  3
038TOP
  0
CIRCLE
  8
CHIDDEN
 10
0.0
 20
0.0
 30
0.0
 40
0.1875
  0
CIRCLE
  8
CSOLID
 10
0.0
 20
0.0
 30
0.0
 40
0.15625
  0
INSERT
  8
CCENTER
  2
100CROSS
 10
0.0
 20
0.0
 30
0.0
 41
0.375
 42
0.375
 43
0.0
  0
ENDBLK
  8
0
  0
BLOCK
  8
0
  2
06SAET
 70
     0
 10
0.0
 20
0.0
 30
0.0
  3
06SAET
  0
INSERT
  8
DAMAN
  2
100CROSS
 10
0.0
 20
0.0
 30
0.0
 43
0.0
  0
CIRCLE
  8
DAMAN
 10
0.0
 20
0.0
 30
0.0
 40
0.28125
  0
CIRCLE
  8
DAMAN
 10
0.0
 20
0.0
 30
0.0
 40
0.5
  0
CIRCLE
  8
DAMAN
 10
0.0
 20
0.0
 30
0.0
 40
0.25
  0
ENDBLK
  8
0
  0
BLOCK
  8
0
  2
025NPTFT
 70
    64
 10
0.0
 20
0.0
 30
0.0
  3
025NPTFT
  0
INSERT
  8
DAMAN
  2
250NPTFT
 10
0.0
 20
0.0
 30
0.0
  0
ENDBLK
  8
0
  0
BLOCK
  8
0
  2
24CD61
 70
     0
 10
0.0
 20
0.0
 30
0.0
  3
24CD61
  0
CIRCLE
  8
DAMAN
 10
1.908695
 20
2.748498
 30
0.0
 40
0.75
  0
INSERT
  8
DAMAN
  2
100CROSS
 10
1.205695
 20
4.123498
 30
0.0
 41
0.49957
 42
0.49957
 43
0.0
  0
CIRCLE
  8
DAMAN
 10
1.205695
 20
4.123498
 30
0.0
 40
0.249785
  0
CIRCLE
  8
DAMAN
 10
1.205695
 20
4.123498
 30
0.0
 40
0.208154
  0
CIRCLE
  8
DAMAN
 10
2.611695
 20
4.123498
 30
0.0
 40
0.249785
  0
CIRCLE
  8
DAMAN
 10
2.611695
 20
4.123498
 30
0.0
 40
0.208154
  0
INSERT
  8
DAMAN
  2
100CROSS
 10
2.611695
 20
4.123498
 30
0.0
 41
0.49957
 42
0.49957
 43
0.0
  0
CIRCLE
  8
DAMAN
 10
2.611695
 20
1.373498
 30
0.0
 40
0.249785
  0
CIRCLE
  8
DAMAN
 10
2.611695
 20
1.373498
 30
0.0
 40
0.208154
  0
INSERT
  8
DAMAN
  2
100CROSS
 10
2.611695
 20
1.373498
 30
0.0
 41
0.49957
 42
0.49957
 43
0.0
  0
CIRCLE
  8
DAMAN
 10
1.205695
 20
1.373498
 30
0.0
 40
0.249785
  0
CIRCLE
  8
DAMAN
 10
1.205695
 20
1.373498
 30
0.0
 40
0.208154
  0
INSERT
  8
DAMAN
  2
100CROSS
 10
1.205695
 20
1.373498
 30
0.0
 41
0.49957
 42
0.49957
 43
0.0
  0
INSERT
  8
DAMAN
  2
100CROSS
 10
1.908695
 20
2.748498
 30
0.0
 41
1.40625
 42
1.40625
 43
0.0
  0
ENDBLK
  8
0
  0
BLOCK
  8
0
  2
24CD62
 70
     0
 10
0.0
 20
0.0
 30
0.0
  3
24CD62
  0
CIRCLE
  8
DAMAN
 10
1.908695
 20
2.748498
 30
0.0
 40
0.75
  0
CIRCLE
  8
DAMAN
 10
2.627195
 20
1.185998
 30
0.0
 40
0.312231
  0
CIRCLE
  8
DAMAN
 10
2.627195
 20
1.185998
 30
0.0
 40
0.260193
  0
INSERT
  8
DAMAN
  2
100CROSS
 10
2.627195
 20
1.185998
 30
0.0
 41
0.624462
 42
0.624462
 43
0.0
  0
INSERT
  8
DAMAN
  2
100CROSS
 10
1.908695
 20
2.748498
 30
0.0
 41
1.40625
 42
1.40625
 43
0.0
  0
CIRCLE
  8
DAMAN
 10
1.190195
 20
1.185998
 30
0.0
 40
0.312231
  0
INSERT
  8
DAMAN
  2
100CROSS
 10
1.190195
 20
1.185998
 30
0.0
 41
0.624462
 42
0.624462
 43
0.0
  0
CIRCLE
  8
DAMAN
 10
1.190195
 20
1.185998
 30
0.0
 40
0.260193
  0
CIRCLE
  8
DAMAN
 10
1.190195
 20
4.310998
 30
0.0
 40
0.312231
  0
INSERT
  8
DAMAN
  2
100CROSS
 10
1.190195
 20
4.310998
 30
0.0
 41
0.624462
 42
0.624462
 43
0.0
  0
CIRCLE
  8
DAMAN
 10
1.190195
 20
4.310998
 30
0.0
 40
0.260193
  0
CIRCLE
  8
DAMAN
 10
2.627195
 20
4.310998
 30
0.0
 40
0.312231
  0
INSERT
  8
DAMAN
  2
100CROSS
 10
2.627195
 20
4.310998
 30
0.0
 41
0.624462
 42
0.624462
 43
0.0
  0
CIRCLE
  8
DAMAN
 10
2.627195
 20
4.310998
 30
0.0
 40
0.260193
  0
ENDBLK
  8
0
  0
BLOCK
  8
0
  2
40CD61
 70
     0
 10
0.0
 20
0.0
 30
0.0
  3
40CD61
  0
INSERT
  8
DAMAN
  2
100CROSS
 10
2.095733
 20
2.887387
 30
0.0
 41
1.933594
 42
1.933594
 43
0.0
  0
CIRCLE
  8
DAMAN
 10
2.095733
 20
2.887387
 30
0.0
 40
1.25
  0
CIRCLE
  8
DAMAN
 10
3.095733
 20
4.637387
 30
0.0
 40
0.208281
  0
CIRCLE
  8
DAMAN
 10
3.095733
 20
4.637387
 30
0.0
 40
0.249938
  0
INSERT
  8
DAMAN
  2
100CROSS
 10
3.095733
 20
4.637387
 30
0.0
 41
0.499875
 42
0.499875
 43
0.0
  0
CIRCLE
  8
DAMAN
 10
1.095733
 20
4.637387
 30
0.0
 40
0.208281
  0
CIRCLE
  8
DAMAN
 10
1.095733
 20
4.637387
 30
0.0
 40
0.249938
  0
INSERT
  8
DAMAN
  2
100CROSS
 10
1.095733
 20
4.637387
 30
0.0
 41
0.499875
 42
0.499875
 43
0.0
  0
CIRCLE
  8
DAMAN
 10
1.095733
 20
1.137387
 30
0.0
 40
0.208281
  0
CIRCLE
  8
DAMAN
 10
1.095733
 20
1.137387
 30
0.0
 40
0.249938
  0
INSERT
  8
DAMAN
  2
100CROSS
 10
1.095733
 20
1.137387
 30
0.0
 41
0.499875
 42
0.499875
 43
0.0
  0
CIRCLE
  8
DAMAN
 10
3.095733
 20
1.137387
 30
0.0
 40
0.208281
  0
CIRCLE
  8
DAMAN
 10
3.095733
 20
1.137387
 30
0.0
 40
0.249938
  0
INSERT
  8
DAMAN
  2
100CROSS
 10
3.095733
 20
1.137387
 30
0.0
 41
0.499875
 42
0.499875
 43
0.0
  0
ENDBLK
  8
0
  0
BLOCK
  8
0
  2
40MMDIN
 70
     0
 10
0.0
 20
0.0
 30
0.0
  3
40MMDIN
  0
CIRCLE
  8
DAMAN
 10
3.733259
 20
3.626126
 30
0.0
 40
1.475
  0
CIRCLE
  8
DAMAN
 10
3.733259
 20
3.626126
 30
0.0
 40
1.08
  0
CIRCLE
  8
DAMAN
 10
3.733259
 20
3.626126
 30
0.0
 40
0.785
  0
CIRCLE
  8
DAMAN
 10
2.063259
 20
5.296126
 30
0.0
 40
0.374063
  0
CIRCLE
  8
DAMAN
 10
2.063259
 20
5.296126
 30
0.0
 40
0.311719
  0
INSERT
  8
DAMAN
  2
100CROSS
 10
2.063259
 20
5.296126
 30
0.0
 41
0.748125
 42
0.748125
 43
0.0
  0
CIRCLE
  8
DAMAN
 10
2.063259
 20
1.956126
 30
0.0
 40
0.374063
  0
CIRCLE
  8
DAMAN
 10
2.063259
 20
1.956126
 30
0.0
 40
0.311719
  0
INSERT
  8
DAMAN
  2
100CROSS
 10
2.063259
 20
1.956126
 30
0.0
 41
0.748125
 42
0.748125
 43
0.0
  0
CIRCLE
  8
DAMAN
 10
5.403259
 20
1.956126
 30
0.0
 40
0.374063
  0
CIRCLE
  8
DAMAN
 10
5.403259
 20
1.956126
 30
0.0
 40
0.311719
  0
INSERT
  8
DAMAN
  2
100CROSS
 10
5.403259
 20
1.956126
 30
0.0
 41
0.748125
 42
0.748125
 43
0.0
  0
CIRCLE
  8
DAMAN
 10
5.403259
 20
5.296126
 30
0.0
 40
0.374063
  0
CIRCLE
  8
DAMAN
 10
5.403259
 20
5.296126
 30
0.0
 40
0.311719
  0
INSERT
  8
DAMAN
  2
100CROSS
 10
5.403259
 20
5.296126
 30
0.0
 41
0.748125
 42
0.748125
 43
0.0
  0
CIRCLE
  8
DAMAN
 10
2.830259
 20
5.296126
 30
0.0
 40
0.12
  0
CIRCLE
  8
DAMAN
 10
3.733259
 20
5.591126
 30
0.0
 40
0.1965
  0
CIRCLE
  8
DAMAN
 10
1.768259
 20
3.626126
 30
0.0
 40
0.1965
  0
CIRCLE
  8
DAMAN
 10
3.733259
 20
1.661126
 30
0.0
 40
0.1965
  0
CIRCLE
  8
DAMAN
 10
5.698259
 20
3.626126
 30
0.0
 40
0.1965
  0
INSERT
  8
DAMAN
  2
100CROSS
 10
1.768259
 20
3.626126
 30
0.0
 41
0.623438
 42
0.623438
 43
0.0
  0
INSERT
  8
DAMAN
  2
100CROSS
 10
3.733259
 20
5.591126
 30
0.0
 41
0.623438
 42
0.623438
 43
0.0
  0
INSERT
  8
DAMAN
  2
100CROSS
 10
5.698259
 20
3.626126
 30
0.0
 41
0.623438
 42
0.623438
 43
0.0
  0
INSERT
  8
DAMAN
  2
100CROSS
 10
3.733259
 20
1.661126
 30
0.0
 41
0.467578
 42
0.467578
 43
0.0
  0
INSERT
  8
DAMAN
  2
100CROSS
 10
3.733259
 20
3.626126
 30
0.0
 41
1.954811
 42
1.954811
 43
0.0
  0
ENDBLK
  8
0
  0
BLOCK
  8
0
  2
32CD61
 70
     0
 10
0.0
 20
0.0
 30
0.0
  3
32CD61
  0
CIRCLE
  8
DAMAN
 10
1.86663
 20
2.59985
 30
0.0
 40
1.0
  0
INSERT
  8
DAMAN
  2
100CROSS
 10
1.02263
 20
4.13085
 30
0.0
 41
0.49932
 42
0.49932
 43
0.0
  0
CIRCLE
  8
DAMAN
 10
1.02263
 20
4.13085
 30
0.0
 40
0.24966
  0
CIRCLE
  8
DAMAN
 10
1.02263
 20
4.13085
 30
0.0
 40
0.20805
  0
INSERT
  8
DAMAN
  2
100CROSS
 10
2.71063
 20
4.13085
 30
0.0
 41
0.49932
 42
0.49932
 43
0.0
  0
CIRCLE
  8
DAMAN
 10
2.71063
 20
4.13085
 30
0.0
 40
0.24966
  0
CIRCLE
  8
DAMAN
 10
2.71063
 20
4.13085
 30
0.0
 40
0.20805
  0
INSERT
  8
DAMAN
  2
100CROSS
 10
2.71063
 20
1.06885
 30
0.0
 41
0.49932
 42
0.49932
 43
0.0
  0
CIRCLE
  8
DAMAN
 10
2.71063
 20
1.06885
 30
0.0
 40
0.24966
  0
CIRCLE
  8
DAMAN
 10
2.71063
 20
1.06885
 30
0.0
 40
0.20805
  0
INSERT
  8
DAMAN
  2
100CROSS
 10
1.02263
 20
1.06885
 30
0.0
 41
0.49932
 42
0.49932
 43
0.0
  0
CIRCLE
  8
DAMAN
 10
1.02263
 20
1.06885
 30
0.0
 40
0.24966
  0
CIRCLE
  8
DAMAN
 10
1.02263
 20
1.06885
 30
0.0
 40
0.20805
  0
INSERT
  8
DAMAN
  2
100CROSS
 10
1.86663
 20
2.59985
 30
0.0
 41
1.40625
 42
1.40625
 43
0.0
  0
ENDBLK
  8
0
  0
BLOCK
  8
0
  2
50MMDIN
 70
     0
 10
0.0
 20
0.0
 30
0.0
  3
50MMDIN
  0
CIRCLE
  8
DAMAN
 10
3.598051
 20
3.911411
 30
0.0
 40
1.77
  0
CIRCLE
  8
DAMAN
 10
3.598051
 20
3.911411
 30
0.0
 40
1.34
  0
CIRCLE
  8
DAMAN
 10
3.598051
 20
3.911411
 30
0.0
 40
0.98
  0
INSERT
  8
DAMAN
  2
100CROSS
 10
1.628051
 20
1.941411
 30
0.0
 41
0.748125
 42
0.748125
 43
0.0
  0
CIRCLE
  8
DAMAN
 10
1.628051
 20
1.941411
 30
0.0
 40
0.311719
  0
CIRCLE
  8
DAMAN
 10
1.628051
 20
1.941411
 30
0.0
 40
0.374063
  0
INSERT
  8
DAMAN
  2
100CROSS
 10
5.568051
 20
1.941411
 30
0.0
 41
0.748125
 42
0.748125
 43
0.0
  0
CIRCLE
  8
DAMAN
 10
5.568051
 20
1.941411
 30
0.0
 40
0.311719
  0
CIRCLE
  8
DAMAN
 10
5.568051
 20
1.941411
 30
0.0
 40
0.374063
  0
CIRCLE
  8
DAMAN
 10
5.568051
 20
5.881411
 30
0.0
 40
0.311719
  0
CIRCLE
  8
DAMAN
 10
5.568051
 20
5.881411
 30
0.0
 40
0.374063
  0
INSERT
  8
DAMAN
  2
100CROSS
 10
1.628051
 20
5.881411
 30
0.0
 41
0.748125
 42
0.748125
 43
0.0
  0
CIRCLE
  8
DAMAN
 10
1.628051
 20
5.881411
 30
0.0
 40
0.311719
  0
CIRCLE
  8
DAMAN
 10
1.628051
 20
5.881411
 30
0.0
 40
0.374063
  0
CIRCLE
  8
DAMAN
 10
3.598051
 20
6.195411
 30
0.0
 40
0.197
  0
CIRCLE
  8
DAMAN
 10
2.415051
 20
5.881411
 30
0.0
 40
0.1575
  0
CIRCLE
  8
DAMAN
 10
1.314051
 20
3.911411
 30
0.0
 40
0.197
  0
CIRCLE
  8
DAMAN
 10
3.598051
 20
1.627411
 30
0.0
 40
0.197
  0
CIRCLE
  8
DAMAN
 10
5.882051
 20
3.911411
 30
0.0
 40
0.197
  0
INSERT
  8
DAMAN
  2
100CROSS
 10
5.568051
 20
5.881411
 30
0.0
 41
0.748125
 42
0.748125
 43
0.0
  0
INSERT
  8
DAMAN
  2
100CROSS
 10
3.598051
 20
3.911411
 30
0.0
 41
2.443514
 42
2.443514
 43
0.0
  0
INSERT
  8
DAMAN
  2
100CROSS
 10
1.314051
 20
3.911411
 30
0.0
 41
0.467578
 42
0.467578
 43
0.0
  0
INSERT
  8
DAMAN
  2
100CROSS
 10
3.598051
 20
1.627411
 30
0.0
 41
0.467578
 42
0.467578
 43
0.0
  0
INSERT
  8
DAMAN
  2
100CROSS
 10
5.882051
 20
3.911411
 30
0.0
 41
0.467578
 42
0.467578
 43
0.0
  0
INSERT
  8
DAMAN
  2
100CROSS
 10
2.415051
 20
5.881411
 30
0.0
 41
0.467578
 42
0.467578
 43
0.0
  0
INSERT
  8
DAMAN
  2
100CROSS
 10
3.598051
 20
6.195411
 30
0.0
 41
0.467578
 42
0.467578
 43
0.0
  0
ENDBLK
  8
0
  0
BLOCK
  8
0
  2
40CD62
 70
     0
 10
0.0
 20
0.0
 30
0.0
  3
40CD62
  0
INSERT
  8
DAMAN
  2
100CROSS
 10
2.895025
 20
3.368891
 30
0.0
 41
1.933594
 42
1.933594
 43
0.0
  0
CIRCLE
  8
DAMAN
 10
2.895025
 20
3.368891
 30
0.0
 40
1.25
  0
CIRCLE
  8
DAMAN
 10
4.051025
 20
5.806391
 30
0.0
 40
0.364492
  0
CIRCLE
  8
DAMAN
 10
4.051025
 20
5.806391
 30
0.0
 40
0.437391
  0
CIRCLE
  8
DAMAN
 10
1.739025
 20
5.806391
 30
0.0
 40
0.364492
  0
CIRCLE
  8
DAMAN
 10
1.739025
 20
5.806391
 30
0.0
 40
0.437391
  0
INSERT
  8
DAMAN
  2
100CROSS
 10
1.739025
 20
5.806391
 30
0.0
 41
0.874781
 42
0.874781
 43
0.0
  0
CIRCLE
  8
DAMAN
 10
1.739025
 20
0.931391
 30
0.0
 40
0.364492
  0
CIRCLE
  8
DAMAN
 10
1.739025
 20
0.931391
 30
0.0
 40
0.437391
  0
INSERT
  8
DAMAN
  2
100CROSS
 10
1.739025
 20
0.931391
 30
0.0
 41
0.874781
 42
0.874781
 43
0.0
  0
CIRCLE
  8
DAMAN
 10
4.051025
 20
0.931391
 30
0.0
 40
0.364492
  0
CIRCLE
  8
DAMAN
 10
4.051025
 20
0.931391
 30
0.0
 40
0.437391
  0
INSERT
  8
DAMAN
  2
100CROSS
 10
4.051025
 20
0.931391
 30
0.0
 41
0.874781
 42
0.874781
 43
0.0
  0
CIRCLE
  8
DAMAN
 10
4.051025
 20
5.806391
 30
0.0
 40
0.364492
  0
INSERT
  8
DAMAN
  2
100CROSS
 10
4.051025
 20
5.806391
 30
0.0
 41
0.874781
 42
0.874781
 43
0.0
  0
ENDBLK
  8
0
  0
BLOCK
  8
0
  2
64CD61
 70
     0
 10
0.0
 20
0.0
 30
0.0
  3
64CD61
  0
CIRCLE
  8
DAMAN
 10
3.776075
 20
4.500751
 30
0.0
 40
2.0
  0
CIRCLE
  8
DAMAN
 10
2.246075
 20
7.063651
 30
0.0
 40
0.312563
  0
CIRCLE
  8
DAMAN
 10
2.246075
 20
7.063651
 30
0.0
 40
0.260469
  0
INSERT
  8
DAMAN
  2
100CROSS
 10
2.246075
 20
7.063651
 30
0.0
 41
0.625125
 42
0.625125
 43
0.0
  0
INSERT
  8
DAMAN
  2
100CROSS
 10
2.246075
 20
1.937851
 30
0.0
 41
0.625125
 42
0.625125
 43
0.0
  0
CIRCLE
  8
DAMAN
 10
2.246075
 20
1.937851
 30
0.0
 40
0.260469
  0
CIRCLE
  8
DAMAN
 10
2.246075
 20
1.937851
 30
0.0
 40
0.312563
  0
INSERT
  8
DAMAN
  2
100CROSS
 10
5.306075
 20
1.937851
 30
0.0
 41
0.625125
 42
0.625125
 43
0.0
  0
CIRCLE
  8
DAMAN
 10
5.306075
 20
1.937851
 30
0.0
 40
0.260469
  0
CIRCLE
  8
DAMAN
 10
5.306075
 20
1.937851
 30
0.0
 40
0.312563
  0
INSERT
  8
DAMAN
  2
100CROSS
 10
5.306075
 20
7.063651
 30
0.0
 41
0.625125
 42
0.625125
 43
0.0
  0
CIRCLE
  8
DAMAN
 10
5.306075
 20
7.063651
 30
0.0
 40
0.260469
  0
CIRCLE
  8
DAMAN
 10
5.306075
 20
7.063651
 30
0.0
 40
0.312563
  0
INSERT
  8
DAMAN
  2
100CROSS
 10
3.776075
 20
4.500751
 30
0.0
 41
3.125625
 42
3.125625
 43
0.0
  0
ENDBLK
  8
0
  0
BLOCK
  8
0
  2
63MMDIN
 70
     0
 10
0.0
 20
0.0
 30
0.0
  3
63MMDIN
  0
CIRCLE
  8
DAMAN
 10
4.27184
 20
3.939189
 30
0.0
 40
2.38
  0
CIRCLE
  8
DAMAN
 10
4.27184
 20
3.939189
 30
0.0
 40
1.77
  0
CIRCLE
  8
DAMAN
 10
4.27184
 20
3.939189
 30
0.0
 40
1.24
  0
CIRCLE
  8
DAMAN
 10
1.81184
 20
6.399189
 30
0.0
 40
0.519542
  0
CIRCLE
  8
DAMAN
 10
1.81184
 20
6.399189
 30
0.0
 40
0.62345
  0
INSERT
  8
DAMAN
  2
100CROSS
 10
1.81184
 20
6.399189
 30
0.0
 41
1.2469
 42
1.2469
 43
0.0
  0
CIRCLE
  8
DAMAN
 10
1.81184
 20
1.479189
 30
0.0
 40
0.519542
  0
CIRCLE
  8
DAMAN
 10
1.81184
 20
1.479189
 30
0.0
 40
0.62345
  0
INSERT
  8
DAMAN
  2
100CROSS
 10
1.81184
 20
1.479189
 30
0.0
 41
1.2469
 42
1.2469
 43
0.0
  0
CIRCLE
  8
DAMAN
 10
6.73184
 20
1.479189
 30
0.0
 40
0.519542
  0
CIRCLE
  8
DAMAN
 10
6.73184
 20
1.479189
 30
0.0
 40
0.62345
  0
INSERT
  8
DAMAN
  2
100CROSS
 10
6.73184
 20
1.479189
 30
0.0
 41
1.2469
 42
1.2469
 43
0.0
  0
CIRCLE
  8
DAMAN
 10
6.73184
 20
6.399189
 30
0.0
 40
0.519542
  0
CIRCLE
  8
DAMAN
 10
6.73184
 20
6.399189
 30
0.0
 40
0.62345
  0
INSERT
  8
DAMAN
  2
100CROSS
 10
6.73184
 20
6.399189
 30
0.0
 41
1.2469
 42
1.2469
 43
0.0
  0
CIRCLE
  8
DAMAN
 10
4.27184
 20
6.889189
 30
0.0
 40
0.235
  0
CIRCLE
  8
DAMAN
 10
1.32184
 20
3.939189
 30
0.0
 40
0.235
  0
CIRCLE
  8
DAMAN
 10
4.27184
 20
0.989189
 30
0.0
 40
0.235
  0
CIRCLE
  8
DAMAN
 10
7.22184
 20
3.939189
 30
0.0
 40
0.235
  0
CIRCLE
  8
DAMAN
 10
2.77584
 20
6.399189
 30
0.0
 40
0.157
  0
INSERT
  8
DAMAN
  2
100CROSS
 10
1.32184
 20
3.939189
 30
0.0
 41
0.561094
 42
0.561094
 43
0.0
  0
INSERT
  8
DAMAN
  2
100CROSS
 10
4.27184
 20
0.989189
 30
0.0
 41
0.561094
 42
0.561094
 43
0.0
  0
INSERT
  8
DAMAN
  2
100CROSS
 10
7.22184
 20
3.939189
 30
0.0
 41
0.561094
 42
0.561094
 43
0.0
  0
INSERT
  8
DAMAN
  2
100CROSS
 10
2.77584
 20
6.399189
 30
0.0
 41
0.42082
 42
0.42082
 43
0.0
  0
INSERT
  8
DAMAN
  2
100CROSS
 10
4.27184
 20
6.889189
 30
0.0
 41
0.561094
 42
0.561094
 43
0.0
  0
INSERT
  8
DAMAN
  2
100CROSS
 10
4.27184
 20
3.939189
 30
0.0
 41
3.054392
 42
3.054392
 43
0.0
  0
ENDBLK
  8
0
  0
BLOCK
  8
0
  2
08SAET
 70
     0
 10
0.0
 20
0.0
 30
0.0
  3
08SAET
  0
CIRCLE
  8
DAMAN
 10
0.0
 20
0.0
 30
0.0
 40
0.375
  0
CIRCLE
  8
DAMAN
 10
0.0
 20
0.0
 30
0.0
 40
0.3125
  0
CIRCLE
  8
DAMAN
  6
HIDDEN
 10
0.0
 20
0.0
 30
0.0
 40
0.344
  0
INSERT
  8
DAMAN
  2
100CROSS
 10
0.0
 20
0.0
 30
0.0
 41
0.88
 42
0.88
  0
CIRCLE
  8
DAMAN
 10
0.0
 20
0.0
 30
0.0
 40
0.594
  0
ENDBLK
  8
0
  0
BLOCK
  8
0
  2
48CD61
 70
     0
 10
0.0
 20
0.0
 30
0.0
  3
48CD61
  0
INSERT
  8
DAMAN
  2
100CROSS
 10
2.928768
 20
3.641892
 30
0.0
 41
2.175293
 42
2.175293
 43
0.0
  0
CIRCLE
  8
DAMAN
 10
2.928768
 20
3.641892
 30
0.0
 40
1.5
  0
INSERT
  8
DAMAN
  2
100CROSS
 10
1.709768
 20
5.735892
 30
0.0
 41
0.728955
 42
0.728955
 43
0.0
  0
CIRCLE
  8
DAMAN
 10
1.709768
 20
5.735892
 30
0.0
 40
0.364478
  0
CIRCLE
  8
DAMAN
 10
1.709768
 20
5.735892
 30
0.0
 40
0.303731
  0
CIRCLE
  8
DAMAN
 10
1.709768
 20
5.735892
 30
0.0
 40
0.303731
  0
INSERT
  8
DAMAN
  2
100CROSS
 10
4.147768
 20
5.735892
 30
0.0
 41
0.728955
 42
0.728955
 43
0.0
  0
CIRCLE
  8
DAMAN
 10
4.147768
 20
5.735892
 30
0.0
 40
0.364478
  0
CIRCLE
  8
DAMAN
 10
4.147768
 20
5.735892
 30
0.0
 40
0.303731
  0
CIRCLE
  8
DAMAN
 10
4.147768
 20
5.735892
 30
0.0
 40
0.303731
  0
INSERT
  8
DAMAN
  2
100CROSS
 10
4.147768
 20
1.547892
 30
0.0
 41
0.728955
 42
0.728955
 43
0.0
  0
CIRCLE
  8
DAMAN
 10
4.147768
 20
1.547892
 30
0.0
 40
0.364478
  0
CIRCLE
  8
DAMAN
 10
4.147768
 20
1.547892
 30
0.0
 40
0.303731
  0
CIRCLE
  8
DAMAN
 10
4.147768
 20
1.547892
 30
0.0
 40
0.303731
  0
INSERT
  8
DAMAN
  2
100CROSS
 10
1.709768
 20
1.547892
 30
0.0
 41
0.728955
 42
0.728955
 43
0.0
  0
CIRCLE
  8
DAMAN
 10
1.709768
 20
1.547892
 30
0.0
 40
0.364478
  0
CIRCLE
  8
DAMAN
 10
1.709768
 20
1.547892
 30
0.0
 40
0.303731
  0
CIRCLE
  8
DAMAN
 10
1.709768
 20
1.547892
 30
0.0
 40
0.303731
  0
ENDBLK
  8
0
  0
BLOCK
  8
0
  2
80CD61
 70
     0
 10
0.0
 20
0.0
 30
0.0
  3
80CD61
  0
CIRCLE
  8
DAMAN
 10
4.057009
 20
4.946697
 30
0.0
 40
2.5
  0
INSERT
  8
DAMAN
  2
100CROSS
 10
2.247009
 20
7.946697
 30
0.0
 41
0.625125
 42
0.625125
 43
0.0
  0
CIRCLE
  8
DAMAN
 10
2.247009
 20
7.946697
 30
0.0
 40
0.312563
  0
CIRCLE
  8
DAMAN
 10
2.247009
 20
7.946697
 30
0.0
 40
0.260469
  0
INSERT
  8
DAMAN
  2
100CROSS
 10
5.867009
 20
7.946697
 30
0.0
 41
0.625125
 42
0.625125
 43
0.0
  0
CIRCLE
  8
DAMAN
 10
5.867009
 20
7.946697
 30
0.0
 40
0.312563
  0
CIRCLE
  8
DAMAN
 10
5.867009
 20
7.946697
 30
0.0
 40
0.260469
  0
INSERT
  8
DAMAN
  2
100CROSS
 10
5.867009
 20
1.946697
 30
0.0
 41
0.625125
 42
0.625125
 43
0.0
  0
CIRCLE
  8
DAMAN
 10
5.867009
 20
1.946697
 30
0.0
 40
0.312563
  0
CIRCLE
  8
DAMAN
 10
5.867009
 20
1.946697
 30
0.0
 40
0.260469
  0
INSERT
  8
DAMAN
  2
100CROSS
 10
2.247009
 20
1.946697
 30
0.0
 41
0.625125
 42
0.625125
 43
0.0
  0
CIRCLE
  8
DAMAN
 10
2.247009
 20
1.946697
 30
0.0
 40
0.312563
  0
CIRCLE
  8
DAMAN
 10
2.247009
 20
1.946697
 30
0.0
 40
0.260469
  0
INSERT
  8
DAMAN
  2
100CROSS
 10
4.057009
 20
4.946697
 30
0.0
 41
3.907031
 42
3.907031
 43
0.0
  0
ENDBLK
  8
0
  0
BLOCK
  8
0
  2
48CD62
 70
     0
 10
0.0
 20
0.0
 30
0.0
  3
48CD62
  0
INSERT
  8
DAMAN
  2
100CROSS
 10
3.580699
 20
4.748916
 30
0.0
 41
2.175293
 42
2.175293
 43
0.0
  0
INSERT
  8
DAMAN
  2
100CROSS
 10
4.986699
 20
1.748916
 30
0.0
 41
1.312119
 42
1.312119
 43
0.0
  0
CIRCLE
  8
DAMAN
 10
4.986699
 20
1.748916
 30
0.0
 40
0.65606
  0
CIRCLE
  8
DAMAN
 10
4.986699
 20
1.748916
 30
0.0
 40
0.546716
  0
CIRCLE
  8
DAMAN
 10
4.986699
 20
1.748916
 30
0.0
 40
0.546716
  0
CIRCLE
  8
DAMAN
 10
4.986699
 20
7.748916
 30
0.0
 40
0.65606
  0
CIRCLE
  8
DAMAN
 10
4.986699
 20
7.748916
 30
0.0
 40
0.546716
  0
INSERT
  8
DAMAN
  2
100CROSS
 10
4.986699
 20
7.748916
 30
0.0
 41
1.312119
 42
1.312119
 43
0.0
  0
CIRCLE
  8
DAMAN
 10
2.174699
 20
7.748916
 30
0.0
 40
0.65606
  0
CIRCLE
  8
DAMAN
 10
2.174699
 20
7.748916
 30
0.0
 40
0.546716
  0
INSERT
  8
DAMAN
  2
100CROSS
 10
2.174699
 20
7.748916
 30
0.0
 41
1.312119
 42
1.312119
 43
0.0
  0
CIRCLE
  8
DAMAN
 10
2.174699
 20
1.748916
 30
0.0
 40
0.65606
  0
CIRCLE
  8
DAMAN
 10
2.174699
 20
1.748916
 30
0.0
 40
0.546716
  0
INSERT
  8
DAMAN
  2
100CROSS
 10
2.174699
 20
1.748916
 30
0.0
 41
1.312119
 42
1.312119
 43
0.0
  0
CIRCLE
  8
DAMAN
 10
3.580699
 20
4.748916
 30
0.0
 40
1.5
  0
ENDBLK
  8
0
  0
BLOCK
  8
0
  2
250NPTFT
 70
    64
 10
0.0
 20
0.0
 30
0.0
  3
250NPTFT
  0
CIRCLE
  8
DAMAN
 10
0.0
 20
0.0
 30
0.0
 40
0.273
  0
CIRCLE
  8
DAMAN
 10
0.0
 20
0.0
 30
0.0
 40
0.211
  0
INSERT
  8
DAMAN
  2
100CROSS
 10
0.0
 20
0.0
 30
0.0
 41
0.422
 42
0.422
 43
0.0
  0
CIRCLE
  8
DAMAN
 10
0.0
 20
0.0
 30
0.0
 40
0.242251
  0
POINT
  8
CHIDDEN
 10
-0.087928
 20
0.191806
 30
0.0
  0
POINT
  8
CHIDDEN
 10
-0.137717
 20
-0.15986
 30
0.0
  0
POINT
  8
CHIDDEN
 10
0.202707
 20
-0.058572
 30
0.0
  0
ENDBLK
  8
0
  0
BLOCK
  8
0
  2
M10T
 70
    64
 10
0.0
 20
0.0
 30
0.0
  3
M10T
  0
INSERT
  8
DAMAN
  2
100CROSS
 10
0.0
 20
0.0
 30
0.0
 41
0.59
 42
0.59
 43
0.59
  0
CIRCLE
  8
DAMAN
 10
0.0
 20
0.0
 30
0.0
 40
0.3145
  0
CIRCLE
  8
DAMAN
 10
0.0
 20
0.0
 30
0.0
 40
0.3935
  0
CIRCLE
  8
DAMAN
 10
0.0
 20
0.0
 30
0.0
 40
0.2185
  0
CIRCLE
  8
DAMAN
  6
HIDDEN
 10
0.0
 20
0.0
 30
0.0
 40
0.19685
  0
CIRCLE
  8
DAMAN
 10
0.0
 20
0.0
 30
0.0
 40
0.1775
  0
ENDBLK
  8
0
  0
BLOCK
  8
0
  2
050NPTFT
 70
     0
 10
0.0
 20
0.0
 30
0.0
  3
050NPTFT
  0
INSERT
  8
DAMAN
  2
500NPTFT
 10
0.0
 20
0.0
 30
0.0
  0
ENDBLK
  8
0
  0
BLOCK
  8
0
  2
500NPTFT
 70
    64
 10
0.0
 20
0.0
 30
0.0
  3
500NPTFT
  0
INSERT
  8
DAMAN
 62
     5
  2
100CROSS
 10
0.0
 20
0.0
 30
0.0
 41
0.84
 42
0.84
 43
0.0
  0
CIRCLE
  8
DAMAN
 62
     5
 10
0.0
 20
0.0
 30
0.0
 40
0.384627
  0
CIRCLE
  8
DAMAN
 62
     5
 10
0.0
 20
0.0
 30
0.0
 40
0.344
  0
CIRCLE
  8
DAMAN
 62
     5
 10
0.0
 20
0.0
 30
0.0
 40
0.4295
  0
ENDBLK
  8
0
  0
BLOCK
  8
0
  2
0500BSPPT
 70
     0
 10
0.0
 20
0.0
 30
0.0
  3
0500BSPPT
  0
CIRCLE
  8
DAMAN
 10
0.0
 20
0.0
 30
0.0
 40
0.3795
  0
INSERT
  8
DAMAN
  2
100CROSS
 10
0.0
 20
0.0
 30
0.0
 41
1.2
 42
1.2
 43
0.0
  0
CIRCLE
  8
DAMAN
 10
0.0
 20
0.0
 30
0.0
 40
0.605
  0
CIRCLE
  8
DAMAN
  6
HIDDEN
 10
0.0
 20
0.0
 30
0.0
 40
0.4125
  0
CIRCLE
  8
DAMAN
 10
0.0
 20
0.0
 30
0.0
 40
0.4175
  0
ENDBLK
  8
0
  0
BLOCK
  8
0
  2
M18T
 70
     0
 10
0.0
 20
0.0
 30
0.0
  3
M18T
  0
CIRCLE
  8
DAMAN
  6
HIDDEN
 10
0.0
 20
0.0
 30
0.0
 40
0.35433
  0
CIRCLE
  8
DAMAN
 10
0.0
 20
0.0
 30
0.0
 40
0.38976
  0
CIRCLE
  8
DAMAN
 10
0.0
 20
0.0
 30
0.0
 40
0.32555
  0
CIRCLE
  8
DAMAN
 10
0.0
 20
0.0
 30
0.0
 40
0.5911
  0
INSERT
  8
DAMAN
  2
100CROSS
 10
0.0
 20
0.0
 30
0.0
 41
0.88
 42
0.88
 43
0.0
  0
CIRCLE
  8
DAMAN
 10
0.0
 20
0.0
 30
0.0
 40
0.51181
  0
ENDBLK
  8
0
  0
BLOCK
  8
0
  2
075NPTFT
 70
     0
 10
0.0
 20
0.0
 30
0.0
  3
075NPTFT
  0
INSERT
  8
DAMAN
  2
750NPTFT
 10
-6.410893
 20
-4.555543
 30
0.0
  0
ENDBLK
  8
0
  0
BLOCK
  8
0
  2
750NPTFT
 70
    64
 10
0.0
 20
0.0
 30
0.0
  3
750NPTFT
  0
INSERT
  8
DAMAN
 62
     5
  2
100CROSS
 10
6.410893
 20
4.555543
 30
0.0
 41
0.98
 42
0.98
 43
0.0
  0
CIRCLE
  8
DAMAN
 62
     5
 10
6.410893
 20
4.555543
 30
0.0
 40
0.491067
  0
CIRCLE
  8
DAMAN
 62
     5
 10
6.410893
 20
4.555543
 30
0.0
 40
0.453
  0
CIRCLE
  8
DAMAN
 62
     5
 10
6.410893
 20
4.555543
 30
0.0
 40
0.53125
  0
ENDBLK
  8
0
  0
BLOCK
  8
0
  2
12SAET
 70
     0
 10
0.0
 20
0.0
 30
0.0
  3
12SAET
  0
CIRCLE
  8
DAMAN
 10
0.0
 20
0.0
 30
0.0
 40
0.53125
  0
INSERT
  8
DAMAN
  2
100CROSS
 10
0.0
 20
0.0
 30
0.0
 41
1.33
 42
1.33
 43
0.0
  0
CIRCLE
  8
DAMAN
 10
0.0
 20
0.0
 30
0.0
 40
0.8125
  0
CIRCLE
  8
DAMAN
 10
0.0
 20
0.0
 30
0.0
 40
0.453
  0
CIRCLE
  8
DAMAN
 10
0.0
 20
0.0
 30
0.0
 40
0.492
  0
ENDBLK
  8
0
  0
BLOCK
  8
0
  2
075BSPPT
 70
    64
 10
0.0
 20
0.0
 30
0.0
  3
075BSPPT
  0
CIRCLE
  8
DAMAN
 10
0.0
 20
0.0
 30
0.0
 40
0.453
  0
CIRCLE
  8
DAMAN
 10
0.0
 20
0.0
 30
0.0
 40
0.475
  0
CIRCLE
  8
DAMAN
 10
0.0
 20
0.0
 30
0.0
 40
0.72
  0
LINE
  8
DAMAN
  6
CENTER
 10
-0.8125
 20
0.0
 30
0.0
 11
0.8125
 21
0.0
 31
0.0
  0
CIRCLE
  8
DAMAN
  6
HIDDEN
 10
0.0
 20
0.0
 30
0.0
 40
0.52
  0
LINE
  8
DAMAN
  6
CENTER
 10
0.0
 20
0.8125
 30
0.0
 11
0.0
 21
-0.8125
 31
0.0
  0
ENDBLK
  8
0
  0
BLOCK
  8
0
  2
M27T
 70
    64
 10
0.0
 20
0.0
 30
0.0
  3
M27T
  0
CIRCLE
  8
DAMAN
 10
0.0
 20
0.0
 30
0.0
 40
0.5787
  0
CIRCLE
  8
DAMAN
  6
HIDDEN
 10
0.0
 20
0.0
 30
0.0
 40
0.53145
  0
CIRCLE
  8
DAMAN
 10
0.0
 20
0.0
 30
0.0
 40
0.7874
  0
INSERT
  8
DAMAN
  2
100CROSS
 10
0.0
 20
0.0
 30
0.0
 41
1.33
 42
1.33
 43
0.0
  0
CIRCLE
  8
DAMAN
 10
0.0
 20
0.0
 30
0.0
 40
0.66929
  0
CIRCLE
  8
DAMAN
 10
0.0
 20
0.0
 30
0.0
 40
0.4955
  0
ENDBLK
  8
0
  0
BLOCK
  8
0
  2
106SAET
 70
     0
 10
0.0
 20
0.0
 30
0.0
  3
106SAET
  0
CIRCLE
  8
CSOLID
 10
0.0
 20
0.0
 30
0.0
 40
0.492
  0
CIRCLE
  8
CSOLID
 10
0.0
 20
0.0
 30
0.0
 40
0.453
  0
CIRCLE
  8
CSOLID
 10
0.0
 20
0.0
 30
0.0
 40
0.8125
  0
INSERT
  8
CCENTER
  2
100CROSS
 10
0.0
 20
0.0
 30
0.0
 41
1.33
 42
1.33
 43
0.0
  0
CIRCLE
  8
CHIDDEN
 10
0.0
 20
0.0
 30
0.0
 40
0.53125
  0
CIRCLE
  8
PHANTOM
 10
0.0
 20
0.0
 30
0.0
 40
0.725
  0
ENDBLK
  8
0
  0
BLOCK
  8
0
  2
C102T
 70
    64
 10
0.0
 20
0.0
 30
0.0
  3
C102T
  0
CIRCLE
  8
DAMAN
 10
0.0
 20
0.0
 30
0.0
 40
0.406
  0
INSERT
  8
DAMAN
  2
100CROSS
 10
0.0
 20
0.0
 30
0.0
 41
1.2
 42
1.2
 43
0.0
  0
CIRCLE
  8
DAMAN
 10
0.0
 20
0.0
 30
0.0
 40
0.594
  0
CIRCLE
  8
DAMAN
  6
HIDDEN
 10
0.0
 20
0.0
 30
0.0
 40
0.4375
  0
CIRCLE
  8
DAMAN
 10
0.0
 20
0.0
 30
0.0
 40
0.4725
  0
CIRCLE
  8
DAMAN
 10
0.0
 20
0.0
 30
0.0
 40
0.3125
  0
ENDBLK
  8
0
  0
BLOCK
  8
0
  2
T10AT
 70
    64
 10
0.0
 20
0.0
 30
0.0
  3
T10AT
  0
CIRCLE
  8
DAMAN
 10
0.0
 20
0.0
 30
0.0
 40
0.365
  0
CIRCLE
  8
DAMAN
 10
0.0
 20
0.0
 30
0.0
 40
0.3435
  0
CIRCLE
  8
DAMAN
  6
HIDDEN
 10
0.0
 20
0.0
 30
0.0
 40
0.3937
  0
INSERT
  8
DAMAN
  2
100CROSS
 10
0.0
 20
0.0
 30
0.0
 41
0.88
 42
0.88
  0
CIRCLE
  8
DAMAN
 10
0.0
 20
0.0
 30
0.0
 40
0.406
  0
CIRCLE
  8
DAMAN
 10
0.0
 20
0.0
 30
0.0
 40
0.4295
  0
CIRCLE
  8
DAMAN
 10
0.0
 20
0.0
 30
0.0
 40
0.281
  0
ENDBLK
  8
0
  0
BLOCK
  8
0
  2
100NPTFT
 70
    64
 10
0.0
 20
0.0
 30
0.0
  3
100NPTFT
  0
CIRCLE
  8
DAMAN
 10
0.0
 20
0.0
 30
0.0
 40
0.5625
  0
CIRCLE
  8
DAMAN
 10
0.0
 20
0.0
 30
0.0
 40
0.672
  0
INSERT
  8
DAMAN
  2
100CROSS
 10
0.0
 20
0.0
 30
0.0
 41
1.2
 42
1.2
 43
0.0
  0
CIRCLE
  8
DAMAN
 10
0.0
 20
0.0
 30
0.0
 40
0.625
  0
ENDBLK
  8
0
  0
BLOCK
  8
0
  2
D05H
 70
    64
 10
0.0
 20
0.0
 30
0.0
  3
D05H
  0
INSERT
  8
DAMAN
  2
D05
 10
5.03125
 20
5.71875
 30
0.0
  0
CIRCLE
  8
DAMAN
 10
5.12525
 20
6.15675
 30
0.0
 40
0.094
  0
INSERT
  8
DAMAN
  2
100CROSS
 10
5.12525
 20
6.15675
 30
0.0
 41
0.25
 42
0.25
 43
0.0
  0
CIRCLE
  8
DAMAN
 10
6.75025
 20
3.15675
 30
0.0
 40
0.094
  0
INSERT
  8
DAMAN
  2
100CROSS
 10
6.75025
 20
3.15675
 30
0.0
 41
0.25
 42
0.25
 43
0.0
  0
ENDBLK
  8
0
  0
BLOCK
  8
0
  2
16SAET
 70
    64
 10
0.0
 20
0.0
 30
0.0
  3
16SAET
  0
CIRCLE
  8
DAMAN
 10
0.0
 20
0.0
 30
0.0
 40
0.6125
  0
CIRCLE
  8
DAMAN
 10
0.0
 20
0.0
 30
0.0
 40
0.562
  0
CIRCLE
  8
DAMAN
 10
0.0
 20
0.0
 30
0.0
 40
1.0
  0
INSERT
  8
DAMAN
  2
100CROSS
 10
0.0
 20
0.0
 30
0.0
 41
1.6
 42
1.6
 43
0.0
  0
CIRCLE
  8
DAMAN
 10
0.0
 20
0.0
 30
0.0
 40
0.65625
  0
ENDBLK
  8
0
  0
BLOCK
  8
0
  2
100BSPPT
 70
    64
 10
0.0
 20
0.0
 30
0.0
  3
100BSPPT
  0
CIRCLE
  8
DAMAN
  6
HIDDEN
 10
0.0
 20
0.0
 30
0.0
 40
0.6545
  0
CIRCLE
  8
DAMAN
 10
0.0
 20
0.0
 30
0.0
 40
0.6125
  0
CIRCLE
  8
DAMAN
 10
0.0
 20
0.0
 30
0.0
 40
0.915
  0
INSERT
  8
DAMAN
  2
100CROSS
 10
0.0
 20
0.0
 30
0.0
 41
1.33
 42
1.33
 43
0.0
  0
CIRCLE
  8
DAMAN
 10
0.0
 20
0.0
 30
0.0
 40
0.6575
  0
ENDBLK
  8
0
  0
BLOCK
  8
0
  2
M33T
 70
    64
 10
0.0
 20
0.0
 30
0.0
  3
M33T
  0
CIRCLE
  8
DAMAN
 10
0.0
 20
0.0
 30
0.0
 40
0.697
  0
CIRCLE
  8
DAMAN
  6
HIDDEN
 10
0.0
 20
0.0
 30
0.0
 40
0.649606
  0
CIRCLE
  8
DAMAN
 10
0.0
 20
0.0
 30
0.0
 40
0.9645
  0
INSERT
  8
DAMAN
  2
100CROSS
 10
0.0
 20
0.0
 30
0.0
 41
1.33
 42
1.33
 43
0.0
  0
CIRCLE
  8
DAMAN
 10
0.0
 20
0.0
 30
0.0
 40
0.8465
  0
CIRCLE
  8
DAMAN
 10
0.0
 20
0.0
 30
0.0
 40
0.614
  0
ENDBLK
  8
0
  0
ENDSEC
  0
SECTION
  2
ENTITIES
  0
TEXT
  8
DAMAN
 10
7.182266
 20
4.104903
 30
0.0
 40
0.2
  1
DAMAN ****
  0
TEXT
  8
DAMAN
 10
3.814249
 20
7.482686
 30
0.0
 40
0.2
  1
A
 50
270.0
  0
TEXT
  8
DAMAN
 10
7.669336
 20
3.489036
 30
0.0
 40
0.2
  1
B
  0
TEXT
  8
DAMAN
 10
11.922641
 20
8.706401
 30
0.0
 40
0.2
  1
P
 50
90.0
  0
TEXT
  8
DAMAN
 10
7.013249
 20
11.926694
 30
0.0
 40
0.2
  1
T
 50
180.0
  0
INSERT
  8
DAMAN
  2
100CROSS
 10
6.410472
 20
5.942213
 30
0.0
 41
0.4375
 42
0.4375
 43
0.0
  0
CIRCLE
  8
DAMAN
 10
6.410472
 20
5.942213
 30
0.0
 40
0.3125
  0
CIRCLE
  8
DAMAN
 10
6.410472
 20
5.942213
 30
0.0
 40
0.203
  0
LINE
  8
DAMAN
 10
6.035472
 20
5.567213
 30
0.0
 11
6.035472
 21
10.567213
 31
0.0
  0
LINE
  8
DAMAN
 10
6.035472
 20
10.567213
 30
0.0
 11
10.535472
 21
10.567213
 31
0.0
  0
LINE
  8
DAMAN
 10
10.535472
 20
5.567213
 30
0.0
 11
10.535472
 21
10.567213
 31
0.0
  0
LINE
  8
DAMAN
 10
6.035472
 20
5.567213
 30
0.0
 11
10.535472
 21
5.567213
 31
0.0
  0
LINE
  8
DAMAN
 10
5.035472
 20
5.567213
 30
0.0
 11
5.035472
 21
10.567213
 31
0.0
  0
LINE
  8
DAMAN
 10
6.035472
 20
11.567213
 30
0.0
 11
10.535472
 21
11.567213
 31
0.0
  0
LINE
  8
DAMAN
 10
11.535472
 20
5.567213
 30
0.0
 11
11.535472
 21
10.567213
 31
0.0
  0
LINE
  8
DAMAN
 10
6.035472
 20
4.567213
 30
0.0
 11
10.535472
 21
4.567213
 31
0.0
  0
LINE
  8
DAMAN
 10
2.035472
 20
5.567213
 30
0.0
 11
2.035472
 21
10.567213
 31
0.0
  0
LINE
  8
DAMAN
 10
6.035472
 20
14.567213
 30
0.0
 11
10.535472
 21
14.567213
 31
0.0
  0
LINE
  8
DAMAN
 10
14.535472
 20
5.567213
 30
0.0
 11
14.535472
 21
10.567213
 31
0.0
  0
LINE
  8
DAMAN
 10
6.035472
 20
1.567213
 30
0.0
 11
10.535472
 21
1.567213
 31
0.0
  0
LINE
  8
DAMAN
 10
10.535472
 20
1.567213
 30
0.0
 11
10.535472
 21
4.567213
 31
0.0
  0
LINE
  8
DAMAN
 10
6.035472
 20
4.567213
 30
0.0
 11
6.035472
 21
1.567213
 31
0.0
  0
LINE
  8
DAMAN
 10
5.035472
 20
5.567213
 30
0.0
 11
2.035472
 21
5.567213
 31
0.0
  0
LINE
  8
DAMAN
 10
2.035472
 20
10.567213
 30
0.0
 11
5.035472
 21
10.567213
 31
0.0
  0
LINE
  8
DAMAN
 10
6.035472
 20
11.567213
 30
0.0
 11
6.035472
 21
14.567213
 31
0.0
  0
LINE
  8
DAMAN
 10
10.535472
 20
14.567213
 30
0.0
 11
10.535472
 21
11.567213
 31
0.0
  0
LINE
  8
DAMAN
 10
11.535472
 20
10.567213
 30
0.0
 11
14.535472
 21
10.567213
 31
0.0
  0
LINE
  8
DAMAN
 10
11.535472
 20
5.567213
 30
0.0
 11
14.535472
 21
5.567213
 31
0.0
  0
INSERT
  8
DAMAN
  2
100CROSS
 10
10.160472
 20
10.192213
 30
0.0
 41
0.4375
 42
0.4375
 43
0.0
  0
CIRCLE
  8
DAMAN
 10
10.160472
 20
10.192213
 30
0.0
 40
0.3125
  0
CIRCLE
  8
DAMAN
 10
10.160472
 20
10.192213
 30
0.0
 40
0.203
  0
TEXT
  8
DAMAN
 10
12.18681
 20
9.869215
 30
0.0
 40
0.2
  1
Y
 50
90.0
  0
TEXT
  8
DAMAN
 10
12.038034
 20
5.84879
 30
0.0
 40
0.2
  1
X
 50
270.0
  0
INSERT
  8
METRIC
  2
M33T
 10
8.535472
 20
2.629713
 30
0.0
  0
INSERT
  8
METRIC
  2
M33T
 10
12.660472
 20
7.879713
 30
0.0
  0
INSERT
  8
METRIC
  2
M33T
 10
7.755472
 20
12.847213
 30
0.0
  0
INSERT
  8
METRIC
  2
M33T
 10
3.097972
 20
8.287213
 30
0.0
  0
INSERT
  8
METRIC
  2
M10T
 10
12.285472
 20
9.442213
 30
0.0
  0
INSERT
  8
METRIC
  2
M10T
 10
12.285472
 20
6.317213
 30
0.0
  0
INSERT
  8
DAMAN
  2
D05HE
 10
2.351722
 20
3.223213
 30
0.0
  0
INSERT
  8
PIPE
  2
025NPTFT
 10
12.285472
 20
9.442213
 30
0.0
  0
INSERT
  8
PIPE
  2
025NPTFT
 10
12.285472
 20
6.317213
 30
0.0
  0
INSERT
  8
PIPE
  2
100NPTFT
 10
12.660472
 20
7.879713
 30
0.0
  0
INSERT
  8
PIPE
  2
100NPTFT
 10
7.755472
 20
12.847213
 30
0.0
  0
INSERT
  8
PIPE
  2
100NPTFT
 10
3.097972
 20
8.287213
 30
0.0
  0
INSERT
  8
PIPE
  2
100NPTFT
 10
8.535472
 20
2.629713
 30
0.0
  0
INSERT
  8
SAE
  2
04SAET
 10
12.285472
 20
9.442213
 30
0.0
  0
INSERT
  8
SAE
  2
04SAET
 10
12.285472
 20
6.317213
 30
0.0
  0
INSERT
  8
SAE
  2
16SAET
 10
7.755472
 20
12.847213
 30
0.0
  0
INSERT
  8
SAE
  2
16SAET
 10
12.660472
 20
7.879713
 30
0.0
  0
INSERT
  8
SAE
  2
16SAET
 10
8.535472
 20
2.629713
 30
0.0
  0
INSERT
  8
SAE
  2
16SAET
 10
3.097972
 20
8.287213
 30
0.0
  0
INSERT
  8
BSPP
  2
025BSPPT
 10
12.285472
 20
9.442213
 30
0.0
  0
INSERT
  8
BSPP
  2
025BSPPT
 10
12.285472
 20
6.317213
 30
0.0
  0
INSERT
  8
BSPP
  2
100BSPPT
 10
12.660472
 20
7.879713
 30
0.0
  0
INSERT
  8
BSPP
  2
100BSPPT
 10
7.755472
 20
12.847213
 30
0.0
  0
INSERT
  8
BSPP
  2
100BSPPT
 10
3.097972
 20
8.287213
 30
0.0
  0
INSERT
  8
BSPP
  2
100BSPPT
 10
8.535472
 20
2.629713
 30
0.0
  0
ENDSEC
  0
EOF
