  0
SECTION
  2
HEADER
  9
$ACADVER
  1
AC1009
  9
$INSBASE
 10
0.0
 20
0.0
 30
0.0
  9
$EXTMIN
 10
4.981875
 20
3.127813
 30
0.0
  9
$EXTMAX
 10
21.268125
 20
15.705625
 30
0.0
  9
$LIMMIN
 10
0.0
 20
0.0
  9
$LIMMAX
 10
12.0
 20
9.0
  9
$ORTHOMODE
 70
     1
  9
$REGENMODE
 70
     1
  9
$FILLMODE
 70
     1
  9
$QTEXTMODE
 70
     0
  9
$MIRRTEXT
 70
     1
  9
$DRAGMODE
 70
     2
  9
$LTSCALE
 40
1.0
  9
$OSMODE
 70
     0
  9
$ATTMODE
 70
     1
  9
$TEXTSIZE
 40
0.125
  9
$TRACEWID
 40
0.05
  9
$TEXTSTYLE
  7
STANDARD
  9
$CLAYER
  8
DAMAN
  9
$CELTYPE
  6
BYLAYER
  9
$CECOLOR
 62
   256
  9
$DIMSCALE
 40
1.0
  9
$DIMASZ
 40
0.18
  9
$DIMEXO
 40
0.0625
  9
$DIMDLI
 40
0.38
  9
$DIMRND
 40
0.0
  9
$DIMDLE
 40
0.0
  9
$DIMEXE
 40
0.18
  9
$DIMTP
 40
0.0
  9
$DIMTM
 40
0.0
  9
$DIMTXT
 40
0.18
  9
$DIMCEN
 40
0.09
  9
$DIMTSZ
 40
0.0
  9
$DIMTOL
 70
     0
  9
$DIMLIM
 70
     0
  9
$DIMTIH
 70
     1
  9
$DIMTOH
 70
     1
  9
$DIMSE1
 70
     0
  9
$DIMSE2
 70
     0
  9
$DIMTAD
 70
     0
  9
$DIMZIN
 70
     0
  9
$DIMBLK
  1

  9
$DIMASO
 70
     1
  9
$DIMSHO
 70
     1
  9
$DIMPOST
  1

  9
$DIMAPOST
  1

  9
$DIMALT
 70
     0
  9
$DIMALTD
 70
     2
  9
$DIMALTF
 40
25.4
  9
$DIMLFAC
 40
1.0
  9
$DIMTOFL
 70
     0
  9
$DIMTVP
 40
0.0
  9
$DIMTIX
 70
     0
  9
$DIMSOXD
 70
     0
  9
$DIMSAH
 70
     0
  9
$DIMBLK1
  1

  9
$DIMBLK2
  1

  9
$DIMSTYLE
  2
*UNNAMED
  9
$DIMCLRD
 70
     0
  9
$DIMCLRE
 70
     0
  9
$DIMCLRT
 70
     0
  9
$DIMTFAC
 40
1.0
  9
$DIMGAP
 40
0.09
  9
$LUNITS
 70
     2
  9
$LUPREC
 70
     4
  9
$SKETCHINC
 40
0.1
  9
$FILLETRAD
 40
0.0
  9
$AUNITS
 70
     0
  9
$AUPREC
 70
     0
  9
$MENU
  1
tom
  9
$ELEVATION
 40
0.0
  9
$PELEVATION
 40
0.0
  9
$THICKNESS
 40
0.0
  9
$LIMCHECK
 70
     0
  9
$BLIPMODE
 70
     1
  9
$CHAMFERA
 40
0.0
  9
$CHAMFERB
 40
0.0
  9
$SKPOLY
 70
     0
  9
$TDCREATE
 40
2449741.334408611
  9
$TDUPDATE
 40
2449741.334408611
  9
$TDINDWG
 40
0.0000000000
  9
$TDUSRTIMER
 40
0.0000000000
  9
$USRTIMER
 70
     1
  9
$ANGBASE
 50
0.0
  9
$ANGDIR
 70
     0
  9
$PDMODE
 70
     0
  9
$PDSIZE
 40
0.0
  9
$PLINEWID
 40
0.0
  9
$COORDS
 70
     1
  9
$SPLFRAME
 70
     0
  9
$SPLINETYPE
 70
     6
  9
$SPLINESEGS
 70
     8
  9
$ATTDIA
 70
     0
  9
$ATTREQ
 70
     1
  9
$HANDLING
 70
     0
  9
$HANDSEED
  5
0
  9
$SURFTAB1
 70
     6
  9
$SURFTAB2
 70
     6
  9
$SURFTYPE
 70
     6
  9
$SURFU
 70
     6
  9
$SURFV
 70
     6
  9
$UCSNAME
  2

  9
$UCSORG
 10
0.0
 20
0.0
 30
0.0
  9
$UCSXDIR
 10
1.0
 20
0.0
 30
0.0
  9
$UCSYDIR
 10
0.0
 20
1.0
 30
0.0
  9
$PUCSNAME
  2

  9
$PUCSORG
 10
0.0
 20
0.0
 30
0.0
  9
$PUCSXDIR
 10
1.0
 20
0.0
 30
0.0
  9
$PUCSYDIR
 10
0.0
 20
1.0
 30
0.0
  9
$USERI1
 70
     0
  9
$USERI2
 70
     0
  9
$USERI3
 70
     0
  9
$USERI4
 70
     0
  9
$USERI5
 70
     0
  9
$USERR1
 40
0.0
  9
$USERR2
 40
0.0
  9
$USERR3
 40
0.0
  9
$USERR4
 40
0.0
  9
$USERR5
 40
0.0
  9
$WORLDVIEW
 70
     1
  9
$SHADEDGE
 70
     3
  9
$SHADEDIF
 70
    70
  9
$TILEMODE
 70
     1
  9
$MAXACTVP
 70
    16
  9
$PINSBASE
 10
0.0
 20
0.0
 30
0.0
  9
$PLIMCHECK
 70
     0
  9
$PEXTMIN
 10
1.000000E+20
 20
1.000000E+20
 30
1.000000E+20
  9
$PEXTMAX
 10
-1.000000E+20
 20
-1.000000E+20
 30
-1.000000E+20
  9
$PLIMMIN
 10
0.0
 20
0.0
  9
$PLIMMAX
 10
12.0
 20
9.0
  9
$UNITMODE
 70
     0
  9
$VISRETAIN
 70
     0
  9
$PLINEGEN
 70
     0
  9
$PSLTSCALE
 70
     1
  9
$TREEDEPTH
 70
  3020
  9
$DWGCODEPAGE
  3
ascii
  0
ENDSEC
  0
SECTION
  2
TABLES
  0
TABLE
  2
VPORT
 70
     2
  0
VPORT
  2
*ACTIVE
 70
     0
 10
0.0
 20
0.0
 11
1.0
 21
1.0
 12
13.3125
 22
9.46875
 13
0.0
 23
0.0
 14
0.03125
 24
0.03125
 15
0.0
 25
0.0
 16
0.0
 26
0.0
 36
1.0
 17
0.0
 27
0.0
 37
0.0
 40
16.36625
 41
1.365662
 42
50.0
 43
0.0
 44
0.0
 50
0.0
 51
0.0
 71
     0
 72
   100
 73
     1
 74
     1
 75
     1
 76
     0
 77
     0
 78
     0
  0
ENDTAB
  0
TABLE
  2
LTYPE
 70
     4
  0
LTYPE
  2
CONTINUOUS
 70
    64
  3
Solid line
 72
    65
 73
     0
 40
0.0
  0
LTYPE
  2
HIDDEN
 70
    64
  3
_ _ _ _ _ _ _ _ _ _ _ _ _ _ _ _ _ _ _ _ _ _ _
 72
    65
 73
     2
 40
0.375
 49
0.25
 49
-0.125
  0
LTYPE
  2
CENTER
 70
    64
  3
____ _ ____ _ ____ _ ____ _ ____ _ ____ _ ____
 72
    65
 73
     4
 40
2.0
 49
1.25
 49
-0.25
 49
0.25
 49
-0.25
  0
LTYPE
  2
PHANTOM
 70
    64
  3
_____ _ _ _____ _ _ _____ _ _ _____ _ _ ____
 72
    65
 73
     6
 40
2.5
 49
1.25
 49
-0.25
 49
0.25
 49
-0.25
 49
0.25
 49
-0.25
  0
ENDTAB
  0
TABLE
  2
LAYER
 70
     9
  0
LAYER
  2
0
 70
     0
 62
     7
  6
CONTINUOUS
  0
LAYER
  2
DAMAN
 70
     0
 62
     5
  6
CONTINUOUS
  0
LAYER
  2
BORDER
 70
    64
 62
     7
  6
CONTINUOUS
  0
LAYER
  2
CSOLID
 70
    64
 62
     3
  6
CONTINUOUS
  0
LAYER
  2
SOLID
 70
    64
 62
     4
  6
CONTINUOUS
  0
LAYER
  2
CHIDDEN
 70
    64
 62
     3
  6
HIDDEN
  0
LAYER
  2
CDIM
 70
    64
 62
     2
  6
CONTINUOUS
  0
LAYER
  2
CCENTER
 70
    64
 62
     4
  6
CENTER
  0
LAYER
  2
PHANTOM
 70
     0
 62
     1
  6
PHANTOM
  0
ENDTAB
  0
TABLE
  2
STYLE
 70
     2
  0
STYLE
  2
STANDARD
 70
    64
 40
0.0
 41
1.0
 50
0.0
 71
     0
 42
0.125
  3
txt
  4

  0
STYLE
  2
STR
 70
    64
 40
0.0
 41
1.0
 50
0.0
 71
     0
 42
0.25
  3
SIMPLEX
  4

  0
ENDTAB
  0
TABLE
  2
VIEW
 70
     0
  0
ENDTAB
  0
TABLE
  2
UCS
 70
     0
  0
ENDTAB
  0
TABLE
  2
APPID
 70
     1
  0
APPID
  2
ACAD
 70
    64
  0
ENDTAB
  0
TABLE
  2
DIMSTYLE
 70
     0
  0
ENDTAB
  0
ENDSEC
  0
SECTION
  2
BLOCKS
  0
BLOCK
  8
0
  2
D02HSPS
 70
    64
 10
0.0
 20
0.0
 30
0.0
  3
D02HSPS
  0
POLYLINE
  8
BORDER
 66
     1
 10
0.0
 20
0.0
 30
0.0
 70
     1
  0
VERTEX
  8
BORDER
 10
9.75
 20
14.25
 30
0.0
 50
270.0
  0
VERTEX
  8
BORDER
 10
13.5
 20
14.25
 30
0.0
 50
270.0
  0
VERTEX
  8
BORDER
 10
13.5
 20
12.5
 30
0.0
 50
270.0
  0
VERTEX
  8
BORDER
 10
9.75
 20
12.5
 30
0.0
 50
270.0
  0
SEQEND
  8
BORDER
  0
POLYLINE
  8
BORDER
 66
     1
 10
0.0
 20
0.0
 30
0.0
 70
     1
  0
VERTEX
  8
BORDER
 10
9.75
 20
3.875
 30
0.0
 50
270.0
  0
VERTEX
  8
BORDER
 10
13.5
 20
3.875
 30
0.0
 50
270.0
  0
VERTEX
  8
BORDER
 10
13.5
 20
2.125
 30
0.0
 50
270.0
  0
VERTEX
  8
BORDER
 10
9.75
 20
2.125
 30
0.0
 50
270.0
  0
SEQEND
  8
BORDER
  0
POLYLINE
  8
BORDER
 66
     1
 10
0.0
 20
0.0
 30
0.0
 70
     1
  0
VERTEX
  8
BORDER
 10
9.75
 20
10.5
 30
0.0
 50
270.0
  0
VERTEX
  8
BORDER
 10
13.5
 20
10.5
 30
0.0
 50
270.0
  0
VERTEX
  8
BORDER
 10
13.5
 20
5.75
 30
0.0
 50
270.0
  0
VERTEX
  8
BORDER
 10
9.75
 20
5.75
 30
0.0
 50
270.0
  0
SEQEND
  8
BORDER
  0
POLYLINE
  8
BORDER
 66
     1
 10
0.0
 20
0.0
 30
0.0
 70
     1
  0
VERTEX
  8
BORDER
 10
3.6875
 20
10.5
 30
0.0
 50
270.0
  0
VERTEX
  8
BORDER
 10
5.4375
 20
10.5
 30
0.0
 50
270.0
  0
VERTEX
  8
BORDER
 10
5.4375
 20
5.75
 30
0.0
 50
270.0
  0
VERTEX
  8
BORDER
 10
3.6875
 20
5.75
 30
0.0
 50
270.0
  0
SEQEND
  8
BORDER
  0
POLYLINE
  8
BORDER
 66
     1
 10
0.0
 20
0.0
 30
0.0
 70
     1
  0
VERTEX
  8
BORDER
 10
17.8125
 20
10.5
 30
0.0
 50
270.0
  0
VERTEX
  8
BORDER
 10
19.5625
 20
10.5
 30
0.0
 50
270.0
  0
VERTEX
  8
BORDER
 10
19.5625
 20
5.75
 30
0.0
 50
270.0
  0
VERTEX
  8
BORDER
 10
17.8125
 20
5.75
 30
0.0
 50
270.0
  0
SEQEND
  8
BORDER
  0
INSERT
  8
CCENTER
  2
100CROSS
 10
12.43775
 20
6.625
 30
0.0
 41
0.188
 42
0.188
 50
360.0
 43
0.0
  0
CIRCLE
  8
CSOLID
 10
12.43775
 20
6.625
 30
0.0
 40
0.09375
  0
CIRCLE
  8
CSOLID
 10
10.81275
 20
9.625
 30
0.0
 40
0.09375
  0
INSERT
  8
CCENTER
  2
100CROSS
 10
10.81275
 20
9.625
 30
0.0
 41
0.188
 42
0.188
 50
360.0
 43
0.0
  0
INSERT
  8
CCENTER
  2
100CROSS
 10
10.71875
 20
9.1875
 30
0.0
 41
0.25
 42
0.25
 50
360.0
 43
0.0
  0
CIRCLE
  8
CSOLID
 10
10.71875
 20
9.1875
 30
0.0
 40
0.1055
  0
CIRCLE
  8
CSOLID
 10
10.71875
 20
7.0625
 30
0.0
 40
0.1055
  0
INSERT
  8
CCENTER
  2
100CROSS
 10
10.71875
 20
7.0625
 30
0.0
 41
0.25
 42
0.25
 50
360.0
 43
0.0
  0
CIRCLE
  8
CSOLID
 10
12.53125
 20
9.1875
 30
0.0
 40
0.1055
  0
INSERT
  8
CCENTER
  2
100CROSS
 10
12.53125
 20
9.1875
 30
0.0
 41
0.25
 42
0.25
 50
360.0
 43
0.0
  0
CIRCLE
  8
CSOLID
 10
12.53125
 20
7.0625
 30
0.0
 40
0.1055
  0
INSERT
  8
CCENTER
  2
100CROSS
 10
12.53125
 20
7.0625
 30
0.0
 41
0.25
 42
0.25
 50
360.0
 43
0.0
  0
INSERT
  8
CCENTER
  2
100CROSS
 10
11.24975
 20
9.0625
 30
0.0
 41
0.438
 42
0.438
 50
360.0
 43
0.0
  0
CIRCLE
  8
CSOLID
 10
11.24975
 20
9.0625
 30
0.0
 40
0.21875
  0
CIRCLE
  8
CSOLID
 10
11.68725
 20
8.5315
 30
0.0
 40
0.21875
  0
INSERT
  8
CCENTER
  2
100CROSS
 10
11.68725
 20
8.5315
 30
0.0
 41
0.438
 42
0.438
 50
360.0
 43
0.0
  0
INSERT
  8
CCENTER
  2
100CROSS
 10
11.68725
 20
7.719
 30
0.0
 41
0.438
 42
0.438
 50
360.0
 43
0.0
  0
CIRCLE
  8
CSOLID
 10
11.68725
 20
7.719
 30
0.0
 40
0.21875
  0
CIRCLE
  8
CSOLID
 10
12.28125
 20
8.12525
 30
0.0
 40
0.21875
  0
INSERT
  8
CCENTER
  2
100CROSS
 10
12.28125
 20
8.12525
 30
0.0
 41
0.438
 42
0.438
 50
360.0
 43
0.0
  0
CIRCLE
  8
CHIDDEN
 10
10.71875
 20
7.0625
 30
0.0
 40
0.125
  0
CIRCLE
  8
CHIDDEN
 10
12.53125
 20
7.0625
 30
0.0
 40
0.125
  0
CIRCLE
  8
CHIDDEN
 10
12.53125
 20
9.1875
 30
0.0
 40
0.125
  0
CIRCLE
  8
CHIDDEN
 10
10.71875
 20
9.1875
 30
0.0
 40
0.125
  0
INSERT
  8
CCENTER
  2
100CROSS
 10
10.125
 20
6.125
 30
0.0
 41
0.625
 42
0.625
 50
270.0
 43
0.625
  0
INSERT
  8
CCENTER
  2
100CROSS
 10
13.125
 20
10.125
 30
0.0
 41
0.625
 42
0.625
 50
270.0
 43
0.625
  0
CIRCLE
  8
CSOLID
 10
13.125
 20
10.125
 30
0.0
 40
0.3125
  0
CIRCLE
  8
CSOLID
 10
13.125
 20
10.125
 30
0.0
 40
0.203125
  0
CIRCLE
  8
CSOLID
 10
10.125
 20
6.125
 30
0.0
 40
0.203125
  0
CIRCLE
  8
CSOLID
 10
10.125
 20
6.125
 30
0.0
 40
0.3125
  0
INSERT
  8
SOLID
  2
025NPTFT
 10
18.6875
 20
6.5625
 30
0.0
 50
270.0
  0
INSERT
  8
SOLID
  2
075NPTFT
 10
11.625
 20
3.0
 30
0.0
 50
270.0
  0
INSERT
  8
SOLID
  2
075NPTFT
 10
11.625
 20
13.375
 30
0.0
 50
270.0
  0
INSERT
  8
CDIM
  2
106SAET
 10
18.6875
 20
8.125
 30
0.0
  0
INSERT
  8
CDIM
  2
106SAET
 10
4.5625
 20
8.375
 30
0.0
  0
INSERT
  8
CDIM
  2
044SAET
 10
4.5625
 20
9.6875
 30
0.0
  0
TEXT
  8
CDIM
 10
5.0
 20
7.5
 30
0.0
 40
0.25
  1
A
 50
270.0
  7
STR
  0
TEXT
  8
CDIM
 10
5.0625
 20
9.4375
 30
0.0
 40
0.25
  1
Y
 50
270.0
  7
STR
  0
LINE
  8
CDIM
 10
3.6875
 20
10.651875
 30
0.0
 11
3.6875
 21
11.49125
 31
0.0
  0
LINE
  8
CDIM
 10
4.5625
 20
10.276875
 30
0.0
 11
4.5625
 21
11.49125
 31
0.0
  0
LINE
  8
CDIM
 10
4.86625
 20
11.1875
 30
0.0
 11
5.17
 21
11.1875
 31
0.0
  0
LINE
  8
CDIM
 10
3.38375
 20
11.1875
 30
0.0
 11
3.08
 21
11.1875
 31
0.0
  0
SOLID
  8
CDIM
 10
4.86625
 20
11.136875
 30
0.0
 11
4.86625
 21
11.238125
 31
0.0
 12
4.5625
 22
11.1875
 32
0.0
 13
4.5625
 23
11.1875
 33
0.0
  0
SOLID
  8
CDIM
 10
3.38375
 20
11.136875
 30
0.0
 11
3.38375
 21
11.238125
 31
0.0
 12
3.6875
 22
11.1875
 32
0.0
 13
3.6875
 23
11.1875
 33
0.0
  0
TEXT
  8
CDIM
 10
5.34875
 20
11.0174
 30
0.0
 40
0.3402
  1
0.88
  7
STR
  0
LINE
  8
CDIM
 10
3.6875
 20
10.651875
 30
0.0
 11
3.6875
 21
12.4025
 31
0.0
  0
LINE
  8
CDIM
 10
5.4375
 20
10.651875
 30
0.0
 11
5.4375
 21
10.90625
 31
0.0
  0
LINE
  8
CDIM
 10
5.74125
 20
12.09875
 30
0.0
 11
6.045
 21
12.09875
 31
0.0
  0
LINE
  8
CDIM
 10
3.38375
 20
12.09875
 30
0.0
 11
3.08
 21
12.09875
 31
0.0
  0
SOLID
  8
CDIM
 10
5.74125
 20
12.048125
 30
0.0
 11
5.74125
 21
12.149375
 31
0.0
 12
5.4375
 22
12.09875
 32
0.0
 13
5.4375
 23
12.09875
 33
0.0
  0
SOLID
  8
CDIM
 10
3.38375
 20
12.048125
 30
0.0
 11
3.38375
 21
12.149375
 31
0.0
 12
3.6875
 22
12.09875
 32
0.0
 13
3.6875
 23
12.09875
 33
0.0
  0
TEXT
  8
CDIM
 10
4.09875
 20
11.92865
 30
0.0
 40
0.3402
  1
1.75
  7
STR
  0
TEXT
  8
CDIM
 10
5.6265
 20
9.9099
 30
0.0
 40
0.3402
  1
0.81
  7
STR
  0
LINE
  8
CDIM
 10
9.598125
 20
10.5
 30
0.0
 11
8.75875
 21
10.5
 31
0.0
  0
LINE
  8
CDIM
 10
11.896687
 20
8.12525
 30
0.0
 11
8.8125
 21
8.12525
 31
0.0
  0
LINE
  8
CDIM
 10
9.0625
 20
10.19625
 30
0.0
 11
9.0625
 21
9.786475
 31
0.0
  0
LINE
  8
CDIM
 10
9.0625
 20
8.429
 30
0.0
 11
9.0625
 21
8.838775
 31
0.0
  0
SOLID
  8
CDIM
 10
9.113125
 20
10.19625
 30
0.0
 11
9.011875
 21
10.19625
 31
0.0
 12
9.0625
 22
10.5
 32
0.0
 13
9.0625
 23
10.5
 33
0.0
  0
SOLID
  8
CDIM
 10
9.113125
 20
8.429
 30
0.0
 11
9.011875
 21
8.429
 31
0.0
 12
9.0625
 22
8.12525
 32
0.0
 13
9.0625
 23
8.12525
 33
0.0
  0
TEXT
  8
CDIM
 10
8.5441
 20
9.142525
 30
0.0
 40
0.3402
  1
2.37
  7
STR
  0
LINE
  8
CDIM
 10
9.598125
 20
10.5
 30
0.0
 11
7.8475
 21
10.5
 31
0.0
  0
LINE
  8
CDIM
 10
9.598125
 20
5.75
 30
0.0
 11
7.8475
 21
5.75
 31
0.0
  0
LINE
  8
CDIM
 10
8.15125
 20
10.19625
 30
0.0
 11
8.15125
 21
8.59885
 31
0.0
  0
LINE
  8
CDIM
 10
8.15125
 20
6.05375
 30
0.0
 11
8.15125
 21
7.65115
 31
0.0
  0
SOLID
  8
CDIM
 10
8.201875
 20
10.19625
 30
0.0
 11
8.100625
 21
10.19625
 31
0.0
 12
8.15125
 22
10.5
 32
0.0
 13
8.15125
 23
10.5
 33
0.0
  0
SOLID
  8
CDIM
 10
8.201875
 20
6.05375
 30
0.0
 11
8.100625
 21
6.05375
 31
0.0
 12
8.15125
 22
5.75
 32
0.0
 13
8.15125
 23
5.75
 33
0.0
  0
TEXT
  8
CDIM
 10
7.63285
 20
7.9549
 30
0.0
 40
0.3402
  1
4.75
  7
STR
  0
LINE
  8
CDIM
 10
5.4375
 20
11.5
 30
0.0
 11
5.4375
 21
12.4025
 31
0.0
  0
LINE
  8
CDIM
 10
9.75
 20
5.629375
 30
0.0
 11
9.75
 21
4.88375
 31
0.0
  0
LINE
  8
CDIM
 10
10.125
 20
5.629375
 30
0.0
 11
10.125
 21
4.88375
 31
0.0
  0
LINE
  8
CDIM
 10
10.42875
 20
5.1875
 30
0.0
 11
10.7325
 21
5.1875
 31
0.0
  0
LINE
  8
CDIM
 10
9.44625
 20
5.1875
 30
0.0
 11
9.1425
 21
5.1875
 31
0.0
  0
SOLID
  8
CDIM
 10
10.42875
 20
5.136875
 30
0.0
 11
10.42875
 21
5.238125
 31
0.0
 12
10.125
 22
5.1875
 32
0.0
 13
10.125
 23
5.1875
 33
0.0
  0
SOLID
  8
CDIM
 10
9.44625
 20
5.136875
 30
0.0
 11
9.44625
 21
5.238125
 31
0.0
 12
9.75
 22
5.1875
 32
0.0
 13
9.75
 23
5.1875
 33
0.0
  0
TEXT
  8
CDIM
 10
11.03625
 20
5.0174
 30
0.0
 40
0.3402
  1
0.37
  7
STR
  0
LINE
  8
CDIM
 10
9.75
 20
5.629375
 30
0.0
 11
9.75
 21
4.0975
 31
0.0
  0
LINE
  8
CDIM
 10
13.125
 20
9.566875
 30
0.0
 11
13.125
 21
4.0975
 31
0.0
  0
LINE
  8
CDIM
 10
10.05375
 20
4.40125
 30
0.0
 11
10.61535
 21
4.40125
 31
0.0
  0
LINE
  8
CDIM
 10
12.82125
 20
4.40125
 30
0.0
 11
12.25965
 21
4.40125
 31
0.0
  0
SOLID
  8
CDIM
 10
10.05375
 20
4.350625
 30
0.0
 11
10.05375
 21
4.451875
 31
0.0
 12
9.75
 22
4.40125
 32
0.0
 13
9.75
 23
4.40125
 33
0.0
  0
SOLID
  8
CDIM
 10
12.82125
 20
4.350625
 30
0.0
 11
12.82125
 21
4.451875
 31
0.0
 12
13.125
 22
4.40125
 32
0.0
 13
13.125
 23
4.40125
 33
0.0
  0
TEXT
  8
CDIM
 10
10.9191
 20
4.23115
 30
0.0
 40
0.3402
  1
3.38
  7
STR
  0
LINE
  8
CDIM
 10
11.625
 20
2.223125
 30
0.0
 11
11.625
 21
1.2275
 31
0.0
  0
LINE
  8
CDIM
 10
11.92875
 20
1.53125
 30
0.0
 11
12.2325
 21
1.53125
 31
0.0
  0
LINE
  8
CDIM
 10
9.44625
 20
1.53125
 30
0.0
 11
9.1425
 21
1.53125
 31
0.0
  0
SOLID
  8
CDIM
 10
11.92875
 20
1.480625
 30
0.0
 11
11.92875
 21
1.581875
 31
0.0
 12
11.625
 22
1.53125
 32
0.0
 13
11.625
 23
1.53125
 33
0.0
  0
SOLID
  8
CDIM
 10
9.44625
 20
1.480625
 30
0.0
 11
9.44625
 21
1.581875
 31
0.0
 12
9.75
 22
1.53125
 32
0.0
 13
9.75
 23
1.53125
 33
0.0
  0
TEXT
  8
CDIM
 10
10.255
 20
1.36115
 30
0.0
 40
0.3402
  1
1.88
  7
STR
  0
LINE
  8
CDIM
 10
9.598125
 20
2.125
 30
0.0
 11
8.75875
 21
2.125
 31
0.0
  0
LINE
  8
CDIM
 10
10.566875
 20
3.0
 30
0.0
 11
8.75875
 21
3.0
 31
0.0
  0
LINE
  8
CDIM
 10
9.0625
 20
3.30375
 30
0.0
 11
9.0625
 21
3.6075
 31
0.0
  0
LINE
  8
CDIM
 10
9.0625
 20
1.82125
 30
0.0
 11
9.0625
 21
1.5175
 31
0.0
  0
SOLID
  8
CDIM
 10
9.113125
 20
3.30375
 30
0.0
 11
9.011875
 21
3.30375
 31
0.0
 12
9.0625
 22
3.0
 32
0.0
 13
9.0625
 23
3.0
 33
0.0
  0
SOLID
  8
CDIM
 10
9.113125
 20
1.82125
 30
0.0
 11
9.011875
 21
1.82125
 31
0.0
 12
9.0625
 22
2.125
 32
0.0
 13
9.0625
 23
2.125
 33
0.0
  0
TEXT
  8
CDIM
 10
8.6075
 20
2.3124
 30
0.0
 40
0.3402
  1
0.88
  7
STR
  0
LINE
  8
CDIM
 10
11.625
 20
14.308125
 30
0.0
 11
11.625
 21
15.11625
 31
0.0
  0
LINE
  8
CDIM
 10
11.92875
 20
14.8125
 30
0.0
 11
12.2325
 21
14.8125
 31
0.0
  0
LINE
  8
CDIM
 10
9.44625
 20
14.8125
 30
0.0
 11
9.1425
 21
14.8125
 31
0.0
  0
SOLID
  8
CDIM
 10
11.92875
 20
14.761875
 30
0.0
 11
11.92875
 21
14.863125
 31
0.0
 12
11.625
 22
14.8125
 32
0.0
 13
11.625
 23
14.8125
 33
0.0
  0
SOLID
  8
CDIM
 10
9.44625
 20
14.761875
 30
0.0
 11
9.44625
 21
14.863125
 31
0.0
 12
9.75
 22
14.8125
 32
0.0
 13
9.75
 23
14.8125
 33
0.0
  0
TEXT
  8
CDIM
 10
10.22375
 20
14.6424
 30
0.0
 40
0.3402
  1
1.88
  7
STR
  0
LINE
  8
CDIM
 10
9.598125
 20
14.25
 30
0.0
 11
8.75875
 21
14.25
 31
0.0
  0
LINE
  8
CDIM
 10
10.566875
 20
13.375
 30
0.0
 11
8.75875
 21
13.375
 31
0.0
  0
LINE
  8
CDIM
 10
9.0625
 20
13.07125
 30
0.0
 11
9.0625
 21
12.7675
 31
0.0
  0
LINE
  8
CDIM
 10
9.0625
 20
14.55375
 30
0.0
 11
9.0625
 21
14.8575
 31
0.0
  0
SOLID
  8
CDIM
 10
9.113125
 20
13.07125
 30
0.0
 11
9.011875
 21
13.07125
 31
0.0
 12
9.0625
 22
13.375
 32
0.0
 13
9.0625
 23
13.375
 33
0.0
  0
SOLID
  8
CDIM
 10
9.113125
 20
14.55375
 30
0.0
 11
9.011875
 21
14.55375
 31
0.0
 12
9.0625
 22
14.25
 32
0.0
 13
9.0625
 23
14.25
 33
0.0
  0
TEXT
  8
CDIM
 10
8.57445
 20
13.62865
 30
0.0
 40
0.3402
  1
0.88
  7
STR
  0
LINE
  8
CDIM
 10
9.75
 20
10.651875
 30
0.0
 11
9.75
 21
11.49125
 31
0.0
  0
LINE
  8
CDIM
 10
12.28125
 20
8.495625
 30
0.0
 11
12.28125
 21
11.49125
 31
0.0
  0
LINE
  8
CDIM
 10
10.05375
 20
11.1875
 30
0.0
 11
10.193475
 21
11.1875
 31
0.0
  0
LINE
  8
CDIM
 10
11.9775
 20
11.1875
 30
0.0
 11
11.837775
 21
11.1875
 31
0.0
  0
SOLID
  8
CDIM
 10
10.05375
 20
11.136875
 30
0.0
 11
10.05375
 21
11.238125
 31
0.0
 12
9.75
 22
11.1875
 32
0.0
 13
9.75
 23
11.1875
 33
0.0
  0
SOLID
  8
CDIM
 10
11.9775
 20
11.136875
 30
0.0
 11
11.9775
 21
11.238125
 31
0.0
 12
12.28125
 22
11.1875
 32
0.0
 13
12.28125
 23
11.1875
 33
0.0
  0
TEXT
  8
CDIM
 10
10.497225
 20
11.0174
 30
0.0
 40
0.3402
  1
2.53
  7
STR
  0
LINE
  8
CDIM
 10
9.75
 20
10.651875
 30
0.0
 11
9.75
 21
12.2775
 31
0.0
  0
LINE
  8
CDIM
 10
13.5
 20
10.651875
 30
0.0
 11
13.5
 21
12.2775
 31
0.0
  0
LINE
  8
CDIM
 10
10.05375
 20
11.97375
 30
0.0
 11
10.80285
 21
11.97375
 31
0.0
  0
LINE
  8
CDIM
 10
13.19625
 20
11.97375
 30
0.0
 11
12.44715
 21
11.97375
 31
0.0
  0
SOLID
  8
CDIM
 10
10.05375
 20
11.923125
 30
0.0
 11
10.05375
 21
12.024375
 31
0.0
 12
9.75
 22
11.97375
 32
0.0
 13
9.75
 23
11.97375
 33
0.0
  0
SOLID
  8
CDIM
 10
13.19625
 20
11.923125
 30
0.0
 11
13.19625
 21
12.024375
 31
0.0
 12
13.5
 22
11.97375
 32
0.0
 13
13.5
 23
11.97375
 33
0.0
  0
TEXT
  8
CDIM
 10
11.1066
 20
11.80365
 30
0.0
 40
0.3402
  1
3.75
  7
STR
  0
LINE
  8
CDIM
 10
13.651875
 20
10.5
 30
0.0
 11
14.49125
 21
10.5
 31
0.0
  0
LINE
  8
CDIM
 10
13.620625
 20
10.125
 30
0.0
 11
14.49125
 21
10.125
 31
0.0
  0
LINE
  8
CDIM
 10
14.1875
 20
9.82125
 30
0.0
 11
14.1875
 21
9.5175
 31
0.0
  0
LINE
  8
CDIM
 10
14.1875
 20
10.80375
 30
0.0
 11
14.1875
 21
11.1075
 31
0.0
  0
SOLID
  8
CDIM
 10
14.238125
 20
9.82125
 30
0.0
 11
14.136875
 21
9.82125
 31
0.0
 12
14.1875
 22
10.125
 32
0.0
 13
14.1875
 23
10.125
 33
0.0
  0
SOLID
  8
CDIM
 10
14.238125
 20
10.80375
 30
0.0
 11
14.136875
 21
10.80375
 31
0.0
 12
14.1875
 22
10.5
 32
0.0
 13
14.1875
 23
10.5
 33
0.0
  0
TEXT
  8
CDIM
 10
13.69945
 20
9.00365
 30
0.0
 40
0.3402
  1
0.37
  7
STR
  0
LINE
  8
CDIM
 10
13.651875
 20
10.5
 30
0.0
 11
15.4025
 21
10.5
 31
0.0
  0
LINE
  8
CDIM
 10
10.558125
 20
6.125
 30
0.0
 11
15.4025
 21
6.125
 31
0.0
  0
LINE
  8
CDIM
 10
15.09875
 20
10.19625
 30
0.0
 11
15.09875
 21
8.22385
 31
0.0
  0
LINE
  8
CDIM
 10
15.09875
 20
6.42875
 30
0.0
 11
15.09875
 21
7.27615
 31
0.0
  0
SOLID
  8
CDIM
 10
15.149375
 20
10.19625
 30
0.0
 11
15.048125
 21
10.19625
 31
0.0
 12
15.09875
 22
10.5
 32
0.0
 13
15.09875
 23
10.5
 33
0.0
  0
SOLID
  8
CDIM
 10
15.149375
 20
6.42875
 30
0.0
 11
15.048125
 21
6.42875
 31
0.0
 12
15.09875
 22
6.125
 32
0.0
 13
15.09875
 23
6.125
 33
0.0
  0
TEXT
  8
CDIM
 10
14.58035
 20
7.5799
 30
0.0
 40
0.3402
  1
4.37
  7
STR
  0
LINE
  8
CDIM
 10
17.660625
 20
10.5
 30
0.0
 11
16.82125
 21
10.5
 31
0.0
  0
LINE
  8
CDIM
 10
17.660625
 20
8.125
 30
0.0
 11
16.82125
 21
8.125
 31
0.0
  0
LINE
  8
CDIM
 10
17.125
 20
10.19625
 30
0.0
 11
17.125
 21
9.78635
 31
0.0
  0
LINE
  8
CDIM
 10
17.125
 20
8.42875
 30
0.0
 11
17.125
 21
8.83865
 31
0.0
  0
SOLID
  8
CDIM
 10
17.175625
 20
10.19625
 30
0.0
 11
17.074375
 21
10.19625
 31
0.0
 12
17.125
 22
10.5
 32
0.0
 13
17.125
 23
10.5
 33
0.0
  0
SOLID
  8
CDIM
 10
17.175625
 20
8.42875
 30
0.0
 11
17.074375
 21
8.42875
 31
0.0
 12
17.125
 22
8.125
 32
0.0
 13
17.125
 23
8.125
 33
0.0
  0
TEXT
  8
CDIM
 10
16.6066
 20
9.1424
 30
0.0
 40
0.3402
  1
2.38
  7
STR
  0
LINE
  8
CDIM
 10
17.660625
 20
10.5
 30
0.0
 11
15.91
 21
10.5
 31
0.0
  0
LINE
  8
CDIM
 10
17.973125
 20
6.5625
 30
0.0
 11
15.91
 21
6.5625
 31
0.0
  0
LINE
  8
CDIM
 10
16.21375
 20
10.19625
 30
0.0
 11
16.21375
 21
9.0051
 31
0.0
  0
LINE
  8
CDIM
 10
16.21375
 20
6.86625
 30
0.0
 11
16.21375
 21
8.0574
 31
0.0
  0
SOLID
  8
CDIM
 10
16.264375
 20
10.19625
 30
0.0
 11
16.163125
 21
10.19625
 31
0.0
 12
16.21375
 22
10.5
 32
0.0
 13
16.21375
 23
10.5
 33
0.0
  0
SOLID
  8
CDIM
 10
16.264375
 20
6.86625
 30
0.0
 11
16.163125
 21
6.86625
 31
0.0
 12
16.21375
 22
6.5625
 32
0.0
 13
16.21375
 23
6.5625
 33
0.0
  0
TEXT
  8
CDIM
 10
15.68725
 20
8.3299
 30
0.0
 40
0.3402
  1
3.94
  7
STR
  0
LINE
  8
CDIM
 10
19.5625
 20
10.651875
 30
0.0
 11
19.5625
 21
11.49125
 31
0.0
  0
LINE
  8
CDIM
 10
18.6875
 20
9.151875
 30
0.0
 11
18.6875
 21
11.49125
 31
0.0
  0
LINE
  8
CDIM
 10
18.38375
 20
11.1875
 30
0.0
 11
18.08
 21
11.1875
 31
0.0
  0
LINE
  8
CDIM
 10
19.86625
 20
11.1875
 30
0.0
 11
20.17
 21
11.1875
 31
0.0
  0
SOLID
  8
CDIM
 10
18.38375
 20
11.136875
 30
0.0
 11
18.38375
 21
11.238125
 31
0.0
 12
18.6875
 22
11.1875
 32
0.0
 13
18.6875
 23
11.1875
 33
0.0
  0
SOLID
  8
CDIM
 10
19.86625
 20
11.136875
 30
0.0
 11
19.86625
 21
11.238125
 31
0.0
 12
19.5625
 22
11.1875
 32
0.0
 13
19.5625
 23
11.1875
 33
0.0
  0
TEXT
  8
CDIM
 10
16.73945
 20
11.0174
 30
0.0
 40
0.3402
  1
0.88
  7
STR
  0
TEXT
  8
CDIM
 10
18.125
 20
8.9375
 30
0.0
 40
0.25
  1
P
 50
90.0
  7
STR
  0
TEXT
  8
CDIM
 10
18.1875
 20
6.875
 30
0.0
 40
0.25
  1
X
 50
90.0
  7
STR
  0
TEXT
  8
CDIM
 10
10.75
 20
12.90625
 30
0.0
 40
0.25
  1
T
 50
180.0
  7
STR
  0
TEXT
  8
CDIM
 10
12.40625
 20
3.5
 30
0.0
 40
0.25
  1
B
  7
STR
  0
LINE
  8
CDIM
 10
5.589375
 20
10.5
 30
0.0
 11
6.42875
 21
10.5
 31
0.0
  0
LINE
  8
CDIM
 10
5.276875
 20
9.6875
 30
0.0
 11
6.42875
 21
9.6875
 31
0.0
  0
LINE
  8
CDIM
 10
6.125
 20
9.38375
 30
0.0
 11
6.125
 21
9.08
 31
0.0
  0
LINE
  8
CDIM
 10
6.125
 20
10.80375
 30
0.0
 11
6.125
 21
10.96875
 31
0.0
  0
SOLID
  8
CDIM
 10
6.175625
 20
9.38375
 30
0.0
 11
6.074375
 21
9.38375
 31
0.0
 12
6.125
 22
9.6875
 32
0.0
 13
6.125
 23
9.6875
 33
0.0
  0
SOLID
  8
CDIM
 10
6.175625
 20
10.80375
 30
0.0
 11
6.074375
 21
10.80375
 31
0.0
 12
6.125
 22
10.5
 32
0.0
 13
6.125
 23
10.5
 33
0.0
  0
LINE
  8
CDIM
 10
5.589375
 20
10.5
 30
0.0
 11
7.34
 21
10.5
 31
0.0
  0
LINE
  8
CDIM
 10
5.620625
 20
8.375
 30
0.0
 11
7.34
 21
8.375
 31
0.0
  0
LINE
  8
CDIM
 10
7.03625
 20
10.19625
 30
0.0
 11
7.03625
 21
9.91135
 31
0.0
  0
LINE
  8
CDIM
 10
7.03625
 20
8.67875
 30
0.0
 11
7.03625
 21
8.96365
 31
0.0
  0
SOLID
  8
CDIM
 10
7.086875
 20
10.19625
 30
0.0
 11
6.985625
 21
10.19625
 31
0.0
 12
7.03625
 22
10.5
 32
0.0
 13
7.03625
 23
10.5
 33
0.0
  0
SOLID
  8
CDIM
 10
7.086875
 20
8.67875
 30
0.0
 11
6.985625
 21
8.67875
 31
0.0
 12
7.03625
 22
8.375
 32
0.0
 13
7.03625
 23
8.375
 33
0.0
  0
TEXT
  8
CDIM
 10
6.55025
 20
9.2674
 30
0.0
 40
0.3402
  1
2.13
  7
STR
  0
LINE
  8
CDIM
 10
9.75
 20
14.46875
 30
0.0
 11
9.75
 21
15.11625
 31
0.0
  0
LINE
  8
CDIM
 10
9.75
 20
1.96875
 30
0.0
 11
9.75
 21
1.2275
 31
0.0
  0
ENDBLK
  8
0
  0
BLOCK
  8
CSOLID
  2
100CROSS
 70
    64
 10
5.625
 20
4.59375
 30
0.0
  0
INSERT
  8
0
  2
050CROSS
 10
5.625
 20
4.59375
 30
0.0
 43
0.0
  0
ENDBLK
  8
0
  0
BLOCK
  8
0
  2
050CROSS
 70
    64
 10
5.0
 20
5.0
 30
0.0
  0
LINE
  8
0
 10
5.0
 20
5.28125
 30
0.0
 11
5.0
 21
5.78125
 31
0.0
  0
LINE
  8
0
 10
5.0
 20
4.875
 30
0.0
 11
5.0
 21
5.125
 31
0.0
  0
LINE
  8
0
 10
5.0
 20
4.15625
 30
0.0
 11
5.0
 21
4.71875
 31
0.0
  0
LINE
  8
0
 10
5.25
 20
5.0
 30
0.0
 11
5.8125
 21
5.0
 31
0.0
  0
LINE
  8
0
 10
4.90625
 20
5.0
 30
0.0
 11
5.09375
 21
5.0
 31
0.0
  0
LINE
  8
0
 10
4.1875
 20
5.0
 30
0.0
 11
4.75
 21
5.0
 31
0.0
  0
ENDBLK
  8
0
  0
BLOCK
  8
0
  2
075NPTFT
 70
    64
 10
0.0
 20
0.0
 30
0.0
  3
075NPTFT
  0
INSERT
  8
DAMAN
  2
750NPTFT
 10
-6.410893
 20
-4.555543
 30
0.0
  0
ENDBLK
  8
0
  0
BLOCK
  8
0
  2
025NPTFT
 70
    64
 10
0.0
 20
0.0
 30
0.0
  3
025NPTFT
  0
INSERT
  8
DAMAN
  2
250NPTFT
 10
0.0
 20
0.0
 30
0.0
  0
ENDBLK
  8
0
  0
BLOCK
  8
CDIM
  2
106SAET
 70
    64
 10
6.625
 20
14.28125
 30
0.0
  0
CIRCLE
  8
CSOLID
 10
6.625
 20
14.28125
 30
0.0
 40
0.492
  0
CIRCLE
  8
CSOLID
 10
6.625
 20
14.28125
 30
0.0
 40
0.453
  0
CIRCLE
  8
CSOLID
 10
6.625
 20
14.28125
 30
0.0
 40
0.8125
  0
INSERT
  8
CCENTER
  2
100CROSS
 10
6.625
 20
14.28125
 30
0.0
 41
1.33
 42
1.33
 43
0.0
  0
CIRCLE
  8
CHIDDEN
 10
6.625
 20
14.28125
 30
0.0
 40
0.53125
  0
ENDBLK
  8
CDIM
  0
BLOCK
  8
CDIM
  2
044SAET
 70
    64
 10
6.375
 20
2.1875
 30
0.0
  0
CIRCLE
  8
CHIDDEN
 10
6.375
 20
2.1875
 30
0.0
 40
0.21875
  0
INSERT
  8
CCENTER
  2
100CROSS
 10
6.375
 20
2.1875
 30
0.0
 41
0.8
 42
0.8
 43
0.0
  0
CIRCLE
  8
CSOLID
 10
6.375
 20
2.1875
 30
0.0
 40
0.1875
  0
CIRCLE
  8
CSOLID
 10
6.375
 20
2.1875
 30
0.0
 40
0.4375
  0
ENDBLK
  8
CDIM
  0
BLOCK
  8
0
  2
750NPTFT
 70
    64
 10
0.0
 20
0.0
 30
0.0
  3
750NPTFT
  0
INSERT
  8
DAMAN
 62
     5
  2
100CROSS
 10
6.410893
 20
4.555543
 30
0.0
 41
0.98
 42
0.98
 43
0.0
  0
CIRCLE
  8
DAMAN
 62
     5
 10
6.410893
 20
4.555543
 30
0.0
 40
0.491067
  0
CIRCLE
  8
DAMAN
 62
     5
 10
6.410893
 20
4.555543
 30
0.0
 40
0.453
  0
CIRCLE
  8
DAMAN
 62
     5
 10
6.410893
 20
4.555543
 30
0.0
 40
0.53125
  0
ENDBLK
  8
0
  0
BLOCK
  8
0
  2
250NPTFT
 70
    64
 10
0.0
 20
0.0
 30
0.0
  3
250NPTFT
  0
CIRCLE
  8
DAMAN
 10
0.0
 20
0.0
 30
0.0
 40
0.273
  0
CIRCLE
  8
DAMAN
 10
0.0
 20
0.0
 30
0.0
 40
0.211
  0
INSERT
  8
DAMAN
  2
100CROSS
 10
0.0
 20
0.0
 30
0.0
 41
0.422
 42
0.422
 43
0.0
  0
CIRCLE
  8
DAMAN
 10
0.0
 20
0.0
 30
0.0
 40
0.242251
  0
POINT
  8
CHIDDEN
 10
-0.087928
 20
0.191806
 30
0.0
  0
POINT
  8
CHIDDEN
 10
-0.137717
 20
-0.15986
 30
0.0
  0
POINT
  8
CHIDDEN
 10
0.202707
 20
-0.058572
 30
0.0
  0
ENDBLK
  8
0
  0
BLOCK
  8
0
  2
12SAET
 70
    64
 10
0.0
 20
0.0
 30
0.0
  3
12SAET
  0
CIRCLE
  8
DAMAN
 10
0.0
 20
0.0
 30
0.0
 40
0.492
  0
CIRCLE
  8
DAMAN
 10
0.0
 20
0.0
 30
0.0
 40
0.453
  0
CIRCLE
  8
DAMAN
 10
0.0
 20
0.0
 30
0.0
 40
0.8125
  0
INSERT
  8
DAMAN
  2
100CROSS
 10
0.0
 20
0.0
 30
0.0
 41
1.33
 42
1.33
 43
0.0
  0
CIRCLE
  8
DAMAN
 10
0.0
 20
0.0
 30
0.0
 40
0.53125
  0
ENDBLK
  8
0
  0
BLOCK
  8
0
  2
04SAET
 70
    64
 10
0.0
 20
0.0
 30
0.0
  3
04SAET
  0
CIRCLE
  8
DAMAN
 10
0.0
 20
0.0
 30
0.0
 40
0.4375
  0
INSERT
  8
DAMAN
  2
100CROSS
 10
0.0
 20
0.0
 30
0.0
 41
0.8
 42
0.8
 43
0.0
  0
CIRCLE
  8
DAMAN
  6
HIDDEN
 10
0.0
 20
0.0
 30
0.0
 40
0.21875
  0
CIRCLE
  8
DAMAN
 10
0.0
 20
0.0
 30
0.0
 40
0.1875
  0
CIRCLE
  8
DAMAN
 10
0.0
 20
0.0
 30
0.0
 40
0.2435
  0
ENDBLK
  8
0
  0
ENDSEC
  0
SECTION
  2
ENTITIES
  0
POLYLINE
  8
DAMAN
 66
     1
 10
0.0
 20
0.0
 30
0.0
 70
     1
  0
VERTEX
  8
DAMAN
 10
11.25
 20
15.5
 30
0.0
 50
270.0
  0
VERTEX
  8
DAMAN
 10
15.0
 20
15.5
 30
0.0
 50
270.0
  0
VERTEX
  8
DAMAN
 10
15.0
 20
13.75
 30
0.0
 50
270.0
  0
VERTEX
  8
DAMAN
 10
11.25
 20
13.75
 30
0.0
 50
270.0
  0
SEQEND
  8
DAMAN
  0
POLYLINE
  8
DAMAN
 66
     1
 10
0.0
 20
0.0
 30
0.0
 70
     1
  0
VERTEX
  8
DAMAN
 10
11.25
 20
5.125
 30
0.0
 50
270.0
  0
VERTEX
  8
DAMAN
 10
15.0
 20
5.125
 30
0.0
 50
270.0
  0
VERTEX
  8
DAMAN
 10
15.0
 20
3.375
 30
0.0
 50
270.0
  0
VERTEX
  8
DAMAN
 10
11.25
 20
3.375
 30
0.0
 50
270.0
  0
SEQEND
  8
DAMAN
  0
POLYLINE
  8
DAMAN
 66
     1
 10
0.0
 20
0.0
 30
0.0
 70
     1
  0
VERTEX
  8
DAMAN
 10
11.25
 20
11.75
 30
0.0
 50
270.0
  0
VERTEX
  8
DAMAN
 10
15.0
 20
11.75
 30
0.0
 50
270.0
  0
VERTEX
  8
DAMAN
 10
15.0
 20
7.0
 30
0.0
 50
270.0
  0
VERTEX
  8
DAMAN
 10
11.25
 20
7.0
 30
0.0
 50
270.0
  0
SEQEND
  8
DAMAN
  0
POLYLINE
  8
DAMAN
 66
     1
 10
0.0
 20
0.0
 30
0.0
 70
     1
  0
VERTEX
  8
DAMAN
 10
5.1875
 20
11.75
 30
0.0
 50
270.0
  0
VERTEX
  8
DAMAN
 10
6.9375
 20
11.75
 30
0.0
 50
270.0
  0
VERTEX
  8
DAMAN
 10
6.9375
 20
7.0
 30
0.0
 50
270.0
  0
VERTEX
  8
DAMAN
 10
5.1875
 20
7.0
 30
0.0
 50
270.0
  0
SEQEND
  8
DAMAN
  0
POLYLINE
  8
DAMAN
 66
     1
 10
0.0
 20
0.0
 30
0.0
 70
     1
  0
VERTEX
  8
DAMAN
 10
19.3125
 20
11.75
 30
0.0
 50
270.0
  0
VERTEX
  8
DAMAN
 10
21.0625
 20
11.75
 30
0.0
 50
270.0
  0
VERTEX
  8
DAMAN
 10
21.0625
 20
7.0
 30
0.0
 50
270.0
  0
VERTEX
  8
DAMAN
 10
19.3125
 20
7.0
 30
0.0
 50
270.0
  0
SEQEND
  8
DAMAN
  0
INSERT
  8
DAMAN
  2
100CROSS
 10
13.93775
 20
7.875
 30
0.0
 41
0.188
 42
0.188
 43
0.0
  0
CIRCLE
  8
DAMAN
 10
13.93775
 20
7.875
 30
0.0
 40
0.09375
  0
CIRCLE
  8
DAMAN
 10
12.31275
 20
10.875
 30
0.0
 40
0.09375
  0
INSERT
  8
DAMAN
  2
100CROSS
 10
12.31275
 20
10.875
 30
0.0
 41
0.188
 42
0.188
 43
0.0
  0
INSERT
  8
DAMAN
  2
100CROSS
 10
12.21875
 20
10.4375
 30
0.0
 41
0.25
 42
0.25
 43
0.0
  0
CIRCLE
  8
DAMAN
 10
12.21875
 20
10.4375
 30
0.0
 40
0.1055
  0
CIRCLE
  8
DAMAN
 10
12.21875
 20
8.3125
 30
0.0
 40
0.1055
  0
INSERT
  8
DAMAN
  2
100CROSS
 10
12.21875
 20
8.3125
 30
0.0
 41
0.25
 42
0.25
 43
0.0
  0
CIRCLE
  8
DAMAN
 10
14.03125
 20
10.4375
 30
0.0
 40
0.1055
  0
INSERT
  8
DAMAN
  2
100CROSS
 10
14.03125
 20
10.4375
 30
0.0
 41
0.25
 42
0.25
 43
0.0
  0
CIRCLE
  8
DAMAN
 10
14.03125
 20
8.3125
 30
0.0
 40
0.1055
  0
INSERT
  8
DAMAN
  2
100CROSS
 10
14.03125
 20
8.3125
 30
0.0
 41
0.25
 42
0.25
 43
0.0
  0
INSERT
  8
DAMAN
  2
100CROSS
 10
12.74975
 20
10.3125
 30
0.0
 41
0.438
 42
0.438
 43
0.0
  0
CIRCLE
  8
DAMAN
 10
12.74975
 20
10.3125
 30
0.0
 40
0.21875
  0
CIRCLE
  8
DAMAN
 10
13.18725
 20
9.7815
 30
0.0
 40
0.21875
  0
INSERT
  8
DAMAN
  2
100CROSS
 10
13.18725
 20
9.7815
 30
0.0
 41
0.438
 42
0.438
 43
0.0
  0
INSERT
  8
DAMAN
  2
100CROSS
 10
13.18725
 20
8.969
 30
0.0
 41
0.438
 42
0.438
 43
0.0
  0
CIRCLE
  8
DAMAN
 10
13.18725
 20
8.969
 30
0.0
 40
0.21875
  0
CIRCLE
  8
DAMAN
 10
13.78125
 20
9.37525
 30
0.0
 40
0.21875
  0
INSERT
  8
DAMAN
  2
100CROSS
 10
13.78125
 20
9.37525
 30
0.0
 41
0.438
 42
0.438
 43
0.0
  0
CIRCLE
  8
DAMAN
 10
12.21875
 20
8.3125
 30
0.0
 40
0.125
  0
CIRCLE
  8
DAMAN
 10
14.03125
 20
8.3125
 30
0.0
 40
0.125
  0
CIRCLE
  8
DAMAN
 10
14.03125
 20
10.4375
 30
0.0
 40
0.125
  0
CIRCLE
  8
DAMAN
 10
12.21875
 20
10.4375
 30
0.0
 40
0.125
  0
INSERT
  8
DAMAN
  2
100CROSS
 10
11.625
 20
7.375
 30
0.0
 41
0.625
 42
0.625
 50
270.0
 43
0.625
  0
INSERT
  8
DAMAN
  2
100CROSS
 10
14.625
 20
11.375
 30
0.0
 41
0.625
 42
0.625
 50
270.0
 43
0.625
  0
CIRCLE
  8
DAMAN
 10
14.625
 20
11.375
 30
0.0
 40
0.3125
  0
CIRCLE
  8
DAMAN
 10
14.625
 20
11.375
 30
0.0
 40
0.203125
  0
CIRCLE
  8
DAMAN
 10
11.625
 20
7.375
 30
0.0
 40
0.203125
  0
CIRCLE
  8
DAMAN
 10
11.625
 20
7.375
 30
0.0
 40
0.3125
  0
TEXT
  8
DAMAN
 10
6.5
 20
8.75
 30
0.0
 40
0.25
  1
A
 50
270.0
  7
STR
  0
TEXT
  8
DAMAN
 10
6.5625
 20
10.6875
 30
0.0
 40
0.25
  1
Y
 50
270.0
  7
STR
  0
TEXT
  8
DAMAN
 10
19.625
 20
10.1875
 30
0.0
 40
0.25
  1
P
 50
90.0
  7
STR
  0
TEXT
  8
DAMAN
 10
19.6875
 20
8.125
 30
0.0
 40
0.25
  1
X
 50
90.0
  7
STR
  0
TEXT
  8
DAMAN
 10
12.25
 20
14.15625
 30
0.0
 40
0.25
  1
T
 50
180.0
  7
STR
  0
TEXT
  8
DAMAN
 10
13.90625
 20
4.75
 30
0.0
 40
0.25
  1
B
  7
STR
  0
TEXT
  8
DAMAN
 10
6.59375
 20
8.375
 30
0.0
 40
0.125
  1
DAMAN ****
 50
270.0
  0
INSERT
  8
DAMAN
  2
12SAET
 10
13.125
 20
4.25
 30
0.0
  0
INSERT
  8
DAMAN
  2
12SAET
 10
6.0625
 20
9.625
 30
0.0
  0
INSERT
  8
DAMAN
  2
12SAET
 10
13.125
 20
14.625
 30
0.0
  0
INSERT
  8
DAMAN
  2
12SAET
 10
20.1875
 20
9.375
 30
0.0
  0
INSERT
  8
DAMAN
  2
04SAET
 10
6.0625
 20
10.9375
 30
0.0
  0
INSERT
  8
DAMAN
  2
04SAET
 10
20.1875
 20
7.8125
 30
0.0
  0
ENDSEC
  0
EOF
