  0
SECTION
  2
HEADER
  9
$ACADVER
  1
AC1014
  9
$ACADMAINTVER
 70
     9
  9
$DWGCODEPAGE
  3
ANSI_1252
  9
$INSBASE
 10
0.0
 20
0.0
 30
0.0
  9
$EXTMIN
 10
4.959891731810891
 20
5.811808647545177
 30
-0.0015258207003583
  9
$EXTMAX
 10
20.60219175777582
 20
14.70747985721053
 30
0.0000000349246037
  9
$LIMMIN
 10
0.0
 20
0.0
  9
$LIMMAX
 10
12.0
 20
9.0
  9
$ORTHOMODE
 70
     0
  9
$REGENMODE
 70
     1
  9
$FILLMODE
 70
     1
  9
$QTEXTMODE
 70
     0
  9
$MIRRTEXT
 70
     1
  9
$DRAGMODE
 70
     2
  9
$LTSCALE
 40
1.0
  9
$OSMODE
 70
    37
  9
$ATTMODE
 70
     1
  9
$TEXTSIZE
 40
0.188
  9
$TRACEWID
 40
0.05
  9
$TEXTSTYLE
  7
STANDARD
  9
$CLAYER
  8
DAMAN
  9
$CELTYPE
  6
BYLAYER
  9
$CECOLOR
 62
   256
  9
$CELTSCALE
 40
1.0
  9
$DELOBJ
 70
     1
  9
$DISPSILH
 70
     0
  9
$DIMSCALE
 40
1.0
  9
$DIMASZ
 40
0.18
  9
$DIMEXO
 40
0.0625
  9
$DIMDLI
 40
0.38
  9
$DIMRND
 40
0.0
  9
$DIMDLE
 40
0.0
  9
$DIMEXE
 40
0.18
  9
$DIMTP
 40
0.0
  9
$DIMTM
 40
0.0
  9
$DIMTXT
 40
0.18
  9
$DIMCEN
 40
0.09
  9
$DIMTSZ
 40
0.0
  9
$DIMTOL
 70
     0
  9
$DIMLIM
 70
     0
  9
$DIMTIH
 70
     1
  9
$DIMTOH
 70
     1
  9
$DIMSE1
 70
     0
  9
$DIMSE2
 70
     0
  9
$DIMTAD
 70
     0
  9
$DIMZIN
 70
     0
  9
$DIMBLK
  1

  9
$DIMASO
 70
     1
  9
$DIMSHO
 70
     1
  9
$DIMPOST
  1

  9
$DIMAPOST
  1

  9
$DIMALT
 70
     0
  9
$DIMALTD
 70
     2
  9
$DIMALTF
 40
25.4
  9
$DIMLFAC
 40
1.0
  9
$DIMTOFL
 70
     0
  9
$DIMTVP
 40
0.0
  9
$DIMTIX
 70
     0
  9
$DIMSOXD
 70
     0
  9
$DIMSAH
 70
     0
  9
$DIMBLK1
  1

  9
$DIMBLK2
  1

  9
$DIMSTYLE
  2
STANDARD
  9
$DIMCLRD
 70
     0
  9
$DIMCLRE
 70
     0
  9
$DIMCLRT
 70
     0
  9
$DIMTFAC
 40
1.0
  9
$DIMGAP
 40
0.09
  9
$DIMJUST
 70
     0
  9
$DIMSD1
 70
     0
  9
$DIMSD2
 70
     0
  9
$DIMTOLJ
 70
     1
  9
$DIMTZIN
 70
     0
  9
$DIMALTZ
 70
     0
  9
$DIMALTTZ
 70
     0
  9
$DIMFIT
 70
     3
  9
$DIMUPT
 70
     0
  9
$DIMUNIT
 70
     2
  9
$DIMDEC
 70
     4
  9
$DIMTDEC
 70
     4
  9
$DIMALTU
 70
     2
  9
$DIMALTTD
 70
     2
  9
$DIMTXSTY
  7
STANDARD
  9
$DIMAUNIT
 70
     0
  9
$LUNITS
 70
     2
  9
$LUPREC
 70
     4
  9
$SKETCHINC
 40
0.1
  9
$FILLETRAD
 40
0.0
  9
$AUNITS
 70
     0
  9
$AUPREC
 70
     0
  9
$MENU
  1
tom
  9
$ELEVATION
 40
0.0
  9
$PELEVATION
 40
0.0
  9
$THICKNESS
 40
0.0
  9
$LIMCHECK
 70
     0
  9
$BLIPMODE
 70
     0
  9
$CHAMFERA
 40
0.0
  9
$CHAMFERB
 40
0.0
  9
$CHAMFERC
 40
0.0
  9
$CHAMFERD
 40
0.0
  9
$SKPOLY
 70
     0
  9
$TDCREATE
 40
2449742.467719039
  9
$TDUPDATE
 40
2453425.453142071
  9
$TDINDWG
 40
0.0079790278
  9
$TDUSRTIMER
 40
0.0079790278
  9
$USRTIMER
 70
     1
  9
$ANGBASE
 50
0.0
  9
$ANGDIR
 70
     0
  9
$PDMODE
 70
     0
  9
$PDSIZE
 40
0.0
  9
$PLINEWID
 40
0.0
  9
$COORDS
 70
     1
  9
$SPLFRAME
 70
     0
  9
$SPLINETYPE
 70
     6
  9
$SPLINESEGS
 70
     8
  9
$ATTDIA
 70
     0
  9
$ATTREQ
 70
     1
  9
$HANDLING
 70
-16383
  9
$HANDSEED
  5
2A5
  9
$SURFTAB1
 70
     6
  9
$SURFTAB2
 70
     6
  9
$SURFTYPE
 70
     6
  9
$SURFU
 70
     6
  9
$SURFV
 70
     6
  9
$UCSNAME
  2

  9
$UCSORG
 10
0.0
 20
0.0
 30
0.0
  9
$UCSXDIR
 10
1.0
 20
0.0
 30
0.0
  9
$UCSYDIR
 10
0.0
 20
1.0
 30
0.0
  9
$PUCSNAME
  2

  9
$PUCSORG
 10
0.0
 20
0.0
 30
0.0
  9
$PUCSXDIR
 10
1.0
 20
0.0
 30
0.0
  9
$PUCSYDIR
 10
0.0
 20
1.0
 30
0.0
  9
$USERI1
 70
     0
  9
$USERI2
 70
     0
  9
$USERI3
 70
     0
  9
$USERI4
 70
     0
  9
$USERI5
 70
     0
  9
$USERR1
 40
0.0
  9
$USERR2
 40
0.0
  9
$USERR3
 40
0.0
  9
$USERR4
 40
0.0
  9
$USERR5
 40
0.0
  9
$WORLDVIEW
 70
     1
  9
$SHADEDGE
 70
     3
  9
$SHADEDIF
 70
    70
  9
$TILEMODE
 70
     1
  9
$MAXACTVP
 70
    16
  9
$PINSBASE
 10
0.0
 20
0.0
 30
0.0
  9
$PLIMCHECK
 70
     0
  9
$PEXTMIN
 10
1.000000000000000E+20
 20
1.000000000000000E+20
 30
1.000000000000000E+20
  9
$PEXTMAX
 10
-1.000000000000000E+20
 20
-1.000000000000000E+20
 30
-1.000000000000000E+20
  9
$PLIMMIN
 10
0.0
 20
0.0
  9
$PLIMMAX
 10
12.0
 20
9.0
  9
$UNITMODE
 70
     0
  9
$VISRETAIN
 70
     0
  9
$PLINEGEN
 70
     0
  9
$PSLTSCALE
 70
     1
  9
$TREEDEPTH
 70
  3020
  9
$PICKSTYLE
 70
     1
  9
$CMLSTYLE
  2
STANDARD
  9
$CMLJUST
 70
     0
  9
$CMLSCALE
 40
1.0
  9
$PROXYGRAPHICS
 70
     1
  9
$MEASUREMENT
 70
     0
  0
ENDSEC
  0
SECTION
  2
CLASSES
  0
CLASS
  1
ACDBDICTIONARYWDFLT
  2
AcDbDictionaryWithDefault
  3
AutoCAD 2000
 90
        0
280
     0
281
     0
  0
CLASS
  1
ACDBPLACEHOLDER
  2
AcDbPlaceHolder
  3
AutoCAD 2000
 90
        0
280
     0
281
     0
  0
CLASS
  1
LAYOUT
  2
AcDbLayout
  3
AutoCAD 2000
 90
        0
280
     0
281
     0
  0
CLASS
  1
LONG_TRANSACTION
  2
AcDbLongTransaction
  3
AutoCAD 2000
 90
        0
280
     0
281
     0
  0
CLASS
  1
LWPOLYLINE
  2
AcDbPolyline
  3
AutoCAD 2000
 90
        0
280
     0
281
     1
  0
CLASS
  1
HATCH
  2
AcDbHatch
  3
AutoCAD 2000
 90
        0
280
     0
281
     1
  0
CLASS
  1
XRECORD
  2
AcDbXrecord
  3
AutoCAD 2000
 90
        0
280
     0
281
     0
  0
ENDSEC
  0
SECTION
  2
TABLES
  0
TABLE
  2
VPORT
  5
8
330
0
100
AcDbSymbolTable
 70
     8
  0
VPORT
  5
280
330
8
100
AcDbSymbolTableRecord
100
AcDbViewportTableRecord
  2
*ACTIVE
 70
     0
 10
0.0
 20
0.0
 11
1.0
 21
1.0
 12
12.6467031446624
 22
9.991648564900057
 13
0.0
 23
0.0
 14
0.03125
 24
0.03125
 15
0.0
 25
0.0
 16
0.0
 26
0.0
 36
1.0
 17
0.0
 27
0.0
 37
0.0
 40
10.50043782204665
 41
1.647569444444444
 42
50.0
 43
0.0
 44
0.0
 50
0.0
 51
0.0
 71
     0
 72
   100
 73
     1
 74
     1
 75
     1
 76
     0
 77
     0
 78
     0
  0
ENDTAB
  0
TABLE
  2
LTYPE
  5
5
330
0
100
AcDbSymbolTable
 70
     4
  0
LTYPE
  5
13
330
5
100
AcDbSymbolTableRecord
100
AcDbLinetypeTableRecord
  2
BYBLOCK
 70
     0
  3

 72
    65
 73
     0
 40
0.0
  0
LTYPE
  5
14
330
5
100
AcDbSymbolTableRecord
100
AcDbLinetypeTableRecord
  2
BYLAYER
 70
     0
  3

 72
    65
 73
     0
 40
0.0
  0
LTYPE
  5
15
330
5
100
AcDbSymbolTableRecord
100
AcDbLinetypeTableRecord
  2
CONTINUOUS
 70
     0
  3
Solid line
 72
    65
 73
     0
 40
0.0
  0
LTYPE
  5
24
330
5
100
AcDbSymbolTableRecord
100
AcDbLinetypeTableRecord
  2
HIDDEN
 70
     0
  3
_ _ _ _ _ _ _ _ _ _ _ _ _ _ _ _ _ _ _ _ _ _ _
 72
    65
 73
     2
 40
0.375
 49
0.25
 74
     0
 49
-0.125
 74
     0
  0
LTYPE
  5
25
330
5
100
AcDbSymbolTableRecord
100
AcDbLinetypeTableRecord
  2
CENTER
 70
     0
  3
____ _ ____ _ ____ _ ____ _ ____ _ ____ _ ____
 72
    65
 73
     4
 40
2.0
 49
1.25
 74
     0
 49
-0.25
 74
     0
 49
0.25
 74
     0
 49
-0.25
 74
     0
  0
LTYPE
  5
26
330
5
100
AcDbSymbolTableRecord
100
AcDbLinetypeTableRecord
  2
PHANTOM
 70
     0
  3
_____ _ _ _____ _ _ _____ _ _ _____ _ _ ____
 72
    65
 73
     6
 40
2.5
 49
1.25
 74
     0
 49
-0.25
 74
     0
 49
0.25
 74
     0
 49
-0.25
 74
     0
 49
0.25
 74
     0
 49
-0.25
 74
     0
  0
ENDTAB
  0
TABLE
  2
LAYER
  5
2
330
0
100
AcDbSymbolTable
 70
     9
  0
LAYER
  5
10
330
2
100
AcDbSymbolTableRecord
100
AcDbLayerTableRecord
  2
0
 70
     0
 62
     7
  6
CONTINUOUS
  0
LAYER
  5
22
330
2
100
AcDbSymbolTableRecord
100
AcDbLayerTableRecord
  2
DAMAN
 70
     0
 62
     5
  6
CONTINUOUS
  0
LAYER
  5
27
330
2
100
AcDbSymbolTableRecord
100
AcDbLayerTableRecord
  2
BORDER
 70
     0
 62
     7
  6
CONTINUOUS
  0
LAYER
  5
28
330
2
100
AcDbSymbolTableRecord
100
AcDbLayerTableRecord
  2
CSOLID
 70
     0
 62
     3
  6
CONTINUOUS
  0
LAYER
  5
29
330
2
100
AcDbSymbolTableRecord
100
AcDbLayerTableRecord
  2
SOLID
 70
     0
 62
     4
  6
CONTINUOUS
  0
LAYER
  5
2A
330
2
100
AcDbSymbolTableRecord
100
AcDbLayerTableRecord
  2
CHIDDEN
 70
     0
 62
     3
  6
HIDDEN
  0
LAYER
  5
2B
330
2
100
AcDbSymbolTableRecord
100
AcDbLayerTableRecord
  2
CDIM
 70
     0
 62
     2
  6
CONTINUOUS
  0
LAYER
  5
2C
330
2
100
AcDbSymbolTableRecord
100
AcDbLayerTableRecord
  2
CCENTER
 70
     0
 62
     4
  6
CENTER
  0
LAYER
  5
2D
330
2
100
AcDbSymbolTableRecord
100
AcDbLayerTableRecord
  2
PHANTOM
 70
     0
 62
     1
  6
PHANTOM
  0
ENDTAB
  0
TABLE
  2
STYLE
  5
3
330
0
100
AcDbSymbolTable
 70
     2
  0
STYLE
  5
11
330
3
100
AcDbSymbolTableRecord
100
AcDbTextStyleTableRecord
  2
STANDARD
 70
     0
 40
0.0
 41
1.0
 50
0.0
 71
     0
 42
0.188
  3
txt
  4

  0
STYLE
  5
2E
330
3
100
AcDbSymbolTableRecord
100
AcDbTextStyleTableRecord
  2
STR
 70
     0
 40
0.0
 41
1.0
 50
0.0
 71
     0
 42
0.25
  3
SIMPLEX
  4

  0
ENDTAB
  0
TABLE
  2
VIEW
  5
6
330
0
100
AcDbSymbolTable
 70
     0
  0
ENDTAB
  0
TABLE
  2
UCS
  5
7
330
0
100
AcDbSymbolTable
 70
     0
  0
ENDTAB
  0
TABLE
  2
APPID
  5
9
330
0
100
AcDbSymbolTable
 70
     1
  0
APPID
  5
12
330
9
100
AcDbSymbolTableRecord
100
AcDbRegAppTableRecord
  2
ACAD
 70
     0
  0
ENDTAB
  0
TABLE
  2
DIMSTYLE
  5
A
330
0
100
AcDbSymbolTable
 70
     1
  0
DIMSTYLE
105
1A2
330
A
100
AcDbSymbolTableRecord
100
AcDbDimStyleTableRecord
  2
STANDARD
 70
     0
  3

  4

  5

  6

  7

 40
1.0
 41
0.18
 42
0.0625
 43
0.38
 44
0.18
 45
0.0
 46
0.0
 47
0.0
 48
0.0
140
0.18
141
0.09
142
0.0
143
25.4
144
1.0
145
0.0
146
1.0
147
0.09
 71
     0
 72
     0
 73
     1
 74
     1
 75
     0
 76
     0
 77
     0
 78
     0
170
     0
171
     2
172
     0
173
     0
174
     0
175
     0
176
     0
177
     0
178
     0
270
     2
271
     4
272
     4
273
     2
274
     2
340
11
275
     0
280
     0
281
     0
282
     0
283
     1
284
     0
285
     0
286
     0
287
     3
288
     0
  0
ENDTAB
  0
TABLE
  2
BLOCK_RECORD
  5
1
330
0
100
AcDbSymbolTable
 70
    22
  0
BLOCK_RECORD
  5
1E
102
{ACAD_XDICTIONARY
360
2A3
102
}
330
1
100
AcDbSymbolTableRecord
100
AcDbBlockTableRecord
  2
*MODEL_SPACE
  0
BLOCK_RECORD
  5
1A
102
{ACAD_XDICTIONARY
360
2A1
102
}
330
1
100
AcDbSymbolTableRecord
100
AcDbBlockTableRecord
  2
*PAPER_SPACE
  0
BLOCK_RECORD
  5
31
330
1
100
AcDbSymbolTableRecord
100
AcDbBlockTableRecord
  2
D02HSPB
  0
BLOCK_RECORD
  5
33
330
1
100
AcDbSymbolTableRecord
100
AcDbBlockTableRecord
  2
D02HC
  0
BLOCK_RECORD
  5
47
330
1
100
AcDbSymbolTableRecord
100
AcDbBlockTableRecord
  2
100CROSS
  0
BLOCK_RECORD
  5
54
330
1
100
AcDbSymbolTableRecord
100
AcDbBlockTableRecord
  2
044SAET
  0
BLOCK_RECORD
  5
56
330
1
100
AcDbSymbolTableRecord
100
AcDbBlockTableRecord
  2
106SAET
  0
BLOCK_RECORD
  5
103
330
1
100
AcDbSymbolTableRecord
100
AcDbBlockTableRecord
  2
050CROSS
  0
BLOCK_RECORD
  5
11B
330
1
100
AcDbSymbolTableRecord
100
AcDbBlockTableRecord
  2
075NPTFT
  0
BLOCK_RECORD
  5
11D
330
1
100
AcDbSymbolTableRecord
100
AcDbBlockTableRecord
  2
750NPTFT
  0
BLOCK_RECORD
  5
126
330
1
100
AcDbSymbolTableRecord
100
AcDbBlockTableRecord
  2
025NPTFT
  0
BLOCK_RECORD
  5
128
330
1
100
AcDbSymbolTableRecord
100
AcDbBlockTableRecord
  2
250NPTFT
  0
BLOCK_RECORD
  5
134
330
1
100
AcDbSymbolTableRecord
100
AcDbBlockTableRecord
  2
12SAET
  0
BLOCK_RECORD
  5
13C
330
1
100
AcDbSymbolTableRecord
100
AcDbBlockTableRecord
  2
04SAET
  0
BLOCK_RECORD
  5
144
330
1
100
AcDbSymbolTableRecord
100
AcDbBlockTableRecord
  2
750BSPPT
  0
BLOCK_RECORD
  5
14C
330
1
100
AcDbSymbolTableRecord
100
AcDbBlockTableRecord
  2
025BSPPT
  0
BLOCK_RECORD
  5
153
330
1
100
AcDbSymbolTableRecord
100
AcDbBlockTableRecord
  2
0375BSPPT
  0
BLOCK_RECORD
  5
1CA
330
1
100
AcDbSymbolTableRecord
100
AcDbBlockTableRecord
  2
M27T
  0
BLOCK_RECORD
  5
1DC
330
1
100
AcDbSymbolTableRecord
100
AcDbBlockTableRecord
  2
M10T
  0
ENDTAB
  0
ENDSEC
  0
SECTION
  2
BLOCKS
  0
BLOCK
  5
1F
330
1E
100
AcDbEntity
  8
0
100
AcDbBlockBegin
  2
*MODEL_SPACE
 70
     0
 10
0.0
 20
0.0
 30
0.0
  3
*MODEL_SPACE
  1

  0
ENDBLK
  5
20
330
1E
100
AcDbEntity
  8
0
100
AcDbBlockEnd
  0
BLOCK
  5
1B
330
1A
100
AcDbEntity
 67
     1
  8
0
100
AcDbBlockBegin
  2
*PAPER_SPACE
 70
     0
 10
0.0
 20
0.0
 30
0.0
  3
*PAPER_SPACE
  1

  0
ENDBLK
  5
1C
330
1A
100
AcDbEntity
 67
     1
  8
0
100
AcDbBlockEnd
  0
BLOCK
  5
32
330
31
100
AcDbEntity
  8
0
100
AcDbBlockBegin
  2
D02HSPB
 70
     0
 10
0.0
 20
0.0
 30
0.0
  3
D02HSPB
  1

  0
INSERT
  5
34
330
31
100
AcDbEntity
  8
BORDER
100
AcDbBlockReference
  2
D02HC
 10
5.03125
 20
12.1875
 30
0.0
  0
LWPOLYLINE
  5
35
330
31
100
AcDbEntity
  8
BORDER
100
AcDbPolyline
 90
        4
 70
     1
 43
0.0
 10
10.5
 20
8.75
 10
10.5
 20
13.5
 10
12.25
 20
13.5
 10
12.25
 20
8.75
  0
LWPOLYLINE
  5
3B
330
31
100
AcDbEntity
  8
BORDER
100
AcDbPolyline
 90
        4
 70
     1
 43
0.0
 10
3.6875
 20
8.75
 10
3.6875
 20
13.5
 10
8.1875
 20
13.5
 10
8.1875
 20
8.75
  0
LWPOLYLINE
  5
41
330
31
100
AcDbEntity
  8
BORDER
100
AcDbPolyline
 90
        4
 70
     1
 43
0.0
 10
14.5625
 20
8.75
 10
14.5625
 20
13.5
 10
19.0625
 20
13.5
 10
19.0625
 20
8.75
  0
INSERT
  5
48
330
31
100
AcDbEntity
  8
SOLID
100
AcDbBlockReference
  2
100CROSS
 10
18.6875
 20
9.125
 30
0.0
 41
0.625
 42
0.625
 43
0.625
  0
CIRCLE
  5
49
330
31
100
AcDbEntity
  8
CSOLID
100
AcDbCircle
 10
18.6875
 20
9.125
 30
0.0
 40
0.203125
  0
CIRCLE
  5
4A
330
31
100
AcDbEntity
  8
CSOLID
100
AcDbCircle
 10
14.9375
 20
13.125
 30
0.0
 40
0.203125
  0
INSERT
  5
4B
330
31
100
AcDbEntity
  8
SOLID
100
AcDbBlockReference
  2
100CROSS
 10
14.9375
 20
13.125
 30
0.0
 41
0.625
 42
0.625
 43
0.625
  0
INSERT
  5
4C
330
31
100
AcDbEntity
  8
CCENTER
100
AcDbBlockReference
  2
100CROSS
 10
14.9375
 20
13.125
 30
0.0
 41
0.625
 42
0.625
 43
0.625
  0
INSERT
  5
4D
330
31
100
AcDbEntity
  8
CCENTER
100
AcDbBlockReference
  2
100CROSS
 10
18.6875
 20
9.125
 30
0.0
 41
0.625
 42
0.625
 43
0.625
  0
INSERT
  5
4E
330
31
100
AcDbEntity
  8
CCENTER
100
AcDbBlockReference
  2
100CROSS
 10
7.8125
 20
13.125
 30
0.0
 41
-0.625
 42
0.625
 43
0.625
  0
CIRCLE
  5
4F
330
31
100
AcDbEntity
  8
CSOLID
100
AcDbCircle
 10
7.8125
 20
13.125
 30
0.0
 40
0.203125
  0
INSERT
  5
50
330
31
100
AcDbEntity
  8
CCENTER
100
AcDbBlockReference
  2
100CROSS
 10
4.0625
 20
9.125
 30
0.0
 41
-0.625
 42
0.625
 43
0.625
  0
CIRCLE
  5
51
330
31
100
AcDbEntity
  8
CSOLID
100
AcDbCircle
 10
4.0625
 20
9.125
 30
0.0
 40
0.203125
  0
CIRCLE
  5
52
330
31
100
AcDbEntity
  8
CSOLID
100
AcDbCircle
 10
4.0625
 20
9.125
 30
0.0
 40
0.3125
  0
CIRCLE
  5
53
330
31
100
AcDbEntity
  8
CSOLID
100
AcDbCircle
 10
7.8125
 20
13.125
 30
0.0
 40
0.3125
  0
INSERT
  5
55
330
31
100
AcDbEntity
  8
CDIM
100
AcDbBlockReference
  2
044SAET
 10
15.5
 20
9.625
 30
0.0
  0
INSERT
  5
57
330
31
100
AcDbEntity
  8
CDIM
100
AcDbBlockReference
  2
106SAET
 10
16.84375
 20
12.375
 30
0.0
  0
INSERT
  5
58
330
31
100
AcDbEntity
  8
CDIM
100
AcDbBlockReference
  2
106SAET
 10
15.75
 20
11.125
 30
0.0
  0
INSERT
  5
59
330
31
100
AcDbEntity
  8
CDIM
100
AcDbBlockReference
  2
106SAET
 10
17.9375
 20
11.125
 30
0.0
  0
INSERT
  5
5A
330
31
100
AcDbEntity
  8
CDIM
100
AcDbBlockReference
  2
106SAET
 10
16.84375
 20
9.9375
 30
0.0
  0
INSERT
  5
5B
330
31
100
AcDbEntity
  8
CDIM
100
AcDbBlockReference
  2
044SAET
 10
18.46875
 20
12.625
 30
0.0
  0
TEXT
  5
5C
330
31
100
AcDbEntity
  8
CDIM
100
AcDbText
 10
16.3125
 20
8.96875
 30
0.0
 40
0.25
  1
B
 50
90.0
  7
STR
100
AcDbText
  0
TEXT
  5
5D
330
31
100
AcDbEntity
  8
CDIM
100
AcDbText
 10
15.09375
 20
9.125
 30
0.0
 40
0.25
  1
X
 50
90.0
  7
STR
100
AcDbText
  0
TEXT
  5
5E
330
31
100
AcDbEntity
  8
CDIM
100
AcDbText
 10
15.03125
 20
10.28124999999999
 30
0.0
 40
0.25
  1
P
 50
90.0
  7
STR
100
AcDbText
  0
TEXT
  5
5F
330
31
100
AcDbEntity
  8
CDIM
100
AcDbText
 10
16.15625
 20
12.9375
 30
0.0
 40
0.25
  1
T
 50
90.0
  7
STR
100
AcDbText
  0
TEXT
  5
60
330
31
100
AcDbEntity
  8
CDIM
100
AcDbText
 10
18.84375
 20
10.3125
 30
0.0
 40
0.25
  1
A
 50
90.0
  7
STR
100
AcDbText
  0
TEXT
  5
61
330
31
100
AcDbEntity
  8
CDIM
100
AcDbText
 10
18.0625
 20
13.0
 30
0.0
 40
0.25
  1
Y
 50
90.0
  7
STR
100
AcDbText
  0
LINE
  5
62
330
31
100
AcDbEntity
  8
CDIM
100
AcDbLine
 10
3.535625
 20
13.5
 30
0.0
 11
2.69625
 21
13.5
 31
0.0
  0
LINE
  5
63
330
31
100
AcDbEntity
  8
CDIM
100
AcDbLine
 10
6.223124999999999
 20
11.12524999999999
 30
0.0
 11
2.69625
 21
11.12524999999999
 31
0.0
  0
LINE
  5
64
330
31
100
AcDbEntity
  8
CDIM
100
AcDbLine
 10
3.0
 20
13.19625
 30
0.0
 11
3.0
 21
12.78647499999999
 31
0.0
  0
LINE
  5
65
330
31
100
AcDbEntity
  8
CDIM
100
AcDbLine
 10
3.0
 20
11.429
 30
0.0
 11
3.0
 21
11.838775
 31
0.0
  0
SOLID
  5
66
330
31
100
AcDbEntity
  8
CDIM
100
AcDbTrace
 10
3.050625
 20
13.19625
 30
0.0
 11
2.949374999999999
 21
13.19625
 31
0.0
 12
3.0
 22
13.5
 32
0.0
 13
3.0
 23
13.5
 33
0.0
  0
SOLID
  5
67
330
31
100
AcDbEntity
  8
CDIM
100
AcDbTrace
 10
3.050625
 20
11.429
 30
0.0
 11
2.949374999999999
 21
11.429
 31
0.0
 12
3.0
 22
11.12524999999999
 32
0.0
 13
3.0
 23
11.12524999999999
 33
0.0
  0
TEXT
  5
68
330
31
100
AcDbEntity
  8
CDIM
100
AcDbText
 10
2.481599999999999
 20
12.14252499999999
 30
0.0
 40
0.3402
  1
2.37
  7
STR
100
AcDbText
  0
LINE
  5
69
330
31
100
AcDbEntity
  8
CDIM
100
AcDbLine
 10
3.535625
 20
13.5
 30
0.0
 11
1.784999999999999
 21
13.5
 31
0.0
  0
LINE
  5
6A
330
31
100
AcDbEntity
  8
CDIM
100
AcDbLine
 10
3.535625
 20
8.75
 30
0.0
 11
1.784999999999999
 21
8.75
 31
0.0
  0
LINE
  5
6B
330
31
100
AcDbEntity
  8
CDIM
100
AcDbLine
 10
2.08875
 20
13.19625
 30
0.0
 11
2.08875
 21
10.91135
 31
0.0
  0
LINE
  5
6C
330
31
100
AcDbEntity
  8
CDIM
100
AcDbLine
 10
2.08875
 20
9.05375
 30
0.0
 11
2.08875
 21
9.963649999999999
 31
0.0
  0
SOLID
  5
6D
330
31
100
AcDbEntity
  8
CDIM
100
AcDbTrace
 10
2.139374999999999
 20
13.19625
 30
0.0
 11
2.038124999999999
 21
13.19625
 31
0.0
 12
2.08875
 22
13.5
 32
0.0
 13
2.08875
 23
13.5
 33
0.0
  0
SOLID
  5
6E
330
31
100
AcDbEntity
  8
CDIM
100
AcDbTrace
 10
2.139374999999999
 20
9.05375
 30
0.0
 11
2.038124999999999
 21
9.05375
 31
0.0
 12
2.08875
 22
8.75
 32
0.0
 13
2.08875
 23
8.75
 33
0.0
  0
TEXT
  5
6F
330
31
100
AcDbEntity
  8
CDIM
100
AcDbText
 10
1.570349999999999
 20
10.26739999999999
 30
0.0
 40
0.3402
  1
4.75
  7
STR
100
AcDbText
  0
LINE
  5
70
330
31
100
AcDbEntity
  8
CDIM
100
AcDbLine
 10
3.6875
 20
13.651875
 30
0.0
 11
3.6875
 21
14.49125
 31
0.0
  0
LINE
  5
71
330
31
100
AcDbEntity
  8
CDIM
100
AcDbLine
 10
6.59375
 20
11.46437499999999
 30
0.0
 11
6.59375
 21
14.49125
 31
0.0
  0
LINE
  5
72
330
31
100
AcDbEntity
  8
CDIM
100
AcDbLine
 10
3.991249999999999
 20
14.1875
 30
0.0
 11
4.391375
 21
14.1875
 31
0.0
  0
LINE
  5
73
330
31
100
AcDbEntity
  8
CDIM
100
AcDbLine
 10
6.29
 20
14.1875
 30
0.0
 11
5.889874999999999
 21
14.1875
 31
0.0
  0
SOLID
  5
74
330
31
100
AcDbEntity
  8
CDIM
100
AcDbTrace
 10
3.991249999999999
 20
14.13687499999999
 30
0.0
 11
3.991249999999999
 21
14.238125
 31
0.0
 12
3.6875
 22
14.1875
 32
0.0
 13
3.6875
 23
14.1875
 33
0.0
  0
SOLID
  5
75
330
31
100
AcDbEntity
  8
CDIM
100
AcDbTrace
 10
6.29
 20
14.13687499999999
 30
0.0
 11
6.29
 21
14.238125
 31
0.0
 12
6.59375
 22
14.1875
 32
0.0
 13
6.59375
 23
14.1875
 33
0.0
  0
TEXT
  5
76
330
31
100
AcDbEntity
  8
CDIM
100
AcDbText
 10
4.695124999999999
 20
14.0174
 30
0.0
 40
0.3402
  1
2.91
  7
STR
100
AcDbText
  0
LINE
  5
77
330
31
100
AcDbEntity
  8
CDIM
100
AcDbLine
 10
3.6875
 20
13.651875
 30
0.0
 11
3.6875
 21
15.2775
 31
0.0
  0
LINE
  5
78
330
31
100
AcDbEntity
  8
CDIM
100
AcDbLine
 10
8.1875
 20
13.651875
 30
0.0
 11
8.1875
 21
15.2775
 31
0.0
  0
LINE
  5
79
330
31
100
AcDbEntity
  8
CDIM
100
AcDbLine
 10
3.991249999999999
 20
14.97375
 30
0.0
 11
5.11535
 21
14.97375
 31
0.0
  0
LINE
  5
7A
330
31
100
AcDbEntity
  8
CDIM
100
AcDbLine
 10
7.88375
 20
14.97375
 30
0.0
 11
6.759649999999999
 21
14.97375
 31
0.0
  0
SOLID
  5
7B
330
31
100
AcDbEntity
  8
CDIM
100
AcDbTrace
 10
3.991249999999999
 20
14.923125
 30
0.0
 11
3.991249999999999
 21
15.024375
 31
0.0
 12
3.6875
 22
14.97375
 32
0.0
 13
3.6875
 23
14.97375
 33
0.0
  0
SOLID
  5
7C
330
31
100
AcDbEntity
  8
CDIM
100
AcDbTrace
 10
7.88375
 20
14.923125
 30
0.0
 11
7.88375
 21
15.024375
 31
0.0
 12
8.1875
 22
14.97375
 32
0.0
 13
8.1875
 23
14.97375
 33
0.0
  0
TEXT
  5
7D
330
31
100
AcDbEntity
  8
CDIM
100
AcDbText
 10
5.4191
 20
14.80364999999999
 30
0.0
 40
0.3402
  1
4.50
  7
STR
100
AcDbText
  0
LINE
  5
7E
330
31
100
AcDbEntity
  8
CDIM
100
AcDbLine
 10
10.5
 20
13.651875
 30
0.0
 11
10.5
 21
14.49125
 31
0.0
  0
LINE
  5
7F
330
31
100
AcDbEntity
  8
CDIM
100
AcDbLine
 10
12.25
 20
13.651875
 30
0.0
 11
12.25
 21
14.49125
 31
0.0
  0
LINE
  5
80
330
31
100
AcDbEntity
  8
CDIM
100
AcDbLine
 10
12.55375
 20
14.1875
 30
0.0
 11
12.8575
 21
14.1875
 31
0.0
  0
LINE
  5
81
330
31
100
AcDbEntity
  8
CDIM
100
AcDbLine
 10
10.19625
 20
14.1875
 30
0.0
 11
9.8925
 21
14.1875
 31
0.0
  0
SOLID
  5
82
330
31
100
AcDbEntity
  8
CDIM
100
AcDbTrace
 10
12.55375
 20
14.13687499999999
 30
0.0
 11
12.55375
 21
14.238125
 31
0.0
 12
12.25
 22
14.1875
 32
0.0
 13
12.25
 23
14.1875
 33
0.0
  0
SOLID
  5
83
330
31
100
AcDbEntity
  8
CDIM
100
AcDbTrace
 10
10.19625
 20
14.13687499999999
 30
0.0
 11
10.19625
 21
14.238125
 31
0.0
 12
10.5
 22
14.1875
 32
0.0
 13
10.5
 23
14.1875
 33
0.0
  0
TEXT
  5
84
330
31
100
AcDbEntity
  8
CDIM
100
AcDbText
 10
10.91125
 20
14.0174
 30
0.0
 40
0.3402
  1
1.75
  7
STR
100
AcDbText
  0
LINE
  5
85
330
31
100
AcDbEntity
  8
CDIM
100
AcDbLine
 10
8.339375
 20
13.5
 30
0.0
 11
9.17875
 21
13.5
 31
0.0
  0
LINE
  5
86
330
31
100
AcDbEntity
  8
CDIM
100
AcDbLine
 10
8.339375
 20
13.125
 30
0.0
 11
9.17875
 21
13.125
 31
0.0
  0
LINE
  5
87
330
31
100
AcDbEntity
  8
CDIM
100
AcDbLine
 10
8.875
 20
12.82124999999999
 30
0.0
 11
8.875
 21
12.5175
 31
0.0
  0
LINE
  5
88
330
31
100
AcDbEntity
  8
CDIM
100
AcDbLine
 10
8.875
 20
13.80375
 30
0.0
 11
8.875
 21
14.1075
 31
0.0
  0
SOLID
  5
89
330
31
100
AcDbEntity
  8
CDIM
100
AcDbTrace
 10
8.925625
 20
12.82124999999999
 30
0.0
 11
8.824374999999999
 21
12.82124999999999
 31
0.0
 12
8.875
 22
13.125
 32
0.0
 13
8.875
 23
13.125
 33
0.0
  0
SOLID
  5
8A
330
31
100
AcDbEntity
  8
CDIM
100
AcDbTrace
 10
8.925625
 20
13.80375
 30
0.0
 11
8.824374999999999
 21
13.80375
 31
0.0
 12
8.875
 22
13.5
 32
0.0
 13
8.875
 23
13.5
 33
0.0
  0
TEXT
  5
8B
330
31
100
AcDbEntity
  8
CDIM
100
AcDbText
 10
8.38695
 20
12.00365
 30
0.0
 40
0.3402
  1
0.37
  7
STR
100
AcDbText
  0
LINE
  5
8C
330
31
100
AcDbEntity
  8
CDIM
100
AcDbLine
 10
8.339375
 20
13.5
 30
0.0
 11
10.09
 21
13.5
 31
0.0
  0
LINE
  5
8D
330
31
100
AcDbEntity
  8
CDIM
100
AcDbLine
 10
4.558125
 20
9.125
 30
0.0
 11
10.09
 21
9.125
 31
0.0
  0
LINE
  5
8E
330
31
100
AcDbEntity
  8
CDIM
100
AcDbLine
 10
9.78625
 20
13.19625
 30
0.0
 11
9.78625
 21
11.78635
 31
0.0
  0
LINE
  5
8F
330
31
100
AcDbEntity
  8
CDIM
100
AcDbLine
 10
9.78625
 20
9.42875
 30
0.0
 11
9.78625
 21
10.83865
 31
0.0
  0
SOLID
  5
90
330
31
100
AcDbEntity
  8
CDIM
100
AcDbTrace
 10
9.836874999999999
 20
13.19625
 30
0.0
 11
9.735625
 21
13.19625
 31
0.0
 12
9.78625
 22
13.5
 32
0.0
 13
9.78625
 23
13.5
 33
0.0
  0
SOLID
  5
91
330
31
100
AcDbEntity
  8
CDIM
100
AcDbTrace
 10
9.836874999999999
 20
9.42875
 30
0.0
 11
9.735625
 21
9.42875
 31
0.0
 12
9.78625
 22
9.125
 32
0.0
 13
9.78625
 23
9.125
 33
0.0
  0
TEXT
  5
92
330
31
100
AcDbEntity
  8
CDIM
100
AcDbText
 10
9.267849999999999
 20
11.1424
 30
0.0
 40
0.3402
  1
4.38
  7
STR
100
AcDbText
  0
LINE
  5
93
330
31
100
AcDbEntity
  8
CDIM
100
AcDbLine
 10
3.6875
 20
8.598124999999999
 30
0.0
 11
3.6875
 21
7.75875
 31
0.0
  0
LINE
  5
94
330
31
100
AcDbEntity
  8
CDIM
100
AcDbLine
 10
4.0625
 20
8.660624999999999
 30
0.0
 11
4.0625
 21
7.75875
 31
0.0
  0
LINE
  5
95
330
31
100
AcDbEntity
  8
CDIM
100
AcDbLine
 10
4.366249999999999
 20
8.0625
 30
0.0
 11
4.669999999999999
 21
8.0625
 31
0.0
  0
LINE
  5
96
330
31
100
AcDbEntity
  8
CDIM
100
AcDbLine
 10
3.38375
 20
8.0625
 30
0.0
 11
3.08
 21
8.0625
 31
0.0
  0
SOLID
  5
97
330
31
100
AcDbEntity
  8
CDIM
100
AcDbTrace
 10
4.366249999999999
 20
8.011874999999999
 30
0.0
 11
4.366249999999999
 21
8.113125
 31
0.0
 12
4.0625
 22
8.0625
 32
0.0
 13
4.0625
 23
8.0625
 33
0.0
  0
SOLID
  5
98
330
31
100
AcDbEntity
  8
CDIM
100
AcDbTrace
 10
3.38375
 20
8.011874999999999
 30
0.0
 11
3.38375
 21
8.113125
 31
0.0
 12
3.6875
 22
8.0625
 32
0.0
 13
3.6875
 23
8.0625
 33
0.0
  0
TEXT
  5
99
330
31
100
AcDbEntity
  8
CDIM
100
AcDbText
 10
4.973749999999999
 20
7.8924
 30
0.0
 40
0.3402
  1
0.37
  7
STR
100
AcDbText
  0
LINE
  5
9A
330
31
100
AcDbEntity
  8
CDIM
100
AcDbLine
 10
3.6875
 20
8.598124999999999
 30
0.0
 11
3.6875
 21
6.9725
 31
0.0
  0
LINE
  5
9B
330
31
100
AcDbEntity
  8
CDIM
100
AcDbLine
 10
7.8125
 20
12.598125
 30
0.0
 11
7.8125
 21
6.9725
 31
0.0
  0
LINE
  5
9C
330
31
100
AcDbEntity
  8
CDIM
100
AcDbLine
 10
3.991249999999999
 20
7.27625
 30
0.0
 11
4.96025
 21
7.27625
 31
0.0
  0
LINE
  5
9D
330
31
100
AcDbEntity
  8
CDIM
100
AcDbLine
 10
7.50875
 20
7.27625
 30
0.0
 11
6.539749999999999
 21
7.27625
 31
0.0
  0
SOLID
  5
9E
330
31
100
AcDbEntity
  8
CDIM
100
AcDbTrace
 10
3.991249999999999
 20
7.225624999999999
 30
0.0
 11
3.991249999999999
 21
7.326875
 31
0.0
 12
3.6875
 22
7.27625
 32
0.0
 13
3.6875
 23
7.27625
 33
0.0
  0
SOLID
  5
9F
330
31
100
AcDbEntity
  8
CDIM
100
AcDbTrace
 10
7.50875
 20
7.225624999999999
 30
0.0
 11
7.50875
 21
7.326875
 31
0.0
 12
7.8125
 22
7.27625
 32
0.0
 13
7.8125
 23
7.27625
 33
0.0
  0
TEXT
  5
A0
330
31
100
AcDbEntity
  8
CDIM
100
AcDbText
 10
5.263999999999999
 20
7.10615
 30
0.0
 40
0.3402
  1
4.13
  7
STR
100
AcDbText
  0
LINE
  5
A1
330
31
100
AcDbEntity
  8
CDIM
100
AcDbLine
 10
19.0625
 20
13.651875
 30
0.0
 11
19.0625
 21
14.49125
 31
0.0
  0
LINE
  5
A2
330
31
100
AcDbEntity
  8
CDIM
100
AcDbLine
 10
17.9375
 20
12.183125
 30
0.0
 11
17.9375
 21
14.49125
 31
0.0
  0
LINE
  5
A3
330
31
100
AcDbEntity
  8
CDIM
100
AcDbLine
 10
17.63374999999999
 20
14.1875
 30
0.0
 11
17.32999999999999
 21
14.1875
 31
0.0
  0
LINE
  5
A4
330
31
100
AcDbEntity
  8
CDIM
100
AcDbLine
 10
19.36625
 20
14.1875
 30
0.0
 11
19.67
 21
14.1875
 31
0.0
  0
SOLID
  5
A5
330
31
100
AcDbEntity
  8
CDIM
100
AcDbTrace
 10
17.63374999999999
 20
14.13687499999999
 30
0.0
 11
17.63374999999999
 21
14.238125
 31
0.0
 12
17.9375
 22
14.1875
 32
0.0
 13
17.9375
 23
14.1875
 33
0.0
  0
SOLID
  5
A6
330
31
100
AcDbEntity
  8
CDIM
100
AcDbTrace
 10
19.36625
 20
14.13687499999999
 30
0.0
 11
19.36625
 21
14.238125
 31
0.0
 12
19.0625
 22
14.1875
 32
0.0
 13
19.0625
 23
14.1875
 33
0.0
  0
TEXT
  5
A7
330
31
100
AcDbEntity
  8
CDIM
100
AcDbText
 10
18.0253
 20
14.0174
 30
0.0
 40
0.3402
  1
1.12
  7
STR
100
AcDbText
  0
LINE
  5
A8
330
31
100
AcDbEntity
  8
CDIM
100
AcDbLine
 10
19.0625
 20
13.651875
 30
0.0
 11
19.0625
 21
15.2775
 31
0.0
  0
LINE
  5
A9
330
31
100
AcDbEntity
  8
CDIM
100
AcDbLine
 10
16.84375
 20
13.370625
 30
0.0
 11
16.84375
 21
15.2775
 31
0.0
  0
LINE
  5
AA
330
31
100
AcDbEntity
  8
CDIM
100
AcDbLine
 10
16.53999999999999
 20
14.97375
 30
0.0
 11
16.23624999999999
 21
14.97375
 31
0.0
  0
LINE
  5
AB
330
31
100
AcDbEntity
  8
CDIM
100
AcDbLine
 10
19.36625
 20
14.97375
 30
0.0
 11
19.67
 21
14.97375
 31
0.0
  0
SOLID
  5
AC
330
31
100
AcDbEntity
  8
CDIM
100
AcDbTrace
 10
16.53999999999999
 20
14.923125
 30
0.0
 11
16.53999999999999
 21
15.024375
 31
0.0
 12
16.84375
 22
14.97375
 32
0.0
 13
16.84375
 23
14.97375
 33
0.0
  0
SOLID
  5
AD
330
31
100
AcDbEntity
  8
CDIM
100
AcDbTrace
 10
19.36625
 20
14.923125
 30
0.0
 11
19.36625
 21
15.024375
 31
0.0
 12
19.0625
 22
14.97375
 32
0.0
 13
19.0625
 23
14.97375
 33
0.0
  0
TEXT
  5
AE
330
31
100
AcDbEntity
  8
CDIM
100
AcDbText
 10
17.3957
 20
14.80364999999999
 30
0.0
 40
0.3402
  1
2.22
  7
STR
100
AcDbText
  0
LINE
  5
AF
330
31
100
AcDbEntity
  8
CDIM
100
AcDbLine
 10
19.0625
 20
13.651875
 30
0.0
 11
19.0625
 21
16.06374999999999
 31
0.0
  0
LINE
  5
B0
330
31
100
AcDbEntity
  8
CDIM
100
AcDbLine
 10
15.75
 20
12.151875
 30
0.0
 11
15.75
 21
16.06374999999999
 31
0.0
  0
LINE
  5
B1
330
31
100
AcDbEntity
  8
CDIM
100
AcDbLine
 10
18.75874999999999
 20
15.76
 30
0.0
 11
18.15549999999999
 21
15.76
 31
0.0
  0
LINE
  5
B2
330
31
100
AcDbEntity
  8
CDIM
100
AcDbLine
 10
16.05375
 20
15.76
 30
0.0
 11
16.657
 21
15.76
 31
0.0
  0
SOLID
  5
B3
330
31
100
AcDbEntity
  8
CDIM
100
AcDbTrace
 10
18.75874999999999
 20
15.709375
 30
0.0
 11
18.75874999999999
 21
15.81062499999999
 31
0.0
 12
19.0625
 22
15.76
 32
0.0
 13
19.0625
 23
15.76
 33
0.0
  0
SOLID
  5
B4
330
31
100
AcDbEntity
  8
CDIM
100
AcDbTrace
 10
16.05375
 20
15.709375
 30
0.0
 11
16.05375
 21
15.81062499999999
 31
0.0
 12
15.75
 22
15.76
 32
0.0
 13
15.75
 23
15.76
 33
0.0
  0
TEXT
  5
B5
330
31
100
AcDbEntity
  8
CDIM
100
AcDbText
 10
16.96075
 20
15.5899
 30
0.0
 40
0.3402
  1
3.31
  7
STR
100
AcDbText
  0
LINE
  5
B6
330
31
100
AcDbEntity
  8
CDIM
100
AcDbLine
 10
19.0625
 20
8.598124999999999
 30
0.0
 11
19.0625
 21
7.75875
 31
0.0
  0
LINE
  5
B7
330
31
100
AcDbEntity
  8
CDIM
100
AcDbLine
 10
18.46875
 20
11.94187499999999
 30
0.0
 11
18.46875
 21
7.75875
 31
0.0
  0
LINE
  5
B8
330
31
100
AcDbEntity
  8
CDIM
100
AcDbLine
 10
18.16499999999999
 20
8.0625
 30
0.0
 11
17.86125
 21
8.0625
 31
0.0
  0
LINE
  5
B9
330
31
100
AcDbEntity
  8
CDIM
100
AcDbLine
 10
19.36625
 20
8.0625
 30
0.0
 11
19.67
 21
8.0625
 31
0.0
  0
SOLID
  5
BA
330
31
100
AcDbEntity
  8
CDIM
100
AcDbTrace
 10
18.16499999999999
 20
8.011874999999999
 30
0.0
 11
18.16499999999999
 21
8.113125
 31
0.0
 12
18.46875
 22
8.0625
 32
0.0
 13
18.46875
 23
8.0625
 33
0.0
  0
SOLID
  5
BB
330
31
100
AcDbEntity
  8
CDIM
100
AcDbTrace
 10
19.36625
 20
8.011874999999999
 30
0.0
 11
19.36625
 21
8.113125
 31
0.0
 12
19.0625
 22
8.0625
 32
0.0
 13
19.0625
 23
8.0625
 33
0.0
  0
TEXT
  5
BC
330
31
100
AcDbEntity
  8
CDIM
100
AcDbText
 10
16.5369
 20
7.8924
 30
0.0
 40
0.3402
  1
0.59
  7
STR
100
AcDbText
  0
LINE
  5
BD
330
31
100
AcDbEntity
  8
CDIM
100
AcDbLine
 10
19.0625
 20
8.598124999999999
 30
0.0
 11
19.0625
 21
6.9725
 31
0.0
  0
LINE
  5
BE
330
31
100
AcDbEntity
  8
CDIM
100
AcDbLine
 10
15.5
 20
8.941874999999999
 30
0.0
 11
15.5
 21
6.9725
 31
0.0
  0
LINE
  5
BF
330
31
100
AcDbEntity
  8
CDIM
100
AcDbLine
 10
18.75874999999999
 20
7.27625
 30
0.0
 11
18.0953
 21
7.27625
 31
0.0
  0
LINE
  5
C0
330
31
100
AcDbEntity
  8
CDIM
100
AcDbLine
 10
15.80375
 20
7.27625
 30
0.0
 11
16.4672
 21
7.27625
 31
0.0
  0
SOLID
  5
C1
330
31
100
AcDbEntity
  8
CDIM
100
AcDbTrace
 10
18.75874999999999
 20
7.225624999999999
 30
0.0
 11
18.75874999999999
 21
7.326875
 31
0.0
 12
19.0625
 22
7.27625
 32
0.0
 13
19.0625
 23
7.27625
 33
0.0
  0
SOLID
  5
C2
330
31
100
AcDbEntity
  8
CDIM
100
AcDbTrace
 10
15.80375
 20
7.225624999999999
 30
0.0
 11
15.80375
 21
7.326875
 31
0.0
 12
15.5
 22
7.27625
 32
0.0
 13
15.5
 23
7.27625
 33
0.0
  0
TEXT
  5
C3
330
31
100
AcDbEntity
  8
CDIM
100
AcDbText
 10
16.77095
 20
7.10615
 30
0.0
 40
0.3402
  1
3.56
  7
STR
100
AcDbText
  0
LINE
  5
C4
330
31
100
AcDbEntity
  8
CDIM
100
AcDbLine
 10
19.214375
 20
13.5
 30
0.0
 11
20.05375
 21
13.5
 31
0.0
  0
LINE
  5
C5
330
31
100
AcDbEntity
  8
CDIM
100
AcDbLine
 10
17.808125
 20
12.375
 30
0.0
 11
20.05375
 21
12.375
 31
0.0
  0
LINE
  5
C6
330
31
100
AcDbEntity
  8
CDIM
100
AcDbLine
 10
19.75
 20
12.07125
 30
0.0
 11
19.75
 21
11.76749999999999
 31
0.0
  0
LINE
  5
C7
330
31
100
AcDbEntity
  8
CDIM
100
AcDbLine
 10
19.75
 20
13.80375
 30
0.0
 11
19.75
 21
14.1075
 31
0.0
  0
SOLID
  5
C8
330
31
100
AcDbEntity
  8
CDIM
100
AcDbTrace
 10
19.800625
 20
12.07125
 30
0.0
 11
19.699375
 21
12.07125
 31
0.0
 12
19.75
 22
12.375
 32
0.0
 13
19.75
 23
12.375
 33
0.0
  0
SOLID
  5
C9
330
31
100
AcDbEntity
  8
CDIM
100
AcDbTrace
 10
19.800625
 20
13.80375
 30
0.0
 11
19.699375
 21
13.80375
 31
0.0
 12
19.75
 22
13.5
 32
0.0
 13
19.75
 23
13.5
 33
0.0
  0
TEXT
  5
CA
330
31
100
AcDbEntity
  8
CDIM
100
AcDbText
 10
19.2978
 20
12.7849
 30
0.0
 40
0.3402
  1
1.13
  7
STR
100
AcDbText
  0
LINE
  5
CB
330
31
100
AcDbEntity
  8
CDIM
100
AcDbLine
 10
19.214375
 20
13.5
 30
0.0
 11
20.965
 21
13.5
 31
0.0
  0
LINE
  5
CC
330
31
100
AcDbEntity
  8
CDIM
100
AcDbLine
 10
18.964375
 20
11.125
 30
0.0
 11
20.965
 21
11.125
 31
0.0
  0
LINE
  5
CD
330
31
100
AcDbEntity
  8
CDIM
100
AcDbLine
 10
20.66124999999999
 20
13.19625
 30
0.0
 11
20.66124999999999
 21
12.66135
 31
0.0
  0
LINE
  5
CE
330
31
100
AcDbEntity
  8
CDIM
100
AcDbLine
 10
20.66124999999999
 20
11.42875
 30
0.0
 11
20.66124999999999
 21
11.71364999999999
 31
0.0
  0
SOLID
  5
CF
330
31
100
AcDbEntity
  8
CDIM
100
AcDbTrace
 10
20.711875
 20
13.19625
 30
0.0
 11
20.61062499999999
 21
13.19625
 31
0.0
 12
20.66124999999999
 22
13.5
 32
0.0
 13
20.66124999999999
 23
13.5
 33
0.0
  0
SOLID
  5
D0
330
31
100
AcDbEntity
  8
CDIM
100
AcDbTrace
 10
20.711875
 20
11.42875
 30
0.0
 11
20.61062499999999
 21
11.42875
 31
0.0
 12
20.66124999999999
 22
11.125
 32
0.0
 13
20.66124999999999
 23
11.125
 33
0.0
  0
TEXT
  5
D1
330
31
100
AcDbEntity
  8
CDIM
100
AcDbText
 10
20.14285
 20
12.0174
 30
0.0
 40
0.3402
  1
2.38
  7
STR
100
AcDbText
  0
LINE
  5
D2
330
31
100
AcDbEntity
  8
CDIM
100
AcDbLine
 10
19.214375
 20
13.5
 30
0.0
 11
21.87625
 21
13.5
 31
0.0
  0
LINE
  5
D3
330
31
100
AcDbEntity
  8
CDIM
100
AcDbLine
 10
17.870625
 20
9.9375
 30
0.0
 11
21.87625
 21
9.9375
 31
0.0
  0
LINE
  5
D4
330
31
100
AcDbEntity
  8
CDIM
100
AcDbLine
 10
21.5725
 20
13.19625
 30
0.0
 11
21.5725
 21
12.03635
 31
0.0
  0
LINE
  5
D5
330
31
100
AcDbEntity
  8
CDIM
100
AcDbLine
 10
21.5725
 20
10.24125
 30
0.0
 11
21.5725
 21
11.08864999999999
 31
0.0
  0
SOLID
  5
D6
330
31
100
AcDbEntity
  8
CDIM
100
AcDbTrace
 10
21.623125
 20
13.19625
 30
0.0
 11
21.521875
 21
13.19625
 31
0.0
 12
21.5725
 22
13.5
 32
0.0
 13
21.5725
 23
13.5
 33
0.0
  0
SOLID
  5
D7
330
31
100
AcDbEntity
  8
CDIM
100
AcDbTrace
 10
21.623125
 20
10.24125
 30
0.0
 11
21.521875
 21
10.24125
 31
0.0
 12
21.5725
 22
9.9375
 32
0.0
 13
21.5725
 23
9.9375
 33
0.0
  0
TEXT
  5
D8
330
31
100
AcDbEntity
  8
CDIM
100
AcDbText
 10
21.06219999999999
 20
11.3924
 30
0.0
 40
0.3402
  1
3.56
  7
STR
100
AcDbText
  0
LINE
  5
D9
330
31
100
AcDbEntity
  8
CDIM
100
AcDbLine
 10
14.410625
 20
13.5
 30
0.0
 11
13.57124999999999
 21
13.5
 31
0.0
  0
LINE
  5
DA
330
31
100
AcDbEntity
  8
CDIM
100
AcDbLine
 10
17.87937499999999
 20
12.625
 30
0.0
 11
13.57124999999999
 21
12.625
 31
0.0
  0
LINE
  5
DB
330
31
100
AcDbEntity
  8
CDIM
100
AcDbLine
 10
13.875
 20
12.32124999999999
 30
0.0
 11
13.875
 21
12.0175
 31
0.0
  0
LINE
  5
DC
330
31
100
AcDbEntity
  8
CDIM
100
AcDbLine
 10
13.875
 20
13.80375
 30
0.0
 11
13.875
 21
14.1075
 31
0.0
  0
SOLID
  5
DD
330
31
100
AcDbEntity
  8
CDIM
100
AcDbTrace
 10
13.925625
 20
12.32124999999999
 30
0.0
 11
13.82437499999999
 21
12.32124999999999
 31
0.0
 12
13.875
 22
12.625
 32
0.0
 13
13.875
 23
12.625
 33
0.0
  0
SOLID
  5
DE
330
31
100
AcDbEntity
  8
CDIM
100
AcDbTrace
 10
13.925625
 20
13.80375
 30
0.0
 11
13.82437499999999
 21
13.80375
 31
0.0
 12
13.875
 22
13.5
 32
0.0
 13
13.875
 23
13.5
 33
0.0
  0
TEXT
  5
DF
330
31
100
AcDbEntity
  8
CDIM
100
AcDbText
 10
13.2932
 20
12.87865
 30
0.0
 40
0.3402
  1
0.88
  7
STR
100
AcDbText
  0
LINE
  5
E0
330
31
100
AcDbEntity
  8
CDIM
100
AcDbLine
 10
14.410625
 20
13.5
 30
0.0
 11
12.66
 21
13.5
 31
0.0
  0
LINE
  5
E1
330
31
100
AcDbEntity
  8
CDIM
100
AcDbLine
 10
14.879375
 20
9.625
 30
0.0
 11
12.66
 21
9.625
 31
0.0
  0
LINE
  5
E2
330
31
100
AcDbEntity
  8
CDIM
100
AcDbLine
 10
12.96375
 20
13.19625
 30
0.0
 11
12.96375
 21
12.03635
 31
0.0
  0
LINE
  5
E3
330
31
100
AcDbEntity
  8
CDIM
100
AcDbLine
 10
12.96375
 20
9.92875
 30
0.0
 11
12.96375
 21
11.08864999999999
 31
0.0
  0
SOLID
  5
E4
330
31
100
AcDbEntity
  8
CDIM
100
AcDbTrace
 10
13.014375
 20
13.19625
 30
0.0
 11
12.913125
 21
13.19625
 31
0.0
 12
12.96375
 22
13.5
 32
0.0
 13
12.96375
 23
13.5
 33
0.0
  0
SOLID
  5
E5
330
31
100
AcDbEntity
  8
CDIM
100
AcDbTrace
 10
13.014375
 20
9.92875
 30
0.0
 11
12.913125
 21
9.92875
 31
0.0
 12
12.96375
 22
9.625
 32
0.0
 13
12.96375
 23
9.625
 33
0.0
  0
TEXT
  5
E6
330
31
100
AcDbEntity
  8
CDIM
100
AcDbText
 10
12.44534999999999
 20
11.3924
 30
0.0
 40
0.3402
  1
3.88
  7
STR
100
AcDbText
  0
ENDBLK
  5
E7
330
31
100
AcDbEntity
  8
0
100
AcDbBlockEnd
  0
BLOCK
  5
E8
330
33
100
AcDbEntity
  8
BORDER
100
AcDbBlockBegin
  2
D02HC
 70
     0
 10
2.0
 20
5.0
 30
0.0
  3
D02HC
  1

  0
INSERT
  5
E9
330
33
100
AcDbEntity
  8
CCENTER
100
AcDbBlockReference
  2
100CROSS
 10
3.718999999999999
 20
2.4375
 30
0.0
 41
0.188
 42
0.188
  0
CIRCLE
  5
EA
330
33
100
AcDbEntity
  8
CSOLID
100
AcDbCircle
 10
3.718999999999999
 20
2.4375
 30
0.0
 40
0.09375
  0
CIRCLE
  5
EB
330
33
100
AcDbEntity
  8
CSOLID
100
AcDbCircle
 10
2.093999999999999
 20
5.4375
 30
0.0
 40
0.09375
  0
INSERT
  5
EC
330
33
100
AcDbEntity
  8
CCENTER
100
AcDbBlockReference
  2
100CROSS
 10
2.093999999999999
 20
5.4375
 30
0.0
 41
0.188
 42
0.188
  0
INSERT
  5
ED
330
33
100
AcDbEntity
  8
CCENTER
100
AcDbBlockReference
  2
100CROSS
 10
2.0
 20
5.0
 30
0.0
 41
0.25
 42
0.25
  0
CIRCLE
  5
EE
330
33
100
AcDbEntity
  8
CSOLID
100
AcDbCircle
 10
2.0
 20
5.0
 30
0.0
 40
0.1055
  0
CIRCLE
  5
EF
330
33
100
AcDbEntity
  8
CSOLID
100
AcDbCircle
 10
2.0
 20
2.875
 30
0.0
 40
0.1055
  0
INSERT
  5
F0
330
33
100
AcDbEntity
  8
CCENTER
100
AcDbBlockReference
  2
100CROSS
 10
2.0
 20
2.875
 30
0.0
 41
0.25
 42
0.25
  0
CIRCLE
  5
F1
330
33
100
AcDbEntity
  8
CSOLID
100
AcDbCircle
 10
3.8125
 20
5.0
 30
0.0
 40
0.1055
  0
INSERT
  5
F2
330
33
100
AcDbEntity
  8
CCENTER
100
AcDbBlockReference
  2
100CROSS
 10
3.8125
 20
5.0
 30
0.0
 41
0.25
 42
0.25
  0
CIRCLE
  5
F3
330
33
100
AcDbEntity
  8
CSOLID
100
AcDbCircle
 10
3.8125
 20
2.875
 30
0.0
 40
0.1055
  0
INSERT
  5
F4
330
33
100
AcDbEntity
  8
CCENTER
100
AcDbBlockReference
  2
100CROSS
 10
3.8125
 20
2.875
 30
0.0
 41
0.25
 42
0.25
  0
INSERT
  5
F5
330
33
100
AcDbEntity
  8
CCENTER
100
AcDbBlockReference
  2
100CROSS
 10
2.531
 20
4.875
 30
0.0
 41
0.4379999999999999
 42
0.4379999999999999
  0
CIRCLE
  5
F6
330
33
100
AcDbEntity
  8
CSOLID
100
AcDbCircle
 10
2.531
 20
4.875
 30
0.0
 40
0.21875
  0
CIRCLE
  5
F7
330
33
100
AcDbEntity
  8
CSOLID
100
AcDbCircle
 10
2.9685
 20
4.343999999999999
 30
0.0
 40
0.21875
  0
INSERT
  5
F8
330
33
100
AcDbEntity
  8
CCENTER
100
AcDbBlockReference
  2
100CROSS
 10
2.9685
 20
4.343999999999999
 30
0.0
 41
0.4379999999999999
 42
0.4379999999999999
  0
INSERT
  5
F9
330
33
100
AcDbEntity
  8
CCENTER
100
AcDbBlockReference
  2
100CROSS
 10
2.9685
 20
3.531499999999999
 30
0.0
 41
0.4379999999999999
 42
0.4379999999999999
  0
CIRCLE
  5
FA
330
33
100
AcDbEntity
  8
CSOLID
100
AcDbCircle
 10
2.9685
 20
3.531499999999999
 30
0.0
 40
0.21875
  0
CIRCLE
  5
FB
330
33
100
AcDbEntity
  8
CSOLID
100
AcDbCircle
 10
3.5625
 20
3.937749999999999
 30
0.0
 40
0.21875
  0
INSERT
  5
FC
330
33
100
AcDbEntity
  8
CCENTER
100
AcDbBlockReference
  2
100CROSS
 10
3.5625
 20
3.937749999999999
 30
0.0
 41
0.4379999999999999
 42
0.4379999999999999
  0
CIRCLE
  5
FD
330
33
100
AcDbEntity
  8
CHIDDEN
100
AcDbCircle
 10
2.0
 20
2.875
 30
0.0
 40
0.125
  0
CIRCLE
  5
FE
330
33
100
AcDbEntity
  8
CHIDDEN
100
AcDbCircle
 10
3.8125
 20
2.875
 30
0.0
 40
0.125
  0
CIRCLE
  5
FF
330
33
100
AcDbEntity
  8
CHIDDEN
100
AcDbCircle
 10
3.8125
 20
5.0
 30
0.0
 40
0.125
  0
CIRCLE
  5
100
330
33
100
AcDbEntity
  8
CHIDDEN
100
AcDbCircle
 10
2.0
 20
5.0
 30
0.0
 40
0.125
  0
ENDBLK
  5
101
330
33
100
AcDbEntity
  8
BORDER
100
AcDbBlockEnd
  0
BLOCK
  5
102
330
47
100
AcDbEntity
  8
CSOLID
100
AcDbBlockBegin
  2
100CROSS
 70
     0
 10
5.625
 20
4.59375
 30
0.0
  3
100CROSS
  1

  0
INSERT
  5
104
330
47
100
AcDbEntity
  8
0
100
AcDbBlockReference
  2
050CROSS
 10
5.625
 20
4.59375
 30
0.0
  0
ENDBLK
  5
105
330
47
100
AcDbEntity
  8
0
100
AcDbBlockEnd
  0
BLOCK
  5
10E
330
54
100
AcDbEntity
  8
CDIM
100
AcDbBlockBegin
  2
044SAET
 70
     0
 10
6.375
 20
2.1875
 30
0.0
  3
044SAET
  1

  0
CIRCLE
  5
10F
330
54
100
AcDbEntity
  8
CHIDDEN
100
AcDbCircle
 10
6.375
 20
2.1875
 30
0.0
 40
0.21875
  0
INSERT
  5
110
330
54
100
AcDbEntity
  8
CCENTER
100
AcDbBlockReference
  2
100CROSS
 10
6.375
 20
2.1875
 30
0.0
 41
0.8
 42
0.8
  0
CIRCLE
  5
111
330
54
100
AcDbEntity
  8
CSOLID
100
AcDbCircle
 10
6.375
 20
2.1875
 30
0.0
 40
0.1875
  0
CIRCLE
  5
112
330
54
100
AcDbEntity
  8
CSOLID
100
AcDbCircle
 10
6.375
 20
2.1875
 30
0.0
 40
0.4375
  0
ENDBLK
  5
113
330
54
100
AcDbEntity
  8
CDIM
100
AcDbBlockEnd
  0
BLOCK
  5
114
330
56
100
AcDbEntity
  8
CDIM
100
AcDbBlockBegin
  2
106SAET
 70
     0
 10
6.625
 20
14.28125
 30
0.0
  3
106SAET
  1

  0
CIRCLE
  5
115
330
56
100
AcDbEntity
  8
CSOLID
100
AcDbCircle
 10
6.625
 20
14.28125
 30
0.0
 40
0.4920000000000001
  0
CIRCLE
  5
116
330
56
100
AcDbEntity
  8
CSOLID
100
AcDbCircle
 10
6.625
 20
14.28125
 30
0.0
 40
0.453
  0
CIRCLE
  5
117
330
56
100
AcDbEntity
  8
CSOLID
100
AcDbCircle
 10
6.625
 20
14.28125
 30
0.0
 40
0.8125
  0
INSERT
  5
118
330
56
100
AcDbEntity
  8
CCENTER
100
AcDbBlockReference
  2
100CROSS
 10
6.625
 20
14.28125
 30
0.0
 41
1.33
 42
1.33
  0
CIRCLE
  5
119
330
56
100
AcDbEntity
  8
CHIDDEN
100
AcDbCircle
 10
6.625
 20
14.28125
 30
0.0
 40
0.53125
  0
ENDBLK
  5
11A
330
56
100
AcDbEntity
  8
CDIM
100
AcDbBlockEnd
  0
BLOCK
  5
106
330
103
100
AcDbEntity
  8
0
100
AcDbBlockBegin
  2
050CROSS
 70
     0
 10
5.0
 20
5.0
 30
0.0
  3
050CROSS
  1

  0
LINE
  5
107
330
103
100
AcDbEntity
  8
0
100
AcDbLine
 10
5.0
 20
5.28125
 30
0.0
 11
5.0
 21
5.78125
 31
0.0
  0
LINE
  5
108
330
103
100
AcDbEntity
  8
0
100
AcDbLine
 10
5.0
 20
4.875
 30
0.0
 11
5.0
 21
5.125
 31
0.0
  0
LINE
  5
109
330
103
100
AcDbEntity
  8
0
100
AcDbLine
 10
5.0
 20
4.15625
 30
0.0
 11
5.0
 21
4.71875
 31
0.0
  0
LINE
  5
10A
330
103
100
AcDbEntity
  8
0
100
AcDbLine
 10
5.25
 20
5.0
 30
0.0
 11
5.8125
 21
5.0
 31
0.0
  0
LINE
  5
10B
330
103
100
AcDbEntity
  8
0
100
AcDbLine
 10
4.90625
 20
5.0
 30
0.0
 11
5.09375
 21
5.0
 31
0.0
  0
LINE
  5
10C
330
103
100
AcDbEntity
  8
0
100
AcDbLine
 10
4.1875
 20
5.0
 30
0.0
 11
4.75
 21
5.0
 31
0.0
  0
ENDBLK
  5
10D
330
103
100
AcDbEntity
  8
0
100
AcDbBlockEnd
  0
BLOCK
  5
11C
330
11B
100
AcDbEntity
  8
0
100
AcDbBlockBegin
  2
075NPTFT
 70
     0
 10
0.0
 20
0.0
 30
0.0
  3
075NPTFT
  1

  0
INSERT
  5
11E
330
11B
100
AcDbEntity
  8
DAMAN
100
AcDbBlockReference
  2
750NPTFT
 10
-6.410892999999999
 20
-4.555543
 30
0.0
  0
ENDBLK
  5
11F
330
11B
100
AcDbEntity
  8
0
100
AcDbBlockEnd
  0
BLOCK
  5
120
330
11D
100
AcDbEntity
  8
0
100
AcDbBlockBegin
  2
750NPTFT
 70
     0
 10
0.0
 20
0.0
 30
0.0
  3
750NPTFT
  1

  0
INSERT
  5
121
330
11D
100
AcDbEntity
  8
DAMAN
 62
     5
100
AcDbBlockReference
  2
100CROSS
 10
6.410892999999999
 20
4.555543
 30
0.0
 41
0.98
 42
0.98
  0
CIRCLE
  5
122
330
11D
100
AcDbEntity
  8
DAMAN
 62
     5
100
AcDbCircle
 10
6.410892999999999
 20
4.555543
 30
0.0
 40
0.4910670000000001
  0
CIRCLE
  5
123
330
11D
100
AcDbEntity
  8
DAMAN
 62
     5
100
AcDbCircle
 10
6.410892999999999
 20
4.555543
 30
0.0
 40
0.453
  0
CIRCLE
  5
124
330
11D
100
AcDbEntity
  8
DAMAN
 62
     5
100
AcDbCircle
 10
6.410892999999999
 20
4.555543
 30
0.0
 40
0.53125
  0
ENDBLK
  5
125
330
11D
100
AcDbEntity
  8
0
100
AcDbBlockEnd
  0
BLOCK
  5
127
330
126
100
AcDbEntity
  8
0
100
AcDbBlockBegin
  2
025NPTFT
 70
     0
 10
0.0
 20
0.0
 30
0.0
  3
025NPTFT
  1

  0
INSERT
  5
129
330
126
100
AcDbEntity
  8
DAMAN
100
AcDbBlockReference
  2
250NPTFT
 10
0.0
 20
0.0
 30
0.0
  0
ENDBLK
  5
12A
330
126
100
AcDbEntity
  8
0
100
AcDbBlockEnd
  0
BLOCK
  5
12B
330
128
100
AcDbEntity
  8
0
100
AcDbBlockBegin
  2
250NPTFT
 70
     0
 10
0.0
 20
0.0
 30
0.0
  3
250NPTFT
  1

  0
CIRCLE
  5
12C
330
128
100
AcDbEntity
  8
DAMAN
100
AcDbCircle
 10
0.0
 20
0.0
 30
0.0
 40
0.273
  0
CIRCLE
  5
12D
330
128
100
AcDbEntity
  8
DAMAN
100
AcDbCircle
 10
0.0
 20
0.0
 30
0.0
 40
0.211
  0
INSERT
  5
12E
330
128
100
AcDbEntity
  8
DAMAN
100
AcDbBlockReference
  2
100CROSS
 10
0.0
 20
0.0
 30
0.0
 41
0.4220000000000001
 42
0.4220000000000001
  0
CIRCLE
  5
12F
330
128
100
AcDbEntity
  8
DAMAN
100
AcDbCircle
 10
0.0
 20
0.0
 30
0.0
 40
0.242251
  0
POINT
  5
130
330
128
100
AcDbEntity
  8
CHIDDEN
100
AcDbPoint
 10
-0.087928
 20
0.191806
 30
0.0
  0
POINT
  5
131
330
128
100
AcDbEntity
  8
CHIDDEN
100
AcDbPoint
 10
-0.137717
 20
-0.15986
 30
0.0
  0
POINT
  5
132
330
128
100
AcDbEntity
  8
CHIDDEN
100
AcDbPoint
 10
0.202707
 20
-0.058572
 30
0.0
  0
ENDBLK
  5
133
330
128
100
AcDbEntity
  8
0
100
AcDbBlockEnd
  0
BLOCK
  5
135
330
134
100
AcDbEntity
  8
0
100
AcDbBlockBegin
  2
12SAET
 70
     0
 10
0.0
 20
0.0
 30
0.0
  3
12SAET
  1

  0
CIRCLE
  5
136
330
134
100
AcDbEntity
  8
DAMAN
100
AcDbCircle
 10
0.0
 20
0.0
 30
0.0
 40
0.4920000000000001
  0
CIRCLE
  5
137
330
134
100
AcDbEntity
  8
DAMAN
100
AcDbCircle
 10
0.0
 20
0.0
 30
0.0
 40
0.453
  0
CIRCLE
  5
138
330
134
100
AcDbEntity
  8
DAMAN
100
AcDbCircle
 10
0.0
 20
0.0
 30
0.0
 40
0.8125
  0
INSERT
  5
139
330
134
100
AcDbEntity
  8
DAMAN
100
AcDbBlockReference
  2
100CROSS
 10
0.0
 20
0.0
 30
0.0
 41
1.33
 42
1.33
  0
CIRCLE
  5
13A
330
134
100
AcDbEntity
  8
DAMAN
100
AcDbCircle
 10
0.0
 20
0.0
 30
0.0
 40
0.53125
  0
ENDBLK
  5
13B
330
134
100
AcDbEntity
  8
0
100
AcDbBlockEnd
  0
BLOCK
  5
13D
330
13C
100
AcDbEntity
  8
0
100
AcDbBlockBegin
  2
04SAET
 70
     0
 10
0.0
 20
0.0
 30
0.0
  3
04SAET
  1

  0
CIRCLE
  5
13E
330
13C
100
AcDbEntity
  8
DAMAN
100
AcDbCircle
 10
0.0
 20
0.0
 30
0.0
 40
0.4375
  0
INSERT
  5
13F
330
13C
100
AcDbEntity
  8
DAMAN
100
AcDbBlockReference
  2
100CROSS
 10
0.0
 20
0.0
 30
0.0
 41
0.8
 42
0.8
  0
CIRCLE
  5
140
330
13C
100
AcDbEntity
  8
DAMAN
  6
HIDDEN
100
AcDbCircle
 10
0.0
 20
0.0
 30
0.0
 40
0.21875
  0
CIRCLE
  5
141
330
13C
100
AcDbEntity
  8
DAMAN
100
AcDbCircle
 10
0.0
 20
0.0
 30
0.0
 40
0.1875
  0
CIRCLE
  5
142
330
13C
100
AcDbEntity
  8
DAMAN
100
AcDbCircle
 10
0.0
 20
0.0
 30
0.0
 40
0.2435
  0
ENDBLK
  5
143
330
13C
100
AcDbEntity
  8
0
100
AcDbBlockEnd
  0
BLOCK
  5
145
330
144
100
AcDbEntity
  8
0
100
AcDbBlockBegin
  2
750BSPPT
 70
     0
 10
0.0
 20
0.0
 30
0.0
  3
750BSPPT
  1

  0
CIRCLE
  5
146
330
144
100
AcDbEntity
  8
DAMAN
  6
HIDDEN
100
AcDbCircle
 10
0.0
 20
0.0
 30
0.0
 40
0.5200000000000001
  0
CIRCLE
  5
147
330
144
100
AcDbEntity
  8
DAMAN
100
AcDbCircle
 10
0.0
 20
0.0
 30
0.0
 40
0.488
  0
CIRCLE
  5
148
330
144
100
AcDbEntity
  8
DAMAN
100
AcDbCircle
 10
0.0
 20
0.0
 30
0.0
 40
0.73
  0
INSERT
  5
149
330
144
100
AcDbEntity
  8
DAMAN
100
AcDbBlockReference
  2
100CROSS
 10
0.0
 20
0.0
 30
0.0
 41
1.33
 42
1.33
  0
CIRCLE
  5
14A
330
144
100
AcDbEntity
  8
DAMAN
100
AcDbCircle
 10
0.0
 20
0.0
 30
0.0
 40
0.5225
  0
ENDBLK
  5
14B
330
144
100
AcDbEntity
  8
0
100
AcDbBlockEnd
  0
BLOCK
  5
14D
330
14C
100
AcDbEntity
  8
0
100
AcDbBlockBegin
  2
025BSPPT
 70
     0
 10
0.0
 20
0.0
 30
0.0
  3
025BSPPT
  1

  0
CIRCLE
  5
14E
330
14C
100
AcDbEntity
  8
DAMAN
100
AcDbCircle
 10
0.0
 20
0.0
 30
0.0
 40
0.425
  0
CIRCLE
  5
14F
330
14C
100
AcDbEntity
  8
DAMAN
100
AcDbCircle
 10
0.0
 20
0.0
 30
0.0
 40
0.225
  0
CIRCLE
  5
150
330
14C
100
AcDbEntity
  8
DAMAN
100
AcDbCircle
 10
0.0
 20
0.0
 30
0.0
 40
0.26
  0
INSERT
  5
151
330
14C
100
AcDbEntity
  8
DAMAN
100
AcDbBlockReference
  2
100CROSS
 10
0.0
 20
0.0
 30
0.0
 41
0.7480000000000001
 42
0.7480000000000001
  0
ENDBLK
  5
152
330
14C
100
AcDbEntity
  8
0
100
AcDbBlockEnd
  0
BLOCK
  5
154
330
153
100
AcDbEntity
  8
0
100
AcDbBlockBegin
  2
0375BSPPT
 70
     0
 10
0.0
 20
0.0
 30
0.0
  3
0375BSPPT
  1

  0
CIRCLE
  5
155
330
153
100
AcDbEntity
  8
CSOLID
  6
HIDDEN
100
AcDbCircle
 10
0.0
 20
0.0
 30
0.0
 40
0.3279999999999999
  0
CIRCLE
  5
156
330
153
100
AcDbEntity
  8
CSOLID
100
AcDbCircle
 10
0.0
 20
0.0
 30
0.0
 40
0.3325
  0
CIRCLE
  5
157
330
153
100
AcDbEntity
  8
CSOLID
100
AcDbCircle
 10
0.0
 20
0.0
 30
0.0
 40
0.3035
  0
CIRCLE
  5
158
330
153
100
AcDbEntity
  8
CSOLID
100
AcDbCircle
 10
0.0
 20
0.0
 30
0.0
 40
0.51
  0
INSERT
  5
159
330
153
100
AcDbEntity
  8
DAMAN
100
AcDbBlockReference
  2
100CROSS
 10
0.0
 20
0.0
 30
0.0
 41
0.88
 42
0.88
  0
ENDBLK
  5
15A
330
153
100
AcDbEntity
  8
0
100
AcDbBlockEnd
  0
BLOCK
  5
1D1
330
1CA
100
AcDbEntity
  8
0
100
AcDbBlockBegin
  2
M27T
 70
     0
 10
0.0
 20
0.0
 30
0.0
  3
M27T
  1

  0
CIRCLE
  5
1CB
330
1CA
100
AcDbEntity
  8
DAMAN
100
AcDbCircle
 10
0.0
 20
0.0
 30
0.0
 40
0.5787
  0
CIRCLE
  5
1CC
330
1CA
100
AcDbEntity
  8
DAMAN
  6
HIDDEN
100
AcDbCircle
 10
0.0
 20
0.0
 30
0.0
 40
0.53145
  0
CIRCLE
  5
1CD
330
1CA
100
AcDbEntity
  8
DAMAN
100
AcDbCircle
 10
0.0
 20
0.0
 30
0.0
 40
0.7874
  0
INSERT
  5
1CE
330
1CA
100
AcDbEntity
  8
DAMAN
100
AcDbBlockReference
  2
100CROSS
 10
0.0
 20
0.0
 30
0.0
 41
1.33
 42
1.33
  0
CIRCLE
  5
1CF
330
1CA
100
AcDbEntity
  8
DAMAN
100
AcDbCircle
 10
0.0
 20
0.0
 30
0.0
 40
0.66929
  0
CIRCLE
  5
1D0
330
1CA
100
AcDbEntity
  8
DAMAN
100
AcDbCircle
 10
0.0
 20
0.0
 30
0.0
 40
0.4955
  0
ENDBLK
  5
1D2
330
1CA
100
AcDbEntity
  8
0
100
AcDbBlockEnd
  0
BLOCK
  5
1E2
330
1DC
100
AcDbEntity
  8
0
100
AcDbBlockBegin
  2
M10T
 70
     0
 10
0.0
 20
0.0
 30
0.0
  3
M10T
  1

  0
CIRCLE
  5
1DD
330
1DC
100
AcDbEntity
  8
DAMAN
100
AcDbCircle
 10
0.0
 20
0.0
 30
0.0
 40
0.15625
  0
CIRCLE
  5
1DE
330
1DC
100
AcDbEntity
  8
DAMAN
100
AcDbCircle
 10
0.0
 20
0.0
 30
0.0
 40
0.177165
  0
CIRCLE
  5
1DF
330
1DC
100
AcDbEntity
  8
DAMAN
100
AcDbCircle
 10
0.0
 20
0.0
 30
0.0
 40
0.19685
  0
CIRCLE
  5
1E0
330
1DC
100
AcDbEntity
  8
DAMAN
100
AcDbCircle
 10
0.0
 20
0.0
 30
0.0
 40
0.2952760000000001
  0
INSERT
  5
1E1
330
1DC
100
AcDbEntity
  8
DAMAN
100
AcDbBlockReference
  2
100CROSS
 10
0.0
 20
0.0
 30
0.0
 41
0.59
 42
0.59
 43
0.59
  0
ENDBLK
  5
1E3
330
1DC
100
AcDbEntity
  8
0
100
AcDbBlockEnd
  0
ENDSEC
  0
SECTION
  2
ENTITIES
  0
LWPOLYLINE
  5
15B
330
1E
100
AcDbEntity
  8
DAMAN
100
AcDbPolyline
 90
        4
 70
     1
 43
0.0
 10
11.90625
 20
9.84375
 10
11.90625
 20
14.59375
 10
13.65625
 20
14.59375
 10
13.65625
 20
9.84375
  0
LWPOLYLINE
  5
161
330
1E
100
AcDbEntity
  8
DAMAN
100
AcDbPolyline
 90
        4
 70
     1
 43
0.0
 10
5.09375
 20
9.84375
 10
5.09375
 20
14.59375
 10
9.59375
 20
14.59375
 10
9.59375
 20
9.84375
  0
LWPOLYLINE
  5
167
330
1E
100
AcDbEntity
  8
DAMAN
100
AcDbPolyline
 90
        4
 70
     1
 43
0.0
 10
15.96875
 20
9.84375
 10
15.96875
 20
14.59375
 10
20.46875
 20
14.59375
 10
20.46875
 20
9.84375
  0
INSERT
  5
16D
330
1E
100
AcDbEntity
  8
DAMAN
100
AcDbBlockReference
  2
100CROSS
 10
20.09374999999999
 20
10.21875
 30
0.0
 41
0.625
 42
0.625
 43
0.625
  0
CIRCLE
  5
16E
330
1E
100
AcDbEntity
  8
DAMAN
100
AcDbCircle
 10
20.09374999999999
 20
10.21875
 30
0.0
 40
0.203125
  0
CIRCLE
  5
16F
330
1E
100
AcDbEntity
  8
DAMAN
100
AcDbCircle
 10
16.34375
 20
14.21875
 30
0.0
 40
0.203125
  0
INSERT
  5
170
330
1E
100
AcDbEntity
  8
DAMAN
100
AcDbBlockReference
  2
100CROSS
 10
16.34375
 20
14.21875
 30
0.0
 41
0.625
 42
0.625
 43
0.625
  0
INSERT
  5
171
330
1E
100
AcDbEntity
  8
DAMAN
100
AcDbBlockReference
  2
100CROSS
 10
16.34375
 20
14.21875
 30
0.0
 41
0.625
 42
0.625
 43
0.625
  0
INSERT
  5
172
330
1E
100
AcDbEntity
  8
DAMAN
100
AcDbBlockReference
  2
100CROSS
 10
9.21875
 20
14.21875
 30
0.0
 41
-0.625
 42
0.625
 43
0.625
  0
CIRCLE
  5
173
330
1E
100
AcDbEntity
  8
DAMAN
100
AcDbCircle
 10
9.21875
 20
14.21875
 30
0.0
 40
0.203125
  0
INSERT
  5
174
330
1E
100
AcDbEntity
  8
DAMAN
100
AcDbBlockReference
  2
100CROSS
 10
5.46875
 20
10.21875
 30
0.0
 41
-0.625
 42
0.625
 43
0.625
  0
CIRCLE
  5
175
330
1E
100
AcDbEntity
  8
DAMAN
100
AcDbCircle
 10
5.46875
 20
10.21875
 30
0.0
 40
0.203125
  0
CIRCLE
  5
176
330
1E
100
AcDbEntity
  8
DAMAN
100
AcDbCircle
 10
5.46875
 20
10.21875
 30
0.0
 40
0.3125
  0
CIRCLE
  5
177
330
1E
100
AcDbEntity
  8
DAMAN
100
AcDbCircle
 10
9.21875
 20
14.21875
 30
0.0
 40
0.3125
  0
TEXT
  5
178
330
1E
100
AcDbEntity
  8
DAMAN
100
AcDbText
 10
17.53125
 20
10.25
 30
0.0
 40
0.25
  1
B
 50
270.0
  7
STR
100
AcDbText
  0
TEXT
  5
179
330
1E
100
AcDbEntity
  8
DAMAN
100
AcDbText
 10
16.25
 20
10.40625
 30
0.0
 40
0.25
  1
X
 50
270.0
  7
STR
100
AcDbText
  0
TEXT
  5
17A
330
1E
100
AcDbEntity
  8
DAMAN
100
AcDbText
 10
16.20892965894483
 20
11.63669724778788
 30
0.0
 40
0.25
  1
P
 50
270.0
  7
STR
100
AcDbText
  0
TEXT
  5
17B
330
1E
100
AcDbEntity
  8
DAMAN
100
AcDbText
 10
17.25
 20
14.15625
 30
0.0
 40
0.25
  1
T
 50
270.0
  7
STR
100
AcDbText
  0
TEXT
  5
17C
330
1E
100
AcDbEntity
  8
DAMAN
100
AcDbText
 10
20.0625
 20
11.65625
 30
0.0
 40
0.25
  1
A
 50
270.0
  7
STR
100
AcDbText
  0
TEXT
  5
17D
330
1E
100
AcDbEntity
  8
DAMAN
100
AcDbText
 10
19.15625
 20
14.34375
 30
0.0
 40
0.25
  1
Y
 50
270.0
  7
STR
100
AcDbText
  0
INSERT
  5
17E
330
1E
100
AcDbEntity
  8
DAMAN
100
AcDbBlockReference
  2
100CROSS
 10
8.156499999999999
 20
10.71875
 30
0.0
 41
0.188
 42
0.188
  0
CIRCLE
  5
17F
330
1E
100
AcDbEntity
  8
DAMAN
100
AcDbCircle
 10
8.156499999999999
 20
10.71875
 30
0.0
 40
0.09375
  0
CIRCLE
  5
180
330
1E
100
AcDbEntity
  8
DAMAN
100
AcDbCircle
 10
6.5315
 20
13.71875
 30
0.0
 40
0.09375
  0
INSERT
  5
181
330
1E
100
AcDbEntity
  8
DAMAN
100
AcDbBlockReference
  2
100CROSS
 10
6.5315
 20
13.71875
 30
0.0
 41
0.188
 42
0.188
  0
INSERT
  5
182
330
1E
100
AcDbEntity
  8
DAMAN
100
AcDbBlockReference
  2
100CROSS
 10
6.4375
 20
13.28125
 30
0.0
 41
0.25
 42
0.25
  0
CIRCLE
  5
183
330
1E
100
AcDbEntity
  8
DAMAN
100
AcDbCircle
 10
6.4375
 20
13.28125
 30
0.0
 40
0.1055
  0
CIRCLE
  5
184
330
1E
100
AcDbEntity
  8
DAMAN
100
AcDbCircle
 10
6.4375
 20
11.15625
 30
0.0
 40
0.1055
  0
INSERT
  5
185
330
1E
100
AcDbEntity
  8
DAMAN
100
AcDbBlockReference
  2
100CROSS
 10
6.4375
 20
11.15625
 30
0.0
 41
0.25
 42
0.25
  0
CIRCLE
  5
186
330
1E
100
AcDbEntity
  8
DAMAN
100
AcDbCircle
 10
8.25
 20
13.28125
 30
0.0
 40
0.1055
  0
INSERT
  5
187
330
1E
100
AcDbEntity
  8
DAMAN
100
AcDbBlockReference
  2
100CROSS
 10
8.25
 20
13.28125
 30
0.0
 41
0.25
 42
0.25
  0
CIRCLE
  5
188
330
1E
100
AcDbEntity
  8
DAMAN
100
AcDbCircle
 10
8.25
 20
11.15625
 30
0.0
 40
0.1055
  0
INSERT
  5
189
330
1E
100
AcDbEntity
  8
DAMAN
100
AcDbBlockReference
  2
100CROSS
 10
8.25
 20
11.15625
 30
0.0
 41
0.25
 42
0.25
  0
INSERT
  5
18A
330
1E
100
AcDbEntity
  8
DAMAN
100
AcDbBlockReference
  2
100CROSS
 10
6.968499999999999
 20
13.15625
 30
0.0
 41
0.4379999999999999
 42
0.4379999999999999
  0
CIRCLE
  5
18B
330
1E
100
AcDbEntity
  8
DAMAN
100
AcDbCircle
 10
6.968499999999999
 20
13.15625
 30
0.0
 40
0.21875
  0
CIRCLE
  5
18C
330
1E
100
AcDbEntity
  8
DAMAN
100
AcDbCircle
 10
7.406
 20
12.62525
 30
0.0
 40
0.21875
  0
INSERT
  5
18D
330
1E
100
AcDbEntity
  8
DAMAN
100
AcDbBlockReference
  2
100CROSS
 10
7.406
 20
12.62525
 30
0.0
 41
0.4379999999999999
 42
0.4379999999999999
  0
INSERT
  5
18E
330
1E
100
AcDbEntity
  8
DAMAN
100
AcDbBlockReference
  2
100CROSS
 10
7.406
 20
11.81275
 30
0.0
 41
0.4379999999999999
 42
0.4379999999999999
  0
CIRCLE
  5
18F
330
1E
100
AcDbEntity
  8
DAMAN
100
AcDbCircle
 10
7.406
 20
11.81275
 30
0.0
 40
0.21875
  0
CIRCLE
  5
190
330
1E
100
AcDbEntity
  8
DAMAN
100
AcDbCircle
 10
8.0
 20
12.219
 30
0.0
 40
0.21875
  0
INSERT
  5
191
330
1E
100
AcDbEntity
  8
DAMAN
100
AcDbBlockReference
  2
100CROSS
 10
8.0
 20
12.219
 30
0.0
 41
0.4379999999999999
 42
0.4379999999999999
  0
CIRCLE
  5
192
330
1E
100
AcDbEntity
  8
DAMAN
100
AcDbCircle
 10
6.4375
 20
11.15625
 30
0.0
 40
0.125
  0
CIRCLE
  5
193
330
1E
100
AcDbEntity
  8
DAMAN
100
AcDbCircle
 10
8.25
 20
11.15625
 30
0.0
 40
0.125
  0
CIRCLE
  5
194
330
1E
100
AcDbEntity
  8
DAMAN
100
AcDbCircle
 10
8.25
 20
13.28125
 30
0.0
 40
0.125
  0
CIRCLE
  5
195
330
1E
100
AcDbEntity
  8
DAMAN
100
AcDbCircle
 10
6.4375
 20
13.28125
 30
0.0
 40
0.125
  0
INSERT
  5
196
330
1E
100
AcDbEntity
  8
DAMAN
100
AcDbBlockReference
  2
050CROSS
 10
20.09374999999999
 20
10.21875
 30
0.0
 41
0.625
 42
0.625
  0
LINE
  5
197
330
1E
100
AcDbEntity
  8
DAMAN
100
AcDbLine
 10
5.09375
 20
7.5625
 30
0.0
 11
9.59375
 21
7.5625
 31
0.0
  0
LINE
  5
198
330
1E
100
AcDbEntity
  8
DAMAN
100
AcDbLine
 10
9.59375
 20
7.5625
 30
0.0
 11
9.59375
 21
5.8125
 31
0.0
  0
LINE
  5
199
330
1E
100
AcDbEntity
  8
DAMAN
100
AcDbLine
 10
9.59375
 20
5.8125
 30
0.0
 11
5.09375
 21
5.8125
 31
0.0
  0
LINE
  5
19A
330
1E
100
AcDbEntity
  8
DAMAN
100
AcDbLine
 10
5.09375
 20
5.8125
 30
0.0
 11
5.09375
 21
7.5625
 31
0.0
  0
TEXT
  5
19B
330
1E
100
AcDbEntity
  8
DAMAN
100
AcDbText
 10
5.20187471181395
 20
6.704980947306282
 30
0.0
 40
0.188
  1
DAMAN ****
100
AcDbText
  0
INSERT
  5
27A
330
1E
100
AcDbEntity
  8
DAMAN
100
AcDbBlockReference
  2
04SAET
 10
19.875
 20
13.71875
 30
0.0
  0
INSERT
  5
27B
330
1E
100
AcDbEntity
  8
DAMAN
100
AcDbBlockReference
  2
12SAET
 10
19.34375
 20
12.21875
 30
0.0
  0
INSERT
  5
27C
330
1E
100
AcDbEntity
  8
DAMAN
100
AcDbBlockReference
  2
12SAET
 10
17.15625
 20
12.21875
 30
0.0
  0
INSERT
  5
27D
330
1E
100
AcDbEntity
  8
DAMAN
100
AcDbBlockReference
  2
04SAET
 10
16.90625
 20
10.71875
 30
0.0
  0
INSERT
  5
27E
330
1E
100
AcDbEntity
  8
DAMAN
100
AcDbBlockReference
  2
12SAET
 10
18.28075
 20
13.46875
 30
0.0
  0
INSERT
  5
27F
330
1E
100
AcDbEntity
  8
DAMAN
100
AcDbBlockReference
  2
12SAET
 10
18.21865
 20
11.03125
 30
0.0
  0
ENDSEC
  0
SECTION
  2
OBJECTS
  0
DICTIONARY
  5
C
330
0
100
AcDbDictionary
  3
ACAD_GROUP
350
D
  3
ACAD_LAYOUT
350
19
  3
ACAD_MLINESTYLE
350
16
  3
ACAD_PLOTSETTINGS
350
18
  3
ACAD_PLOTSTYLENAME
350
E
  3
ACDBHEADERROUNDTRIPXREC
350
281
  0
DICTIONARY
  5
2A3
330
1E
100
AcDbDictionary
280
     1
  3
ACAD_LAYOUTSELFREF
360
2A4
  0
DICTIONARY
  5
2A1
330
1A
100
AcDbDictionary
280
     1
  3
ACAD_LAYOUTSELFREF
360
2A2
  0
DICTIONARY
  5
D
102
{ACAD_REACTORS
330
C
102
}
330
C
100
AcDbDictionary
  0
DICTIONARY
  5
19
102
{ACAD_REACTORS
330
C
102
}
330
C
100
AcDbDictionary
  0
DICTIONARY
  5
16
102
{ACAD_REACTORS
330
C
102
}
330
C
100
AcDbDictionary
  3
STANDARD
350
17
  0
DICTIONARY
  5
18
102
{ACAD_REACTORS
330
C
102
}
330
C
100
AcDbDictionary
  0
ACDBDICTIONARYWDFLT
  5
E
102
{ACAD_REACTORS
330
C
102
}
330
C
100
AcDbDictionary
281
     1
  3
Normal
350
F
100
AcDbDictionaryWithDefault
340
F
  0
DICTIONARY
  5
281
102
{ACAD_REACTORS
330
C
102
}
330
C
100
AcDbDictionary
  3
CEPSNTYPE
350
28B
  3
FINGERPRINTGUID
350
28C
  3
HYPERLINKBASE
350
284
  3
INSUNITS
350
28A
  3
LAYOUTDICT
350
286
  3
LWETCUNION
350
289
  3
PLOTSETDICT
350
287
  3
PLOTSTYLNAMDICT
350
288
  3
PSVPSCALE
350
28E
  3
PUCSBASE
350
291
  3
PUCSORGBACK
350
297
  3
PUCSORGBOTTOM
350
293
  3
PUCSORGFRONT
350
296
  3
PUCSORGLEFT
350
294
  3
PUCSORGRIGHT
350
295
  3
PUCSORGTOP
350
292
  3
PUCSORTHOREF
350
28F
  3
PUCSORTHOVIEW
350
290
  3
STYLESHEET
350
285
  3
TSTACKALIGN
350
282
  3
TSTACKSIZE
350
283
  3
UCSBASE
350
29A
  3
UCSORGBACK
350
2A0
  3
UCSORGBOTTOM
350
29C
  3
UCSORGFRONT
350
29F
  3
UCSORGLEFT
350
29D
  3
UCSORGRIGHT
350
29E
  3
UCSORGTOP
350
29B
  3
UCSORTHOREF
350
298
  3
UCSORTHOVIEW
350
299
  3
VERSIONGUID
350
28D
  0
XRECORD
  5
2A4
102
{ACAD_REACTORS
330
2A3
102
}
330
2A3
100
AcDbXrecord
340
1E
  0
XRECORD
  5
2A2
102
{ACAD_REACTORS
330
2A1
102
}
330
2A1
100
AcDbXrecord
340
1A
  0
MLINESTYLE
  5
17
102
{ACAD_REACTORS
330
16
102
}
330
16
100
AcDbMlineStyle
  2
STANDARD
 70
     0
  3

 62
   256
 51
90.0
 52
90.0
 71
     2
 49
0.5
 62
   256
  6
BYLAYER
 49
-0.5
 62
   256
  6
BYLAYER
  0
ACDBPLACEHOLDER
  5
F
102
{ACAD_REACTORS
330
E
102
}
330
E
100
AcDbPlaceHolder
280
     0
  0
XRECORD
  5
28B
102
{ACAD_REACTORS
330
281
102
}
330
281
100
AcDbXrecord
 90
        0
  0
XRECORD
  5
28C
102
{ACAD_REACTORS
330
281
102
}
330
281
100
AcDbXrecord
  1
{04B1F729-E971-4318-8406-8508E4BE88DC}
  0
XRECORD
  5
284
102
{ACAD_REACTORS
330
281
102
}
330
281
100
AcDbXrecord
  1

  0
XRECORD
  5
28A
102
{ACAD_REACTORS
330
281
102
}
330
281
100
AcDbXrecord
 90
        0
  0
XRECORD
  5
286
102
{ACAD_REACTORS
330
281
102
}
330
281
100
AcDbXrecord
340
19
  0
XRECORD
  5
289
102
{ACAD_REACTORS
330
281
102
}
330
281
100
AcDbXrecord
 90
    10781
  0
XRECORD
  5
287
102
{ACAD_REACTORS
330
281
102
}
330
281
100
AcDbXrecord
340
18
  0
XRECORD
  5
288
102
{ACAD_REACTORS
330
281
102
}
330
281
100
AcDbXrecord
340
E
  0
XRECORD
  5
28E
102
{ACAD_REACTORS
330
281
102
}
330
281
100
AcDbXrecord
 40
0.0
  0
XRECORD
  5
291
102
{ACAD_REACTORS
330
281
102
}
330
281
100
AcDbXrecord
340
0
  0
XRECORD
  5
297
102
{ACAD_REACTORS
330
281
102
}
330
281
100
AcDbXrecord
 10
0.0
 20
0.0
 30
0.0
  0
XRECORD
  5
293
102
{ACAD_REACTORS
330
281
102
}
330
281
100
AcDbXrecord
 10
0.0
 20
0.0
 30
0.0
  0
XRECORD
  5
296
102
{ACAD_REACTORS
330
281
102
}
330
281
100
AcDbXrecord
 10
0.0
 20
0.0
 30
0.0
  0
XRECORD
  5
294
102
{ACAD_REACTORS
330
281
102
}
330
281
100
AcDbXrecord
 10
0.0
 20
0.0
 30
0.0
  0
XRECORD
  5
295
102
{ACAD_REACTORS
330
281
102
}
330
281
100
AcDbXrecord
 10
0.0
 20
0.0
 30
0.0
  0
XRECORD
  5
292
102
{ACAD_REACTORS
330
281
102
}
330
281
100
AcDbXrecord
 10
0.0
 20
0.0
 30
0.0
  0
XRECORD
  5
28F
102
{ACAD_REACTORS
330
281
102
}
330
281
100
AcDbXrecord
340
0
  0
XRECORD
  5
290
102
{ACAD_REACTORS
330
281
102
}
330
281
100
AcDbXrecord
 70
     0
  0
XRECORD
  5
285
102
{ACAD_REACTORS
330
281
102
}
330
281
100
AcDbXrecord
  1

  0
XRECORD
  5
282
102
{ACAD_REACTORS
330
281
102
}
330
281
100
AcDbXrecord
 90
        1
  0
XRECORD
  5
283
102
{ACAD_REACTORS
330
281
102
}
330
281
100
AcDbXrecord
 90
       70
  0
XRECORD
  5
29A
102
{ACAD_REACTORS
330
281
102
}
330
281
100
AcDbXrecord
340
0
  0
XRECORD
  5
2A0
102
{ACAD_REACTORS
330
281
102
}
330
281
100
AcDbXrecord
 10
0.0
 20
0.0
 30
0.0
  0
XRECORD
  5
29C
102
{ACAD_REACTORS
330
281
102
}
330
281
100
AcDbXrecord
 10
0.0
 20
0.0
 30
0.0
  0
XRECORD
  5
29F
102
{ACAD_REACTORS
330
281
102
}
330
281
100
AcDbXrecord
 10
0.0
 20
0.0
 30
0.0
  0
XRECORD
  5
29D
102
{ACAD_REACTORS
330
281
102
}
330
281
100
AcDbXrecord
 10
0.0
 20
0.0
 30
0.0
  0
XRECORD
  5
29E
102
{ACAD_REACTORS
330
281
102
}
330
281
100
AcDbXrecord
 10
0.0
 20
0.0
 30
0.0
  0
XRECORD
  5
29B
102
{ACAD_REACTORS
330
281
102
}
330
281
100
AcDbXrecord
 10
0.0
 20
0.0
 30
0.0
  0
XRECORD
  5
298
102
{ACAD_REACTORS
330
281
102
}
330
281
100
AcDbXrecord
340
0
  0
XRECORD
  5
299
102
{ACAD_REACTORS
330
281
102
}
330
281
100
AcDbXrecord
 70
     0
  0
XRECORD
  5
28D
102
{ACAD_REACTORS
330
281
102
}
330
281
100
AcDbXrecord
  1
{CE4578F0-A921-4345-9F99-5DC991F70789}
  0
ENDSEC
  0
EOF
