  0
SECTION
  2
HEADER
  9
$ACADVER
  1
AC1009
  9
$INSBASE
 10
0.0
 20
0.0
 30
0.0
  9
$EXTMIN
 10
-0.562
 20
-0.562
 30
0.0
  9
$EXTMAX
 10
21.062
 20
11.06275
 30
0.0
  9
$LIMMIN
 10
0.0
 20
0.0
  9
$LIMMAX
 10
12.0
 20
9.0
  9
$ORTHOMODE
 70
     0
  9
$REGENMODE
 70
     1
  9
$FILLMODE
 70
     1
  9
$QTEXTMODE
 70
     0
  9
$MIRRTEXT
 70
     1
  9
$DRAGMODE
 70
     2
  9
$LTSCALE
 40
1.0
  9
$OSMODE
 70
     0
  9
$ATTMODE
 70
     1
  9
$TEXTSIZE
 40
0.2
  9
$TRACEWID
 40
0.05
  9
$TEXTSTYLE
  7
STANDARD
  9
$CLAYER
  8
DAMAN
  9
$CELTYPE
  6
BYLAYER
  9
$CECOLOR
 62
   256
  9
$DIMSCALE
 40
1.0
  9
$DIMASZ
 40
0.18
  9
$DIMEXO
 40
0.0625
  9
$DIMDLI
 40
0.38
  9
$DIMRND
 40
0.0
  9
$DIMDLE
 40
0.0
  9
$DIMEXE
 40
0.18
  9
$DIMTP
 40
0.0
  9
$DIMTM
 40
0.0
  9
$DIMTXT
 40
0.18
  9
$DIMCEN
 40
0.09
  9
$DIMTSZ
 40
0.0
  9
$DIMTOL
 70
     0
  9
$DIMLIM
 70
     0
  9
$DIMTIH
 70
     1
  9
$DIMTOH
 70
     1
  9
$DIMSE1
 70
     0
  9
$DIMSE2
 70
     0
  9
$DIMTAD
 70
     0
  9
$DIMZIN
 70
     0
  9
$DIMBLK
  1

  9
$DIMASO
 70
     1
  9
$DIMSHO
 70
     1
  9
$DIMPOST
  1

  9
$DIMAPOST
  1

  9
$DIMALT
 70
     0
  9
$DIMALTD
 70
     2
  9
$DIMALTF
 40
25.4
  9
$DIMLFAC
 40
1.0
  9
$DIMTOFL
 70
     0
  9
$DIMTVP
 40
0.0
  9
$DIMTIX
 70
     0
  9
$DIMSOXD
 70
     0
  9
$DIMSAH
 70
     0
  9
$DIMBLK1
  1

  9
$DIMBLK2
  1

  9
$DIMSTYLE
  2
*UNNAMED
  9
$DIMCLRD
 70
     0
  9
$DIMCLRE
 70
     0
  9
$DIMCLRT
 70
     0
  9
$DIMTFAC
 40
1.0
  9
$DIMGAP
 40
0.09
  9
$LUNITS
 70
     2
  9
$LUPREC
 70
     4
  9
$SKETCHINC
 40
0.1
  9
$FILLETRAD
 40
0.0
  9
$AUNITS
 70
     0
  9
$AUPREC
 70
     0
  9
$MENU
  1
tom
  9
$ELEVATION
 40
0.0
  9
$PELEVATION
 40
0.0
  9
$THICKNESS
 40
0.0
  9
$LIMCHECK
 70
     0
  9
$BLIPMODE
 70
     1
  9
$CHAMFERA
 40
0.0
  9
$CHAMFERB
 40
0.0
  9
$SKPOLY
 70
     0
  9
$TDCREATE
 40
2449805.927676655
  9
$TDUPDATE
 40
2449805.927676655
  9
$TDINDWG
 40
0.0000000000
  9
$TDUSRTIMER
 40
0.0000000000
  9
$USRTIMER
 70
     1
  9
$ANGBASE
 50
0.0
  9
$ANGDIR
 70
     0
  9
$PDMODE
 70
     0
  9
$PDSIZE
 40
0.0
  9
$PLINEWID
 40
0.0
  9
$COORDS
 70
     1
  9
$SPLFRAME
 70
     0
  9
$SPLINETYPE
 70
     6
  9
$SPLINESEGS
 70
     8
  9
$ATTDIA
 70
     0
  9
$ATTREQ
 70
     1
  9
$HANDLING
 70
     1
  9
$HANDSEED
  5
19C
  9
$SURFTAB1
 70
     6
  9
$SURFTAB2
 70
     6
  9
$SURFTYPE
 70
     6
  9
$SURFU
 70
     6
  9
$SURFV
 70
     6
  9
$UCSNAME
  2

  9
$UCSORG
 10
0.0
 20
0.0
 30
0.0
  9
$UCSXDIR
 10
1.0
 20
0.0
 30
0.0
  9
$UCSYDIR
 10
0.0
 20
1.0
 30
0.0
  9
$PUCSNAME
  2

  9
$PUCSORG
 10
0.0
 20
0.0
 30
0.0
  9
$PUCSXDIR
 10
1.0
 20
0.0
 30
0.0
  9
$PUCSYDIR
 10
0.0
 20
1.0
 30
0.0
  9
$USERI1
 70
     0
  9
$USERI2
 70
     0
  9
$USERI3
 70
     0
  9
$USERI4
 70
     0
  9
$USERI5
 70
     0
  9
$USERR1
 40
0.0
  9
$USERR2
 40
0.0
  9
$USERR3
 40
0.0
  9
$USERR4
 40
0.0
  9
$USERR5
 40
0.0
  9
$WORLDVIEW
 70
     1
  9
$SHADEDGE
 70
     3
  9
$SHADEDIF
 70
    70
  9
$TILEMODE
 70
     1
  9
$MAXACTVP
 70
    16
  9
$PINSBASE
 10
0.0
 20
0.0
 30
0.0
  9
$PLIMCHECK
 70
     0
  9
$PEXTMIN
 10
1.000000E+20
 20
1.000000E+20
 30
1.000000E+20
  9
$PEXTMAX
 10
-1.000000E+20
 20
-1.000000E+20
 30
-1.000000E+20
  9
$PLIMMIN
 10
0.0
 20
0.0
  9
$PLIMMAX
 10
12.0
 20
9.0
  9
$UNITMODE
 70
     0
  9
$VISRETAIN
 70
     0
  9
$PLINEGEN
 70
     0
  9
$PSLTSCALE
 70
     1
  9
$TREEDEPTH
 70
  3020
  9
$DWGCODEPAGE
  3
ascii
  0
ENDSEC
  0
SECTION
  2
TABLES
  0
TABLE
  2
VPORT
 70
     2
  0
VPORT
  2
*ACTIVE
 70
     0
 10
0.0
 20
0.0
 11
1.0
 21
1.0
 12
10.25
 22
7.35504
 13
0.0
 23
0.0
 14
0.03125
 24
0.03125
 15
0.0
 25
0.0
 16
0.0
 26
0.0
 36
1.0
 17
0.0
 27
0.0
 37
0.0
 40
15.834081
 41
1.365662
 42
50.0
 43
0.0
 44
0.0
 50
0.0
 51
0.0
 71
     0
 72
   100
 73
     1
 74
     1
 75
     1
 76
     0
 77
     0
 78
     0
  0
ENDTAB
  0
TABLE
  2
LTYPE
 70
     5
  0
LTYPE
  2
CONTINUOUS
 70
    64
  3
Solid line
 72
    65
 73
     0
 40
0.0
  0
LTYPE
  2
HIDDEN
 70
    64
  3
_ _ _ _ _ _ _ _ _ _ _ _ _ _ _ _ _ _ _ _ _ _ _
 72
    65
 73
     2
 40
0.375
 49
0.25
 49
-0.125
  0
LTYPE
  2
CENTER
 70
    64
  3
____ _ ____ _ ____ _ ____ _ ____ _ ____ _ ____
 72
    65
 73
     4
 40
2.0
 49
1.25
 49
-0.25
 49
0.25
 49
-0.25
  0
LTYPE
  2
PHANTOM
 70
    64
  3
_____ _ _ _____ _ _ _____ _ _ _____ _ _ ____
 72
    65
 73
     6
 40
2.5
 49
1.25
 49
-0.25
 49
0.25
 49
-0.25
 49
0.25
 49
-0.25
  0
LTYPE
  2
DASHED
 70
     0
  3
__ __ __ __ __ __ __ __ __ __ __ __ __ __ __ __
 72
    65
 73
     2
 40
0.75
 49
0.5
 49
-0.25
  0
ENDTAB
  0
TABLE
  2
LAYER
 70
     8
  0
LAYER
  2
0
 70
    64
 62
     7
  6
CONTINUOUS
  0
LAYER
  2
DAMAN
 70
    64
 62
     5
  6
CONTINUOUS
  0
LAYER
  2
CHIDDEN
 70
    64
 62
     3
  6
HIDDEN
  0
LAYER
  2
CSOLID
 70
     0
 62
     3
  6
CONTINUOUS
  0
LAYER
  2
CCENTER
 70
     0
 62
     4
  6
CENTER
  0
LAYER
  2
PHANTOM
 70
     0
 62
     1
  6
PHANTOM
  0
LAYER
  2
BORDER
 70
    64
 62
     7
  6
CONTINUOUS
  0
LAYER
  2
CDIM
 70
    64
 62
     2
  6
CONTINUOUS
  0
ENDTAB
  0
TABLE
  2
STYLE
 70
     2
  0
STYLE
  2
STANDARD
 70
    64
 40
0.0
 41
1.0
 50
0.0
 71
     0
 42
0.2
  3
txt
  4

  0
STYLE
  2
STR
 70
    64
 40
0.0
 41
1.0
 50
0.0
 71
     0
 42
0.25
  3
SIMPLEX
  4

  0
ENDTAB
  0
TABLE
  2
VIEW
 70
     0
  0
ENDTAB
  0
TABLE
  2
UCS
 70
     0
  0
ENDTAB
  0
TABLE
  2
APPID
 70
     1
  0
APPID
  2
ACAD
 70
    64
  0
ENDTAB
  0
TABLE
  2
DIMSTYLE
 70
     0
  0
ENDTAB
  0
ENDSEC
  0
SECTION
  2
BLOCKS
  0
BLOCK
  8
0
  5
36
  2
500MKT
 70
    64
 10
0.0
 20
0.0
 30
0.0
  3
500MKT
  0
INSERT
  8
DAMAN
  5
37
  2
100CROSS
 10
-0.937
 20
-0.437
 30
0.0
 41
0.422
 42
0.422
 43
0.0
  0
LINE
  8
DAMAN
  5
38
 10
-0.21825
 20
-0.03125
 30
0.0
 11
-0.21825
 21
-0.84325
 31
0.0
  0
LINE
  8
DAMAN
  5
39
 10
-0.156
 20
-5.0
 30
0.0
 11
-0.156
 21
0.0
 31
0.0
  0
LINE
  8
DAMAN
  5
3A
 10
0.0
 20
-5.0
 30
0.0
 11
0.0
 21
0.0
 31
0.0
  0
LINE
  8
DAMAN
  5
3B
 10
-0.21825
 20
-0.84325
 30
0.0
 11
-0.15575
 21
-0.84325
 31
0.0
  0
LINE
  8
DAMAN
  5
3C
 10
-0.43725
 20
-0.26425
 30
0.0
 11
-0.46825
 21
-0.26425
 31
0.0
  0
LINE
  8
DAMAN
  5
3D
 10
-0.46825
 20
-0.12425
 30
0.0
 11
-0.21825
 21
-0.12425
 31
0.0
  0
LINE
  8
DAMAN
  6
CENTER
  5
3E
 10
-0.75
 20
-0.437
 30
0.0
 11
1.0
 21
-0.437
 31
0.0
  0
LINE
  8
DAMAN
  5
3F
 10
-0.43725
 20
-0.60925
 30
0.0
 11
-0.46825
 21
-0.60925
 31
0.0
  0
LINE
  8
DAMAN
  5
40
 10
-0.21825
 20
-0.74925
 30
0.0
 11
-0.46825
 21
-0.74925
 31
0.0
  0
LINE
  8
DAMAN
  5
41
 10
0.0
 20
0.0
 30
0.0
 11
-1.375
 21
0.0
 31
0.0
  0
POLYLINE
  8
DAMAN
  5
42
 66
     1
 10
0.0
 20
0.0
 30
0.0
 70
     1
  0
VERTEX
  8
DAMAN
  5
43
 10
-1.2072
 20
-0.593
 30
0.0
  0
VERTEX
  8
DAMAN
  5
44
 10
-0.937
 20
-0.749
 30
0.0
  0
VERTEX
  8
DAMAN
  5
45
 10
-0.6668
 20
-0.593
 30
0.0
  0
VERTEX
  8
DAMAN
  5
46
 10
-0.6668
 20
-0.281
 30
0.0
  0
VERTEX
  8
DAMAN
  5
47
 10
-0.937
 20
-0.125
 30
0.0
  0
VERTEX
  8
DAMAN
  5
48
 10
-1.2072
 20
-0.281
 30
0.0
  0
SEQEND
  8
DAMAN
  5
49
  0
CIRCLE
  8
DAMAN
  5
4A
 10
-0.937
 20
-0.437
 30
0.0
 40
0.265
  0
LINE
  8
DAMAN
  5
4B
 10
-0.46825
 20
-0.74925
 30
0.0
 11
-0.46825
 21
-0.12425
 31
0.0
  0
POINT
  8
CHIDDEN
  5
4C
 10
-0.734293
 20
-0.495572
 30
0.0
  0
LINE
  8
DAMAN
  5
4D
 10
0.0
 20
-0.28025
 30
0.0
 11
0.844
 21
-0.28025
 31
0.0
  0
LINE
  8
DAMAN
  5
4E
 10
0.812
 20
-0.24925
 30
0.0
 11
0.0
 21
-0.24925
 31
0.0
  0
LINE
  8
DAMAN
  5
4F
 10
0.0
 20
-0.59325
 30
0.0
 11
0.844
 21
-0.59325
 31
0.0
  0
LINE
  8
DAMAN
  5
50
 10
0.0
 20
-0.62425
 30
0.0
 11
0.812
 21
-0.62425
 31
0.0
  0
LINE
  8
DAMAN
  5
51
 10
-0.21825
 20
-0.60925
 30
0.0
 11
-0.43725
 21
-0.60925
 31
0.0
  0
LINE
  8
DAMAN
  5
52
 10
-0.15625
 20
-0.03125
 30
0.0
 11
-0.21825
 21
-0.03125
 31
0.0
  0
LINE
  8
DAMAN
  5
53
 10
-0.21825
 20
-0.26425
 30
0.0
 11
-0.43725
 21
-0.26425
 31
0.0
  0
LINE
  8
DAMAN
  5
54
 10
0.875
 20
-0.56175
 30
0.0
 11
0.875
 21
-0.31225
 31
0.0
  0
LINE
  8
DAMAN
  5
55
 10
0.812
 20
-0.62425
 30
0.0
 11
0.875
 21
-0.56175
 31
0.0
  0
LINE
  8
DAMAN
  5
56
 10
0.875
 20
-0.31225
 30
0.0
 11
0.812
 21
-0.24925
 31
0.0
  0
LINE
  8
DAMAN
  5
57
 10
-0.46825
 20
-4.24925
 30
0.0
 11
-0.21825
 21
-4.24925
 31
0.0
  0
LINE
  8
DAMAN
  5
58
 10
-0.43725
 20
-4.38925
 30
0.0
 11
-0.46825
 21
-4.38925
 31
0.0
  0
LINE
  8
DAMAN
  6
CENTER
  5
59
 10
-0.75
 20
-4.562
 30
0.0
 11
1.0
 21
-4.562
 31
0.0
  0
LINE
  8
DAMAN
  5
5A
 10
-0.46825
 20
-4.87425
 30
0.0
 11
-0.46825
 21
-4.24925
 31
0.0
  0
INSERT
  8
DAMAN
  5
5B
  2
100CROSS
 10
-0.937
 20
-4.562
 30
0.0
 41
0.422
 42
0.422
 43
0.0
  0
POLYLINE
  8
DAMAN
  5
5C
 66
     1
 10
0.0
 20
0.0
 30
0.0
 70
     1
  0
VERTEX
  8
DAMAN
  5
5D
 10
-1.2072
 20
-4.718
 30
0.0
  0
VERTEX
  8
DAMAN
  5
5E
 10
-0.937
 20
-4.874
 30
0.0
  0
VERTEX
  8
DAMAN
  5
5F
 10
-0.6668
 20
-4.718
 30
0.0
  0
VERTEX
  8
DAMAN
  5
60
 10
-0.6668
 20
-4.406
 30
0.0
  0
VERTEX
  8
DAMAN
  5
61
 10
-0.937
 20
-4.25
 30
0.0
  0
VERTEX
  8
DAMAN
  5
62
 10
-1.2072
 20
-4.406
 30
0.0
  0
SEQEND
  8
DAMAN
  5
63
  0
CIRCLE
  8
DAMAN
  5
64
 10
-0.937
 20
-4.562
 30
0.0
 40
0.265
  0
POINT
  8
CHIDDEN
  5
65
 10
-0.734293
 20
-4.620572
 30
0.0
  0
LINE
  8
DAMAN
  5
66
 10
-0.21825
 20
-4.15625
 30
0.0
 11
-0.21825
 21
-4.96825
 31
0.0
  0
LINE
  8
DAMAN
  5
67
 10
0.812
 20
-4.37425
 30
0.0
 11
0.0
 21
-4.37425
 31
0.0
  0
LINE
  8
DAMAN
  5
68
 10
0.0
 20
-4.40525
 30
0.0
 11
0.844
 21
-4.40525
 31
0.0
  0
LINE
  8
DAMAN
  5
69
 10
-0.21825
 20
-4.38925
 30
0.0
 11
-0.43725
 21
-4.38925
 31
0.0
  0
LINE
  8
DAMAN
  5
6A
 10
0.875
 20
-4.68675
 30
0.0
 11
0.875
 21
-4.43725
 31
0.0
  0
LINE
  8
DAMAN
  5
6B
 10
0.875
 20
-4.43725
 30
0.0
 11
0.812
 21
-4.37425
 31
0.0
  0
LINE
  8
DAMAN
  5
6C
 10
-0.15625
 20
-4.15625
 30
0.0
 11
-0.21825
 21
-4.15625
 31
0.0
  0
LINE
  8
DAMAN
  5
6D
 10
-0.43725
 20
-4.73425
 30
0.0
 11
-0.46825
 21
-4.73425
 31
0.0
  0
LINE
  8
DAMAN
  5
6E
 10
0.0
 20
-4.74925
 30
0.0
 11
0.812
 21
-4.74925
 31
0.0
  0
LINE
  8
DAMAN
  5
6F
 10
0.0
 20
-4.71825
 30
0.0
 11
0.844
 21
-4.71825
 31
0.0
  0
LINE
  8
DAMAN
  5
70
 10
-0.21825
 20
-4.73425
 30
0.0
 11
-0.43725
 21
-4.73425
 31
0.0
  0
LINE
  8
DAMAN
  5
71
 10
0.812
 20
-4.74925
 30
0.0
 11
0.875
 21
-4.68675
 31
0.0
  0
LINE
  8
DAMAN
  5
72
 10
-0.21825
 20
-4.87425
 30
0.0
 11
-0.46825
 21
-4.87425
 31
0.0
  0
LINE
  8
DAMAN
  5
73
 10
-1.375
 20
-5.0
 30
0.0
 11
0.0
 21
-5.0
 31
0.0
  0
LINE
  8
DAMAN
  5
74
 10
-0.21825
 20
-4.96825
 30
0.0
 11
-0.15575
 21
-4.96825
 31
0.0
  0
LINE
  8
DAMAN
  5
75
 10
-1.375
 20
0.0
 30
0.0
 11
-1.375
 21
-5.0
 31
0.0
  0
ENDBLK
  8
0
  5
76
  0
BLOCK
  8
0
  5
77
  2
100CROSS
 70
    64
 10
5.625
 20
4.59375
 30
0.0
  3
100CROSS
  0
INSERT
  8
0
  5
78
  2
050CROSS
 10
5.625
 20
4.59375
 30
0.0
 43
0.0
  0
ENDBLK
  8
0
  5
79
  0
BLOCK
  8
0
  5
7A
  2
050CROSS
 70
    64
 10
5.0
 20
5.0
 30
0.0
  3
050CROSS
  0
LINE
  8
0
  5
7B
 10
5.0
 20
5.28125
 30
0.0
 11
5.0
 21
5.78125
 31
0.0
  0
LINE
  8
0
  5
7C
 10
5.0
 20
4.875
 30
0.0
 11
5.0
 21
5.125
 31
0.0
  0
LINE
  8
0
  5
7D
 10
5.0
 20
4.15625
 30
0.0
 11
5.0
 21
4.71875
 31
0.0
  0
LINE
  8
0
  5
7E
 10
5.25
 20
5.0
 30
0.0
 11
5.8125
 21
5.0
 31
0.0
  0
LINE
  8
0
  5
7F
 10
4.90625
 20
5.0
 30
0.0
 11
5.09375
 21
5.0
 31
0.0
  0
LINE
  8
0
  5
80
 10
4.1875
 20
5.0
 30
0.0
 11
4.75
 21
5.0
 31
0.0
  0
ENDBLK
  8
0
  5
81
  0
BLOCK
  8
0
  5
82
  2
500MKCT
 70
    64
 10
0.0
 20
0.0
 30
0.0
  3
500MKCT
  0
INSERT
  8
DAMAN
  5
83
  2
100CROSS
 10
-0.937
 20
-0.437
 30
0.0
 41
0.422
 42
0.422
 43
0.0
  0
LINE
  8
DAMAN
  5
84
 10
-0.21825
 20
-0.03125
 30
0.0
 11
-0.21825
 21
-0.84325
 31
0.0
  0
LINE
  8
DAMAN
  5
85
 10
-0.156
 20
-5.0
 30
0.0
 11
-0.156
 21
0.0
 31
0.0
  0
LINE
  8
DAMAN
  5
86
 10
-1.375
 20
0.0
 30
0.0
 11
-1.375
 21
-5.0
 31
0.0
  0
LINE
  8
DAMAN
  5
87
 10
0.0
 20
-5.0
 30
0.0
 11
0.0
 21
0.0
 31
0.0
  0
LINE
  8
DAMAN
  5
88
 10
-0.21825
 20
-4.87425
 30
0.0
 11
-0.46825
 21
-4.87425
 31
0.0
  0
LINE
  8
DAMAN
  5
89
 10
-0.43725
 20
-4.73425
 30
0.0
 11
-0.46825
 21
-4.73425
 31
0.0
  0
LINE
  8
DAMAN
  5
8A
 10
-0.46825
 20
-4.24925
 30
0.0
 11
-0.21825
 21
-4.24925
 31
0.0
  0
LINE
  8
DAMAN
  5
8B
 10
-0.43725
 20
-4.38925
 30
0.0
 11
-0.46825
 21
-4.38925
 31
0.0
  0
LINE
  8
DAMAN
  5
8C
 10
-1.375
 20
-5.0
 30
0.0
 11
0.0
 21
-5.0
 31
0.0
  0
LINE
  8
DAMAN
  5
8D
 10
-0.46825
 20
-4.87425
 30
0.0
 11
-0.46825
 21
-4.24925
 31
0.0
  0
INSERT
  8
DAMAN
  5
8E
  2
100CROSS
 10
-0.937
 20
-4.562
 30
0.0
 41
0.422
 42
0.422
 43
0.0
  0
POLYLINE
  8
DAMAN
  5
8F
 66
     1
 10
0.0
 20
0.0
 30
0.0
 70
     1
  0
VERTEX
  8
DAMAN
  5
90
 10
-1.2072
 20
-4.718
 30
0.0
  0
VERTEX
  8
DAMAN
  5
91
 10
-0.937
 20
-4.874
 30
0.0
  0
VERTEX
  8
DAMAN
  5
92
 10
-0.6668
 20
-4.718
 30
0.0
  0
VERTEX
  8
DAMAN
  5
93
 10
-0.6668
 20
-4.406
 30
0.0
  0
VERTEX
  8
DAMAN
  5
94
 10
-0.937
 20
-4.25
 30
0.0
  0
VERTEX
  8
DAMAN
  5
95
 10
-1.2072
 20
-4.406
 30
0.0
  0
SEQEND
  8
DAMAN
  5
96
  0
CIRCLE
  8
DAMAN
  5
97
 10
-0.937
 20
-4.562
 30
0.0
 40
0.265
  0
POINT
  8
CHIDDEN
  5
98
 10
-1.074717
 20
-4.72186
 30
0.0
  0
POINT
  8
CHIDDEN
  5
99
 10
-1.024928
 20
-4.370194
 30
0.0
  0
POINT
  8
CHIDDEN
  5
9A
 10
-0.734293
 20
-4.620572
 30
0.0
  0
LINE
  8
DAMAN
  5
9B
 10
-0.21825
 20
-4.15625
 30
0.0
 11
-0.21825
 21
-4.96825
 31
0.0
  0
LINE
  8
DAMAN
  5
9C
 10
-0.21825
 20
-4.96825
 30
0.0
 11
-0.15575
 21
-4.96825
 31
0.0
  0
LINE
  8
DAMAN
  5
9D
 10
-0.21825
 20
-4.73425
 30
0.0
 11
-0.43725
 21
-4.73425
 31
0.0
  0
LINE
  8
DAMAN
  5
9E
 10
-0.21825
 20
-4.38925
 30
0.0
 11
-0.43725
 21
-4.38925
 31
0.0
  0
LINE
  8
DAMAN
  5
9F
 10
-0.15625
 20
-4.15625
 30
0.0
 11
-0.21825
 21
-4.15625
 31
0.0
  0
LINE
  8
DAMAN
  5
A0
 10
-0.21825
 20
-0.84325
 30
0.0
 11
-0.15575
 21
-0.84325
 31
0.0
  0
LINE
  8
DAMAN
  5
A1
 10
-0.43725
 20
-0.26425
 30
0.0
 11
-0.46825
 21
-0.26425
 31
0.0
  0
LINE
  8
DAMAN
  5
A2
 10
-0.46825
 20
-0.12425
 30
0.0
 11
-0.21825
 21
-0.12425
 31
0.0
  0
LINE
  8
DAMAN
  5
A3
 10
-0.43725
 20
-0.60925
 30
0.0
 11
-0.46825
 21
-0.60925
 31
0.0
  0
LINE
  8
DAMAN
  5
A4
 10
-0.21825
 20
-0.74925
 30
0.0
 11
-0.46825
 21
-0.74925
 31
0.0
  0
LINE
  8
DAMAN
  5
A5
 10
0.0
 20
0.0
 30
0.0
 11
-1.375
 21
0.0
 31
0.0
  0
POLYLINE
  8
DAMAN
  5
A6
 66
     1
 10
0.0
 20
0.0
 30
0.0
 70
     1
  0
VERTEX
  8
DAMAN
  5
A7
 10
-1.2072
 20
-0.593
 30
0.0
  0
VERTEX
  8
DAMAN
  5
A8
 10
-0.937
 20
-0.749
 30
0.0
  0
VERTEX
  8
DAMAN
  5
A9
 10
-0.6668
 20
-0.593
 30
0.0
  0
VERTEX
  8
DAMAN
  5
AA
 10
-0.6668
 20
-0.281
 30
0.0
  0
VERTEX
  8
DAMAN
  5
AB
 10
-0.937
 20
-0.125
 30
0.0
  0
VERTEX
  8
DAMAN
  5
AC
 10
-1.2072
 20
-0.281
 30
0.0
  0
SEQEND
  8
DAMAN
  5
AD
  0
CIRCLE
  8
DAMAN
  5
AE
 10
-0.937
 20
-0.437
 30
0.0
 40
0.265
  0
POINT
  8
CHIDDEN
  5
AF
 10
-1.074717
 20
-0.59686
 30
0.0
  0
POINT
  8
CHIDDEN
  5
B0
 10
-1.024928
 20
-0.245194
 30
0.0
  0
LINE
  8
DAMAN
  5
B1
 10
-0.46825
 20
-0.74925
 30
0.0
 11
-0.46825
 21
-0.12425
 31
0.0
  0
POINT
  8
CHIDDEN
  5
B2
 10
-0.734293
 20
-0.495572
 30
0.0
  0
LINE
  8
DAMAN
  5
B3
 10
-0.21825
 20
-0.60925
 30
0.0
 11
-0.43725
 21
-0.60925
 31
0.0
  0
LINE
  8
DAMAN
  5
B4
 10
-0.15625
 20
-0.03125
 30
0.0
 11
-0.21825
 21
-0.03125
 31
0.0
  0
LINE
  8
DAMAN
  5
B5
 10
-0.21825
 20
-0.26425
 30
0.0
 11
-0.43725
 21
-0.26425
 31
0.0
  0
ENDBLK
  8
0
  5
B6
  0
BLOCK
  8
0
  5
B7
  2
500MKS
 70
    64
 10
0.0
 20
0.0
 30
0.0
  3
500MKS
  0
LINE
  8
DAMAN
  5
B8
 10
-0.313
 20
-0.71875
 30
0.0
 11
-1.125
 21
-0.71875
 31
0.0
  0
LINE
  8
DAMAN
  5
B9
 10
-1.031
 20
-0.46875
 30
0.0
 11
-0.406
 21
-0.46875
 31
0.0
  0
LINE
  8
DAMAN
  5
BA
 10
-0.18775
 20
-0.781
 30
0.0
 11
-1.15675
 21
-0.781
 31
0.0
  0
LINE
  8
DAMAN
  5
BB
 10
-1.15675
 20
-0.937
 30
0.0
 11
-0.18775
 21
-0.937
 31
0.0
  0
LINE
  8
DAMAN
  6
CENTER
  5
BC
 10
-0.71875
 20
-0.187
 30
0.0
 11
-0.71875
 21
-1.937
 31
0.0
  0
LINE
  8
DAMAN
  5
BD
 10
-0.875
 20
-0.937
 30
0.0
 11
-0.875
 21
-1.781
 31
0.0
  0
LINE
  8
DAMAN
  5
BE
 10
-0.562
 20
-0.937
 30
0.0
 11
-0.562
 21
-1.781
 31
0.0
  0
LINE
  8
DAMAN
  5
BF
 10
-0.531
 20
-1.749
 30
0.0
 11
-0.531
 21
-0.937
 31
0.0
  0
LINE
  8
DAMAN
  5
C0
 10
-0.906
 20
-0.937
 30
0.0
 11
-0.906
 21
-1.749
 31
0.0
  0
LINE
  8
DAMAN
  5
C1
 10
-0.906
 20
-1.749
 30
0.0
 11
-0.8435
 21
-1.812
 31
0.0
  0
LINE
  8
DAMAN
  5
C2
 10
-0.594
 20
-1.812
 30
0.0
 11
-0.531
 21
-1.749
 31
0.0
  0
LINE
  8
DAMAN
  5
C3
 10
-0.8435
 20
-1.812
 30
0.0
 11
-0.594
 21
-1.812
 31
0.0
  0
LINE
  8
DAMAN
  5
C4
 10
-1.15675
 20
-0.781
 30
0.0
 11
-1.15675
 21
-0.937
 31
0.0
  0
LINE
  8
DAMAN
  5
C5
 10
-1.031
 20
-0.71875
 30
0.0
 11
-1.031
 21
-0.46875
 31
0.0
  0
LINE
  8
DAMAN
  5
C6
 10
-0.891
 20
-0.71875
 30
0.0
 11
-0.891
 21
-0.49975
 31
0.0
  0
LINE
  8
DAMAN
  5
C7
 10
-1.125
 20
-0.71875
 30
0.0
 11
-1.125
 21
-0.78125
 31
0.0
  0
LINE
  8
DAMAN
  5
C8
 10
-0.891
 20
-0.49975
 30
0.0
 11
-0.891
 21
-0.46875
 31
0.0
  0
LINE
  8
DAMAN
  5
C9
 10
-0.546
 20
-0.71875
 30
0.0
 11
-0.546
 21
-0.49975
 31
0.0
  0
LINE
  8
DAMAN
  5
CA
 10
-0.546
 20
-0.49975
 30
0.0
 11
-0.546
 21
-0.46875
 31
0.0
  0
LINE
  8
DAMAN
  5
CB
 10
-0.25
 20
-0.312
 30
0.0
 11
-0.25
 21
0.313
 31
0.0
  0
LINE
  8
DAMAN
  5
CC
 10
0.0
 20
0.406
 30
0.0
 11
0.0
 21
-0.406
 31
0.0
  0
LINE
  8
DAMAN
  5
CD
 10
0.0625
 20
-0.406
 30
0.0
 11
0.062
 21
0.406
 31
0.0
  0
LINE
  8
DAMAN
  5
CE
 10
0.06225
 20
0.438
 30
0.0
 11
0.06225
 21
-0.531
 31
0.0
  0
LINE
  8
DAMAN
  5
CF
 10
0.21825
 20
-0.531
 30
0.0
 11
0.21825
 21
0.438
 31
0.0
  0
ARC
  8
DAMAN
  5
D0
 10
-0.18775
 20
-0.531
 30
0.0
 40
0.406
 50
270.0
 51
0.0
  0
LINE
  8
DAMAN
  5
D1
 10
0.0
 20
-0.406
 30
0.0
 11
0.0625
 21
-0.406
 31
0.0
  0
ARC
  8
DAMAN
  5
D2
 10
-0.18775
 20
-0.531
 30
0.0
 40
0.25
 50
270.0
 51
0.0
  0
LINE
  8
DAMAN
  5
D3
 10
-0.406
 20
-0.46875
 30
0.0
 11
-0.406
 21
-0.71875
 31
0.0
  0
LINE
  8
DAMAN
  5
D4
 10
-0.313
 20
-0.78075
 30
0.0
 11
-0.313
 21
-0.71875
 31
0.0
  0
LINE
  8
DAMAN
  5
D5
 10
0.0
 20
-0.312
 30
0.0
 11
-0.25
 21
-0.312
 31
0.0
  0
LINE
  8
DAMAN
  5
D6
 10
-0.219
 20
-0.172
 30
0.0
 11
-0.25
 21
-0.172
 31
0.0
  0
LINE
  8
DAMAN
  5
D7
 10
0.0
 20
-0.172
 30
0.0
 11
-0.219
 21
-0.172
 31
0.0
  0
LINE
  8
DAMAN
  5
D8
 10
-0.219
 20
0.173
 30
0.0
 11
-0.25
 21
0.173
 31
0.0
  0
LINE
  8
DAMAN
  5
D9
 10
0.0
 20
0.173
 30
0.0
 11
-0.219
 21
0.173
 31
0.0
  0
LINE
  8
DAMAN
  5
DA
 10
0.062
 20
0.406
 30
0.0
 11
0.0
 21
0.406
 31
0.0
  0
LINE
  8
DAMAN
  5
DB
 10
-0.25
 20
0.313
 30
0.0
 11
0.0
 21
0.313
 31
0.0
  0
LINE
  8
DAMAN
  5
DC
 10
0.21825
 20
0.438
 30
0.0
 11
0.06225
 21
0.438
 31
0.0
  0
ENDBLK
  8
0
  5
DD
  0
BLOCK
  8
0
  5
16C
  2
D05H
 70
     0
 10
0.0
 20
0.0
 30
0.0
  3
D05H
  0
INSERT
  8
DAMAN
  5
16D
  2
D05
 10
5.03125
 20
5.71875
 30
0.0
  0
CIRCLE
  8
DAMAN
  5
16E
 10
5.12525
 20
6.15675
 30
0.0
 40
0.094
  0
INSERT
  8
DAMAN
  5
16F
  2
100CROSS
 10
5.12525
 20
6.15675
 30
0.0
 41
0.25
 42
0.25
 43
0.0
  0
CIRCLE
  8
DAMAN
  5
170
 10
6.75025
 20
3.15675
 30
0.0
 40
0.094
  0
INSERT
  8
DAMAN
  5
171
  2
100CROSS
 10
6.75025
 20
3.15675
 30
0.0
 41
0.25
 42
0.25
 43
0.0
  0
ENDBLK
  8
0
  5
172
  0
BLOCK
  8
0
  5
154
  2
D05
 70
    64
 10
0.0
 20
0.0
 30
0.0
  3
D05
  0
CIRCLE
  8
DAMAN
  6
HIDDEN
  5
155
 10
1.8125
 20
0.0
 30
0.0
 40
0.125
  0
CIRCLE
  8
DAMAN
  6
HIDDEN
  5
156
 10
1.8125
 20
-2.125
 30
0.0
 40
0.125
  0
CIRCLE
  8
DAMAN
  6
HIDDEN
  5
157
 10
0.0
 20
0.0
 30
0.0
 40
0.125
  0
CIRCLE
  8
DAMAN
  6
HIDDEN
  5
158
 10
0.0
 20
-2.125
 30
0.0
 40
0.125
  0
INSERT
  8
DAMAN
  5
159
  2
100CROSS
 10
0.0
 20
0.0
 30
0.0
 41
0.25
 42
0.25
 43
0.0
  0
CIRCLE
  8
DAMAN
  5
15A
 10
0.0
 20
0.0
 30
0.0
 40
0.1055
  0
CIRCLE
  8
DAMAN
  5
15B
 10
0.0
 20
-2.125
 30
0.0
 40
0.1055
  0
INSERT
  8
DAMAN
  5
15C
  2
100CROSS
 10
0.0
 20
-2.125
 30
0.0
 41
0.25
 42
0.25
 43
0.0
  0
CIRCLE
  8
DAMAN
  5
15D
 10
1.8125
 20
0.0
 30
0.0
 40
0.1055
  0
INSERT
  8
DAMAN
  5
15E
  2
100CROSS
 10
1.8125
 20
0.0
 30
0.0
 41
0.25
 42
0.25
 43
0.0
  0
CIRCLE
  8
DAMAN
  5
15F
 10
1.8125
 20
-2.125
 30
0.0
 40
0.1055
  0
INSERT
  8
DAMAN
  5
160
  2
100CROSS
 10
1.8125
 20
-2.125
 30
0.0
 41
0.25
 42
0.25
 43
0.0
  0
INSERT
  8
DAMAN
  5
161
  2
100CROSS
 10
0.531
 20
-0.125
 30
0.0
 41
0.438
 42
0.438
 43
0.0
  0
CIRCLE
  8
DAMAN
  5
162
 10
0.531
 20
-0.125
 30
0.0
 40
0.21875
  0
CIRCLE
  8
DAMAN
  5
163
 10
0.9685
 20
-0.656
 30
0.0
 40
0.21875
  0
INSERT
  8
DAMAN
  5
164
  2
100CROSS
 10
0.9685
 20
-0.656
 30
0.0
 41
0.438
 42
0.438
 43
0.0
  0
INSERT
  8
DAMAN
  5
165
  2
100CROSS
 10
0.9685
 20
-1.4685
 30
0.0
 41
0.438
 42
0.438
 43
0.0
  0
CIRCLE
  8
DAMAN
  5
166
 10
0.9685
 20
-1.4685
 30
0.0
 40
0.21875
  0
CIRCLE
  8
DAMAN
  5
167
 10
1.5625
 20
-1.06225
 30
0.0
 40
0.21875
  0
INSERT
  8
DAMAN
  5
168
  2
100CROSS
 10
1.5625
 20
-1.06225
 30
0.0
 41
0.438
 42
0.438
 43
0.0
  0
ENDBLK
  8
0
  5
169
  0
BLOCK
  8
0
  5
FB
  2
075NPTFT
 70
    64
 10
0.0
 20
0.0
 30
0.0
  3
075NPTFT
  0
INSERT
  8
DAMAN
  5
FC
  2
750NPTFT
 10
-6.410893
 20
-4.555543
 30
0.0
  0
ENDBLK
  8
0
  5
FD
  0
BLOCK
  8
0
  5
FE
  2
750NPTFT
 70
    64
 10
0.0
 20
0.0
 30
0.0
  3
750NPTFT
  0
INSERT
  8
DAMAN
 62
     5
  5
FF
  2
100CROSS
 10
6.410893
 20
4.555543
 30
0.0
 41
0.98
 42
0.98
 43
0.0
  0
CIRCLE
  8
DAMAN
 62
     5
  5
100
 10
6.410893
 20
4.555543
 30
0.0
 40
0.491067
  0
CIRCLE
  8
DAMAN
 62
     5
  5
101
 10
6.410893
 20
4.555543
 30
0.0
 40
0.453
  0
CIRCLE
  8
DAMAN
 62
     5
  5
102
 10
6.410893
 20
4.555543
 30
0.0
 40
0.53125
  0
ENDBLK
  8
0
  5
103
  0
BLOCK
  8
0
  5
104
  2
100NPTFT
 70
    64
 10
0.0
 20
0.0
 30
0.0
  3
100NPTFT
  0
CIRCLE
  8
DAMAN
  5
105
 10
0.0
 20
0.0
 30
0.0
 40
0.5625
  0
CIRCLE
  8
DAMAN
  5
106
 10
0.0
 20
0.0
 30
0.0
 40
0.672
  0
INSERT
  8
DAMAN
  5
107
  2
100CROSS
 10
0.0
 20
0.0
 30
0.0
 41
1.2
 42
1.2
 43
0.0
  0
CIRCLE
  8
DAMAN
  5
108
 10
0.0
 20
0.0
 30
0.0
 40
0.625
  0
ENDBLK
  8
0
  5
109
  0
BLOCK
  8
0
  5
10A
  2
025NPTFT
 70
    64
 10
0.0
 20
0.0
 30
0.0
  3
025NPTFT
  0
INSERT
  8
DAMAN
  5
10B
  2
250NPTFT
 10
0.0
 20
0.0
 30
0.0
  0
ENDBLK
  8
0
  5
10C
  0
BLOCK
  8
0
  5
10D
  2
250NPTFT
 70
    64
 10
0.0
 20
0.0
 30
0.0
  3
250NPTFT
  0
CIRCLE
  8
DAMAN
  5
10E
 10
0.0
 20
0.0
 30
0.0
 40
0.273
  0
CIRCLE
  8
DAMAN
  5
10F
 10
0.0
 20
0.0
 30
0.0
 40
0.211
  0
INSERT
  8
DAMAN
  5
110
  2
100CROSS
 10
0.0
 20
0.0
 30
0.0
 41
0.422
 42
0.422
 43
0.0
  0
CIRCLE
  8
DAMAN
  5
111
 10
0.0
 20
0.0
 30
0.0
 40
0.242251
  0
POINT
  8
CHIDDEN
  5
112
 10
-0.087928
 20
0.191806
 30
0.0
  0
POINT
  8
CHIDDEN
  5
113
 10
-0.137717
 20
-0.15986
 30
0.0
  0
POINT
  8
CHIDDEN
  5
114
 10
0.202707
 20
-0.058572
 30
0.0
  0
ENDBLK
  8
0
  5
115
  0
BLOCK
  8
0
  5
116
  2
038NPTFT
 70
    64
 10
0.0
 20
0.0
 30
0.0
  3
038NPTFT
  0
INSERT
  8
DAMAN
  5
117
  2
375NPTFT
 10
0.0
 20
0.0
 30
0.0
  0
ENDBLK
  8
0
  5
118
  0
BLOCK
  8
0
  5
119
  2
375NPTFT
 70
    64
 10
0.0
 20
0.0
 30
0.0
  3
375NPTFT
  0
INSERT
  8
DAMAN
  5
11A
  2
100CROSS
 10
0.0
 20
0.0
 30
0.0
 41
0.68
 42
0.68
 43
0.0
  0
CIRCLE
  8
DAMAN
  5
11B
 10
0.0
 20
0.0
 30
0.0
 40
0.3125
  0
CIRCLE
  8
DAMAN
  5
11C
 10
0.0
 20
0.0
 30
0.0
 40
0.281
  0
CIRCLE
  8
DAMAN
  5
11D
 10
0.0
 20
0.0
 30
0.0
 40
0.344
  0
ENDBLK
  8
0
  5
11E
  0
BLOCK
  8
0
  5
11F
  2
C102T
 70
     0
 10
0.0
 20
0.0
 30
0.0
  3
C102T
  0
CIRCLE
  8
DAMAN
  5
120
 10
0.0
 20
0.0
 30
0.0
 40
0.406
  0
INSERT
  8
DAMAN
  5
121
  2
100CROSS
 10
0.0
 20
0.0
 30
0.0
 41
1.2
 42
1.2
 43
0.0
  0
CIRCLE
  8
DAMAN
  5
122
 10
0.0
 20
0.0
 30
0.0
 40
0.594
  0
CIRCLE
  8
DAMAN
  6
HIDDEN
  5
123
 10
0.0
 20
0.0
 30
0.0
 40
0.4375
  0
CIRCLE
  8
DAMAN
  5
124
 10
0.0
 20
0.0
 30
0.0
 40
0.4725
  0
CIRCLE
  8
DAMAN
  5
125
 10
0.0
 20
0.0
 30
0.0
 40
0.3125
  0
ENDBLK
  8
0
  5
126
  0
BLOCK
  8
0
  5
127
  2
T3AT
 70
     0
 10
0.0
 20
0.0
 30
0.0
  3
T3AT
  0
CIRCLE
  8
DAMAN
  5
128
 10
0.0
 20
0.0
 30
0.0
 40
0.4665
  0
CIRCLE
  8
DAMAN
  5
129
 10
0.0
 20
0.0
 30
0.0
 40
0.4375
  0
CIRCLE
  8
DAMAN
  6
HIDDEN
  5
12A
 10
0.0
 20
0.0
 30
0.0
 40
0.5
  0
INSERT
  8
DAMAN
  5
12B
  2
100CROSS
 10
0.0
 20
0.0
 30
0.0
 41
0.88
 42
0.88
  0
CIRCLE
  8
DAMAN
  5
12C
 10
0.0
 20
0.0
 30
0.0
 40
0.516
  0
CIRCLE
  8
DAMAN
  5
12D
 10
0.0
 20
0.0
 30
0.0
 40
0.539
  0
CIRCLE
  8
DAMAN
  5
12E
 10
0.0
 20
0.0
 30
0.0
 40
0.344
  0
ENDBLK
  8
0
  5
12F
  0
BLOCK
  8
0
  5
130
  2
D05HE
 70
     0
 10
0.0
 20
0.0
 30
0.0
  3
D05HE
  0
INSERT
  8
DAMAN
  5
131
  2
100CROSS
 10
6.40625
 20
3.28175
 30
0.0
 41
0.25
 42
0.25
 43
0.0
  0
CIRCLE
  8
DAMAN
  6
HIDDEN
  5
132
 10
6.84375
 20
5.71875
 30
0.0
 40
0.125
  0
CIRCLE
  8
DAMAN
  6
HIDDEN
  5
133
 10
6.84375
 20
3.59375
 30
0.0
 40
0.125
  0
CIRCLE
  8
DAMAN
  6
HIDDEN
  5
134
 10
5.03125
 20
5.71875
 30
0.0
 40
0.125
  0
CIRCLE
  8
DAMAN
  6
HIDDEN
  5
135
 10
5.03125
 20
3.59375
 30
0.0
 40
0.125
  0
INSERT
  8
DAMAN
  5
136
  2
100CROSS
 10
5.03125
 20
5.71875
 30
0.0
 41
0.25
 42
0.25
 43
0.0
  0
CIRCLE
  8
DAMAN
  5
137
 10
5.03125
 20
5.71875
 30
0.0
 40
0.1055
  0
CIRCLE
  8
DAMAN
  5
138
 10
5.03125
 20
3.59375
 30
0.0
 40
0.1055
  0
INSERT
  8
DAMAN
  5
139
  2
100CROSS
 10
5.03125
 20
3.59375
 30
0.0
 41
0.25
 42
0.25
 43
0.0
  0
CIRCLE
  8
DAMAN
  5
13A
 10
6.84375
 20
5.71875
 30
0.0
 40
0.1055
  0
INSERT
  8
DAMAN
  5
13B
  2
100CROSS
 10
6.84375
 20
5.71875
 30
0.0
 41
0.25
 42
0.25
 43
0.0
  0
CIRCLE
  8
DAMAN
  5
13C
 10
6.84375
 20
3.59375
 30
0.0
 40
0.1055
  0
INSERT
  8
DAMAN
  5
13D
  2
100CROSS
 10
6.84375
 20
3.59375
 30
0.0
 41
0.25
 42
0.25
 43
0.0
  0
INSERT
  8
DAMAN
  5
13E
  2
100CROSS
 10
5.56225
 20
5.59375
 30
0.0
 41
0.438
 42
0.438
 43
0.0
  0
CIRCLE
  8
DAMAN
  5
13F
 10
5.56225
 20
5.59375
 30
0.0
 40
0.21875
  0
CIRCLE
  8
DAMAN
  5
140
 10
5.99975
 20
5.06275
 30
0.0
 40
0.21875
  0
INSERT
  8
DAMAN
  5
141
  2
100CROSS
 10
5.99975
 20
5.06275
 30
0.0
 41
0.438
 42
0.438
 43
0.0
  0
INSERT
  8
DAMAN
  5
142
  2
100CROSS
 10
5.99975
 20
4.25025
 30
0.0
 41
0.438
 42
0.438
 43
0.0
  0
CIRCLE
  8
DAMAN
  5
143
 10
5.99975
 20
4.25025
 30
0.0
 40
0.21875
  0
CIRCLE
  8
DAMAN
  5
144
 10
6.59375
 20
4.6565
 30
0.0
 40
0.21875
  0
INSERT
  8
DAMAN
  5
145
  2
100CROSS
 10
6.59375
 20
4.6565
 30
0.0
 41
0.438
 42
0.438
 43
0.0
  0
CIRCLE
  8
DAMAN
  5
146
 10
5.56225
 20
3.71925
 30
0.0
 40
0.21875
  0
INSERT
  8
DAMAN
  5
147
  2
100CROSS
 10
5.56225
 20
3.71925
 30
0.0
 41
-0.438
 42
0.438
 50
180.0
 43
0.0
  0
CIRCLE
  8
DAMAN
  5
148
 10
6.40625
 20
3.28175
 30
0.0
 40
0.136
  0
CIRCLE
  8
DAMAN
  5
149
 10
6.40625
 20
6.03125
 30
0.0
 40
0.136
  0
INSERT
  8
DAMAN
  5
14A
  2
100CROSS
 10
6.40625
 20
6.03125
 30
0.0
 41
-0.25
 42
0.25
 50
180.0
 43
0.0
  0
ENDBLK
  8
0
  5
14B
  0
BLOCK
  8
0
  5
17D
  2
12SAET
 70
    64
 10
0.0
 20
0.0
 30
0.0
  3
12SAET
  0
CIRCLE
  8
DAMAN
  5
17E
 10
0.0
 20
0.0
 30
0.0
 40
0.53125
  0
INSERT
  8
DAMAN
  5
17F
  2
100CROSS
 10
0.0
 20
0.0
 30
0.0
 41
1.33
 42
1.33
 43
0.0
  0
CIRCLE
  8
DAMAN
  5
180
 10
0.0
 20
0.0
 30
0.0
 40
0.8125
  0
CIRCLE
  8
DAMAN
  5
181
 10
0.0
 20
0.0
 30
0.0
 40
0.453
  0
CIRCLE
  8
DAMAN
  5
182
 10
0.0
 20
0.0
 30
0.0
 40
0.492
  0
ENDBLK
  8
0
  5
183
  0
BLOCK
  8
0
  5
185
  2
16SAET
 70
    64
 10
0.0
 20
0.0
 30
0.0
  3
16SAET
  0
CIRCLE
  8
DAMAN
  5
186
 10
0.0
 20
0.0
 30
0.0
 40
0.6125
  0
CIRCLE
  8
DAMAN
  5
187
 10
0.0
 20
0.0
 30
0.0
 40
0.562
  0
CIRCLE
  8
DAMAN
  5
188
 10
0.0
 20
0.0
 30
0.0
 40
1.0
  0
INSERT
  8
DAMAN
  5
189
  2
100CROSS
 10
0.0
 20
0.0
 30
0.0
 41
1.6
 42
1.6
 43
0.0
  0
CIRCLE
  8
DAMAN
  5
18A
 10
0.0
 20
0.0
 30
0.0
 40
0.65625
  0
ENDBLK
  8
0
  5
18B
  0
BLOCK
  8
0
  5
18D
  2
06SAET
 70
    64
 10
0.0
 20
0.0
 30
0.0
  3
06SAET
  0
INSERT
  8
DAMAN
  5
18E
  2
100CROSS
 10
0.0
 20
0.0
 30
0.0
 43
0.0
  0
CIRCLE
  8
DAMAN
  5
18F
 10
0.0
 20
0.0
 30
0.0
 40
0.28125
  0
CIRCLE
  8
DAMAN
  5
190
 10
0.0
 20
0.0
 30
0.0
 40
0.5
  0
CIRCLE
  8
DAMAN
  5
191
 10
0.0
 20
0.0
 30
0.0
 40
0.25
  0
ENDBLK
  8
0
  5
192
  0
ENDSEC
  0
SECTION
  2
ENTITIES
  0
LINE
  8
DAMAN
  5
1
 10
1.0
 20
6.0
 30
0.0
 11
5.0
 21
6.0
 31
0.0
  0
LINE
  8
DAMAN
  5
2
 10
5.0
 20
6.0
 30
0.0
 11
5.0
 21
11.0
 31
0.0
  0
LINE
  8
DAMAN
  5
3
 10
5.0
 20
11.0
 30
0.0
 11
1.0
 21
11.0
 31
0.0
  0
LINE
  8
DAMAN
  6
HIDDEN
  5
4
 10
1.0
 20
11.0
 30
0.0
 11
1.0
 21
6.0
 31
0.0
  0
LINE
  8
DAMAN
  5
5
 10
7.0
 20
6.0
 30
0.0
 11
13.5
 21
6.0
 31
0.0
  0
LINE
  8
DAMAN
  5
6
 10
13.5
 20
6.0
 30
0.0
 11
13.5
 21
11.0
 31
0.0
  0
LINE
  8
DAMAN
  5
7
 10
13.5
 20
11.0
 30
0.0
 11
7.0
 21
11.0
 31
0.0
  0
LINE
  8
DAMAN
  5
8
 10
7.0
 20
11.0
 30
0.0
 11
7.0
 21
6.0
 31
0.0
  0
LINE
  8
DAMAN
  6
HIDDEN
  5
9
 10
19.5
 20
11.0
 30
0.0
 11
19.5
 21
6.0
 31
0.0
  0
LINE
  8
DAMAN
  5
A
 10
15.5
 20
6.0
 30
0.0
 11
15.5
 21
11.0
 31
0.0
  0
LINE
  8
DAMAN
  5
B
 10
19.5
 20
6.0
 30
0.0
 11
15.5
 21
6.0
 31
0.0
  0
LINE
  8
DAMAN
  5
C
 10
15.5
 20
11.0
 30
0.0
 11
19.5
 21
11.0
 31
0.0
  0
LINE
  8
DAMAN
  5
11
 10
13.5
 20
5.0
 30
0.0
 11
7.0
 21
5.0
 31
0.0
  0
LINE
  8
DAMAN
  5
12
 10
7.0
 20
1.0
 30
0.0
 11
13.5
 21
1.0
 31
0.0
  0
LINE
  8
DAMAN
  5
13
 10
7.0
 20
5.0
 30
0.0
 11
7.0
 21
1.0
 31
0.0
  0
LINE
  8
DAMAN
  5
14
 10
13.5
 20
1.0
 30
0.0
 11
13.5
 21
5.0
 31
0.0
  0
INSERT
  8
DAMAN
  5
15
  2
500MKT
 10
20.062
 20
11.0
 30
0.0
  0
INSERT
  8
DAMAN
  5
16
  2
500MKT
 10
0.438
 20
6.0
 30
0.0
 50
180.0
  0
INSERT
  8
DAMAN
  5
17
  2
500MKCT
 10
7.0
 20
11.0
 30
0.0
  0
INSERT
  8
DAMAN
  5
18
  2
500MKCT
 10
13.5
 20
6.0
 30
0.0
 50
180.0
  0
INSERT
  8
DAMAN
  5
19
  2
500MKS
 10
6.78175
 20
1.375
 30
0.0
  0
INSERT
  8
DAMAN
  5
1A
  2
500MKS
 10
13.71825
 20
1.375
 30
0.0
 41
-1.0
  0
TEXT
  8
DAMAN
  5
27
 10
3.65625
 20
8.5
 30
0.0
 40
0.2
  1
P
 50
270.0
  0
TEXT
  8
DAMAN
  5
28
 10
16.75
 20
10.59375
 30
0.0
 40
0.2
  1
T
 50
90.0
  0
TEXT
  8
DAMAN
  5
2A
 10
9.5
 20
4.6875
 30
0.0
 40
0.2
  1
B
  0
TEXT
  8
DAMAN
  5
2B
 10
9.125
 20
2.6875
 30
0.0
 40
0.2
  1
A
  0
TEXT
  8
DAMAN
  5
2C
 10
12.75
 20
4.6875
 30
0.0
 40
0.2
  1
B
  0
TEXT
  8
DAMAN
  5
2D
 10
12.75
 20
2.6875
 30
0.0
 40
0.2
  1
A
  0
TEXT
  8
DAMAN
  5
2E
 10
10.21875
 20
2.78125
 30
0.0
 40
0.2
  1
GA
  0
TEXT
  8
DAMAN
  5
2F
 10
9.375
 20
3.5625
 30
0.0
 40
0.18
  1
DAMAN ****
  0
INSERT
  8
DAMAN
  5
16A
  2
D05
 10
7.7185
 20
9.43725
 30
0.0
  0
INSERT
  8
DAMAN
  5
16B
  2
D05
 10
10.9685
 20
9.43725
 30
0.0
  0
INSERT
  8
DAMAN
  5
184
  2
12SAET
 10
3.0
 20
7.938
 30
0.0
  0
INSERT
  8
DAMAN
  5
18C
  2
16SAET
 10
17.5
 20
9.81275
 30
0.0
  0
INSERT
  8
DAMAN
  5
197
  2
06SAET
 10
9.813
 20
2.5
 30
0.0
  0
INSERT
  8
DAMAN
  5
198
  2
12SAET
 10
8.562
 20
4.125
 30
0.0
  0
INSERT
  8
DAMAN
  5
199
  2
12SAET
 10
8.562
 20
1.875
 30
0.0
  0
INSERT
  8
DAMAN
  5
19A
  2
12SAET
 10
11.812
 20
4.125
 30
0.0
  0
INSERT
  8
DAMAN
  5
19B
  2
12SAET
 10
11.812
 20
1.875
 30
0.0
  0
ENDSEC
  0
EOF
