  0
SECTION
  2
HEADER
  9
$ACADVER
  1
AC1009
  9
$INSBASE
 10
0.0
 20
0.0
 30
0.0
  9
$EXTMIN
 10
-0.562
 20
-0.562
 30
0.0
  9
$EXTMAX
 10
30.812
 20
17.562
 30
0.0
  9
$LIMMIN
 10
0.0
 20
0.0
  9
$LIMMAX
 10
12.0
 20
9.0
  9
$ORTHOMODE
 70
     1
  9
$REGENMODE
 70
     1
  9
$FILLMODE
 70
     1
  9
$QTEXTMODE
 70
     0
  9
$MIRRTEXT
 70
     1
  9
$DRAGMODE
 70
     2
  9
$LTSCALE
 40
1.0
  9
$OSMODE
 70
     0
  9
$ATTMODE
 70
     1
  9
$TEXTSIZE
 40
0.2
  9
$TRACEWID
 40
0.05
  9
$TEXTSTYLE
  7
STANDARD
  9
$CLAYER
  8
DAMAN
  9
$CELTYPE
  6
BYLAYER
  9
$CECOLOR
 62
   256
  9
$DIMSCALE
 40
1.0
  9
$DIMASZ
 40
0.18
  9
$DIMEXO
 40
0.0625
  9
$DIMDLI
 40
0.38
  9
$DIMRND
 40
0.0
  9
$DIMDLE
 40
0.0
  9
$DIMEXE
 40
0.18
  9
$DIMTP
 40
0.0
  9
$DIMTM
 40
0.0
  9
$DIMTXT
 40
0.18
  9
$DIMCEN
 40
0.09
  9
$DIMTSZ
 40
0.0
  9
$DIMTOL
 70
     0
  9
$DIMLIM
 70
     0
  9
$DIMTIH
 70
     1
  9
$DIMTOH
 70
     1
  9
$DIMSE1
 70
     0
  9
$DIMSE2
 70
     0
  9
$DIMTAD
 70
     0
  9
$DIMZIN
 70
     0
  9
$DIMBLK
  1

  9
$DIMASO
 70
     1
  9
$DIMSHO
 70
     1
  9
$DIMPOST
  1

  9
$DIMAPOST
  1

  9
$DIMALT
 70
     0
  9
$DIMALTD
 70
     2
  9
$DIMALTF
 40
25.4
  9
$DIMLFAC
 40
1.0
  9
$DIMTOFL
 70
     0
  9
$DIMTVP
 40
0.0
  9
$DIMTIX
 70
     0
  9
$DIMSOXD
 70
     0
  9
$DIMSAH
 70
     0
  9
$DIMBLK1
  1

  9
$DIMBLK2
  1

  9
$DIMSTYLE
  2
*UNNAMED
  9
$DIMCLRD
 70
     0
  9
$DIMCLRE
 70
     0
  9
$DIMCLRT
 70
     0
  9
$DIMTFAC
 40
1.0
  9
$DIMGAP
 40
0.09
  9
$LUNITS
 70
     2
  9
$LUPREC
 70
     4
  9
$SKETCHINC
 40
0.1
  9
$FILLETRAD
 40
0.0
  9
$AUNITS
 70
     0
  9
$AUPREC
 70
     0
  9
$MENU
  1
tom
  9
$ELEVATION
 40
0.0
  9
$PELEVATION
 40
0.0
  9
$THICKNESS
 40
0.0
  9
$LIMCHECK
 70
     0
  9
$BLIPMODE
 70
     1
  9
$CHAMFERA
 40
0.0
  9
$CHAMFERB
 40
0.0
  9
$SKPOLY
 70
     0
  9
$TDCREATE
 40
2449804.288010289
  9
$TDUPDATE
 40
2449804.288010289
  9
$TDINDWG
 40
0.0000000000
  9
$TDUSRTIMER
 40
0.0000000000
  9
$USRTIMER
 70
     1
  9
$ANGBASE
 50
0.0
  9
$ANGDIR
 70
     0
  9
$PDMODE
 70
     0
  9
$PDSIZE
 40
0.0
  9
$PLINEWID
 40
0.0
  9
$COORDS
 70
     1
  9
$SPLFRAME
 70
     0
  9
$SPLINETYPE
 70
     6
  9
$SPLINESEGS
 70
     8
  9
$ATTDIA
 70
     0
  9
$ATTREQ
 70
     1
  9
$HANDLING
 70
     0
  9
$HANDSEED
  5
0
  9
$SURFTAB1
 70
     6
  9
$SURFTAB2
 70
     6
  9
$SURFTYPE
 70
     6
  9
$SURFU
 70
     6
  9
$SURFV
 70
     6
  9
$UCSNAME
  2

  9
$UCSORG
 10
0.0
 20
0.0
 30
0.0
  9
$UCSXDIR
 10
1.0
 20
0.0
 30
0.0
  9
$UCSYDIR
 10
0.0
 20
1.0
 30
0.0
  9
$PUCSNAME
  2

  9
$PUCSORG
 10
0.0
 20
0.0
 30
0.0
  9
$PUCSXDIR
 10
1.0
 20
0.0
 30
0.0
  9
$PUCSYDIR
 10
0.0
 20
1.0
 30
0.0
  9
$USERI1
 70
     0
  9
$USERI2
 70
     0
  9
$USERI3
 70
     0
  9
$USERI4
 70
     0
  9
$USERI5
 70
     0
  9
$USERR1
 40
0.0
  9
$USERR2
 40
0.0
  9
$USERR3
 40
0.0
  9
$USERR4
 40
0.0
  9
$USERR5
 40
0.0
  9
$WORLDVIEW
 70
     1
  9
$SHADEDGE
 70
     3
  9
$SHADEDIF
 70
    70
  9
$TILEMODE
 70
     1
  9
$MAXACTVP
 70
    16
  9
$PINSBASE
 10
0.0
 20
0.0
 30
0.0
  9
$PLIMCHECK
 70
     0
  9
$PEXTMIN
 10
1.000000E+20
 20
1.000000E+20
 30
1.000000E+20
  9
$PEXTMAX
 10
-1.000000E+20
 20
-1.000000E+20
 30
-1.000000E+20
  9
$PLIMMIN
 10
0.0
 20
0.0
  9
$PLIMMAX
 10
12.0
 20
9.0
  9
$UNITMODE
 70
     0
  9
$VISRETAIN
 70
     0
  9
$PLINEGEN
 70
     0
  9
$PSLTSCALE
 70
     1
  9
$TREEDEPTH
 70
  3020
  9
$DWGCODEPAGE
  3
ascii
  0
ENDSEC
  0
SECTION
  2
TABLES
  0
TABLE
  2
VPORT
 70
     2
  0
VPORT
  2
*ACTIVE
 70
     0
 10
0.0
 20
0.0
 11
1.0
 21
1.0
 12
15.125
 22
10.924738
 13
0.0
 23
0.0
 14
0.03125
 24
0.03125
 15
0.0
 25
0.0
 16
0.0
 26
0.0
 36
1.0
 17
0.0
 27
0.0
 37
0.0
 40
22.973476
 41
1.365662
 42
50.0
 43
0.0
 44
0.0
 50
0.0
 51
0.0
 71
     0
 72
   100
 73
     1
 74
     1
 75
     1
 76
     0
 77
     0
 78
     0
  0
ENDTAB
  0
TABLE
  2
LTYPE
 70
     5
  0
LTYPE
  2
CONTINUOUS
 70
    64
  3
Solid line
 72
    65
 73
     0
 40
0.0
  0
LTYPE
  2
HIDDEN
 70
    64
  3
_ _ _ _ _ _ _ _ _ _ _ _ _ _ _ _ _ _ _ _ _ _ _
 72
    65
 73
     2
 40
0.375
 49
0.25
 49
-0.125
  0
LTYPE
  2
CENTER
 70
    64
  3
____ _ ____ _ ____ _ ____ _ ____ _ ____ _ ____
 72
    65
 73
     4
 40
2.0
 49
1.25
 49
-0.25
 49
0.25
 49
-0.25
  0
LTYPE
  2
PHANTOM
 70
    64
  3
_____ _ _ _____ _ _ _____ _ _ _____ _ _ ____
 72
    65
 73
     6
 40
2.5
 49
1.25
 49
-0.25
 49
0.25
 49
-0.25
 49
0.25
 49
-0.25
  0
LTYPE
  2
DASHED
 70
     0
  3
__ __ __ __ __ __ __ __ __ __ __ __ __ __ __ __
 72
    65
 73
     2
 40
0.75
 49
0.5
 49
-0.25
  0
ENDTAB
  0
TABLE
  2
LAYER
 70
     8
  0
LAYER
  2
0
 70
    64
 62
     7
  6
CONTINUOUS
  0
LAYER
  2
DAMAN
 70
    64
 62
     5
  6
CONTINUOUS
  0
LAYER
  2
CHIDDEN
 70
    64
 62
     3
  6
HIDDEN
  0
LAYER
  2
CSOLID
 70
    64
 62
     3
  6
CONTINUOUS
  0
LAYER
  2
CCENTER
 70
    64
 62
     4
  6
CENTER
  0
LAYER
  2
PHANTOM
 70
    64
 62
     1
  6
PHANTOM
  0
LAYER
  2
BORDER
 70
    64
 62
     7
  6
CONTINUOUS
  0
LAYER
  2
CDIM
 70
    64
 62
     2
  6
CONTINUOUS
  0
ENDTAB
  0
TABLE
  2
STYLE
 70
     2
  0
STYLE
  2
STANDARD
 70
    64
 40
0.0
 41
1.0
 50
0.0
 71
     0
 42
0.2
  3
txt
  4

  0
STYLE
  2
STR
 70
    64
 40
0.0
 41
1.0
 50
0.0
 71
     0
 42
0.25
  3
SIMPLEX
  4

  0
ENDTAB
  0
TABLE
  2
VIEW
 70
     0
  0
ENDTAB
  0
TABLE
  2
UCS
 70
     0
  0
ENDTAB
  0
TABLE
  2
APPID
 70
     1
  0
APPID
  2
ACAD
 70
    64
  0
ENDTAB
  0
TABLE
  2
DIMSTYLE
 70
     0
  0
ENDTAB
  0
ENDSEC
  0
SECTION
  2
BLOCKS
  0
BLOCK
  8
0
  2
500MKT
 70
    64
 10
0.0
 20
0.0
 30
0.0
  3
500MKT
  0
INSERT
  8
DAMAN
  2
100CROSS
 10
-0.937
 20
-0.437
 30
0.0
 41
0.422
 42
0.422
 43
0.0
  0
LINE
  8
DAMAN
 10
-0.21825
 20
-0.03125
 30
0.0
 11
-0.21825
 21
-0.84325
 31
0.0
  0
LINE
  8
DAMAN
 10
-0.156
 20
-5.0
 30
0.0
 11
-0.156
 21
0.0
 31
0.0
  0
LINE
  8
DAMAN
 10
0.0
 20
-5.0
 30
0.0
 11
0.0
 21
0.0
 31
0.0
  0
LINE
  8
DAMAN
 10
-0.21825
 20
-0.84325
 30
0.0
 11
-0.15575
 21
-0.84325
 31
0.0
  0
LINE
  8
DAMAN
 10
-0.43725
 20
-0.26425
 30
0.0
 11
-0.46825
 21
-0.26425
 31
0.0
  0
LINE
  8
DAMAN
 10
-0.46825
 20
-0.12425
 30
0.0
 11
-0.21825
 21
-0.12425
 31
0.0
  0
LINE
  8
DAMAN
  6
CENTER
 10
-0.75
 20
-0.437
 30
0.0
 11
1.0
 21
-0.437
 31
0.0
  0
LINE
  8
DAMAN
 10
-0.43725
 20
-0.60925
 30
0.0
 11
-0.46825
 21
-0.60925
 31
0.0
  0
LINE
  8
DAMAN
 10
-0.21825
 20
-0.74925
 30
0.0
 11
-0.46825
 21
-0.74925
 31
0.0
  0
LINE
  8
DAMAN
 10
0.0
 20
0.0
 30
0.0
 11
-1.375
 21
0.0
 31
0.0
  0
POLYLINE
  8
DAMAN
 66
     1
 10
0.0
 20
0.0
 30
0.0
 70
     1
  0
VERTEX
  8
DAMAN
 10
-1.2072
 20
-0.593
 30
0.0
  0
VERTEX
  8
DAMAN
 10
-0.937
 20
-0.749
 30
0.0
  0
VERTEX
  8
DAMAN
 10
-0.6668
 20
-0.593
 30
0.0
  0
VERTEX
  8
DAMAN
 10
-0.6668
 20
-0.281
 30
0.0
  0
VERTEX
  8
DAMAN
 10
-0.937
 20
-0.125
 30
0.0
  0
VERTEX
  8
DAMAN
 10
-1.2072
 20
-0.281
 30
0.0
  0
SEQEND
  8
DAMAN
  0
CIRCLE
  8
DAMAN
 10
-0.937
 20
-0.437
 30
0.0
 40
0.265
  0
LINE
  8
DAMAN
 10
-0.46825
 20
-0.74925
 30
0.0
 11
-0.46825
 21
-0.12425
 31
0.0
  0
POINT
  8
CHIDDEN
 10
-0.734293
 20
-0.495572
 30
0.0
  0
LINE
  8
DAMAN
 10
0.0
 20
-0.28025
 30
0.0
 11
0.844
 21
-0.28025
 31
0.0
  0
LINE
  8
DAMAN
 10
0.812
 20
-0.24925
 30
0.0
 11
0.0
 21
-0.24925
 31
0.0
  0
LINE
  8
DAMAN
 10
0.0
 20
-0.59325
 30
0.0
 11
0.844
 21
-0.59325
 31
0.0
  0
LINE
  8
DAMAN
 10
0.0
 20
-0.62425
 30
0.0
 11
0.812
 21
-0.62425
 31
0.0
  0
LINE
  8
DAMAN
 10
-0.21825
 20
-0.60925
 30
0.0
 11
-0.43725
 21
-0.60925
 31
0.0
  0
LINE
  8
DAMAN
 10
-0.15625
 20
-0.03125
 30
0.0
 11
-0.21825
 21
-0.03125
 31
0.0
  0
LINE
  8
DAMAN
 10
-0.21825
 20
-0.26425
 30
0.0
 11
-0.43725
 21
-0.26425
 31
0.0
  0
LINE
  8
DAMAN
 10
0.875
 20
-0.56175
 30
0.0
 11
0.875
 21
-0.31225
 31
0.0
  0
LINE
  8
DAMAN
 10
0.812
 20
-0.62425
 30
0.0
 11
0.875
 21
-0.56175
 31
0.0
  0
LINE
  8
DAMAN
 10
0.875
 20
-0.31225
 30
0.0
 11
0.812
 21
-0.24925
 31
0.0
  0
LINE
  8
DAMAN
 10
-0.46825
 20
-4.24925
 30
0.0
 11
-0.21825
 21
-4.24925
 31
0.0
  0
LINE
  8
DAMAN
 10
-0.43725
 20
-4.38925
 30
0.0
 11
-0.46825
 21
-4.38925
 31
0.0
  0
LINE
  8
DAMAN
  6
CENTER
 10
-0.75
 20
-4.562
 30
0.0
 11
1.0
 21
-4.562
 31
0.0
  0
LINE
  8
DAMAN
 10
-0.46825
 20
-4.87425
 30
0.0
 11
-0.46825
 21
-4.24925
 31
0.0
  0
INSERT
  8
DAMAN
  2
100CROSS
 10
-0.937
 20
-4.562
 30
0.0
 41
0.422
 42
0.422
 43
0.0
  0
POLYLINE
  8
DAMAN
 66
     1
 10
0.0
 20
0.0
 30
0.0
 70
     1
  0
VERTEX
  8
DAMAN
 10
-1.2072
 20
-4.718
 30
0.0
  0
VERTEX
  8
DAMAN
 10
-0.937
 20
-4.874
 30
0.0
  0
VERTEX
  8
DAMAN
 10
-0.6668
 20
-4.718
 30
0.0
  0
VERTEX
  8
DAMAN
 10
-0.6668
 20
-4.406
 30
0.0
  0
VERTEX
  8
DAMAN
 10
-0.937
 20
-4.25
 30
0.0
  0
VERTEX
  8
DAMAN
 10
-1.2072
 20
-4.406
 30
0.0
  0
SEQEND
  8
DAMAN
  0
CIRCLE
  8
DAMAN
 10
-0.937
 20
-4.562
 30
0.0
 40
0.265
  0
POINT
  8
CHIDDEN
 10
-0.734293
 20
-4.620572
 30
0.0
  0
LINE
  8
DAMAN
 10
-0.21825
 20
-4.15625
 30
0.0
 11
-0.21825
 21
-4.96825
 31
0.0
  0
LINE
  8
DAMAN
 10
0.812
 20
-4.37425
 30
0.0
 11
0.0
 21
-4.37425
 31
0.0
  0
LINE
  8
DAMAN
 10
0.0
 20
-4.40525
 30
0.0
 11
0.844
 21
-4.40525
 31
0.0
  0
LINE
  8
DAMAN
 10
-0.21825
 20
-4.38925
 30
0.0
 11
-0.43725
 21
-4.38925
 31
0.0
  0
LINE
  8
DAMAN
 10
0.875
 20
-4.68675
 30
0.0
 11
0.875
 21
-4.43725
 31
0.0
  0
LINE
  8
DAMAN
 10
0.875
 20
-4.43725
 30
0.0
 11
0.812
 21
-4.37425
 31
0.0
  0
LINE
  8
DAMAN
 10
-0.15625
 20
-4.15625
 30
0.0
 11
-0.21825
 21
-4.15625
 31
0.0
  0
LINE
  8
DAMAN
 10
-0.43725
 20
-4.73425
 30
0.0
 11
-0.46825
 21
-4.73425
 31
0.0
  0
LINE
  8
DAMAN
 10
0.0
 20
-4.74925
 30
0.0
 11
0.812
 21
-4.74925
 31
0.0
  0
LINE
  8
DAMAN
 10
0.0
 20
-4.71825
 30
0.0
 11
0.844
 21
-4.71825
 31
0.0
  0
LINE
  8
DAMAN
 10
-0.21825
 20
-4.73425
 30
0.0
 11
-0.43725
 21
-4.73425
 31
0.0
  0
LINE
  8
DAMAN
 10
0.812
 20
-4.74925
 30
0.0
 11
0.875
 21
-4.68675
 31
0.0
  0
LINE
  8
DAMAN
 10
-0.21825
 20
-4.87425
 30
0.0
 11
-0.46825
 21
-4.87425
 31
0.0
  0
LINE
  8
DAMAN
 10
-1.375
 20
-5.0
 30
0.0
 11
0.0
 21
-5.0
 31
0.0
  0
LINE
  8
DAMAN
 10
-0.21825
 20
-4.96825
 30
0.0
 11
-0.15575
 21
-4.96825
 31
0.0
  0
LINE
  8
DAMAN
 10
-1.375
 20
0.0
 30
0.0
 11
-1.375
 21
-5.0
 31
0.0
  0
ENDBLK
  8
0
  0
BLOCK
  8
0
  2
100CROSS
 70
    64
 10
5.625
 20
4.59375
 30
0.0
  3
100CROSS
  0
INSERT
  8
0
  2
050CROSS
 10
5.625
 20
4.59375
 30
0.0
 43
0.0
  0
ENDBLK
  8
0
  0
BLOCK
  8
0
  2
050CROSS
 70
    64
 10
5.0
 20
5.0
 30
0.0
  3
050CROSS
  0
LINE
  8
0
 10
5.0
 20
5.28125
 30
0.0
 11
5.0
 21
5.78125
 31
0.0
  0
LINE
  8
0
 10
5.0
 20
4.875
 30
0.0
 11
5.0
 21
5.125
 31
0.0
  0
LINE
  8
0
 10
5.0
 20
4.15625
 30
0.0
 11
5.0
 21
4.71875
 31
0.0
  0
LINE
  8
0
 10
5.25
 20
5.0
 30
0.0
 11
5.8125
 21
5.0
 31
0.0
  0
LINE
  8
0
 10
4.90625
 20
5.0
 30
0.0
 11
5.09375
 21
5.0
 31
0.0
  0
LINE
  8
0
 10
4.1875
 20
5.0
 30
0.0
 11
4.75
 21
5.0
 31
0.0
  0
ENDBLK
  8
0
  0
BLOCK
  8
0
  2
500MKCT
 70
    64
 10
0.0
 20
0.0
 30
0.0
  3
500MKCT
  0
INSERT
  8
DAMAN
  2
100CROSS
 10
-0.937
 20
-0.437
 30
0.0
 41
0.422
 42
0.422
 43
0.0
  0
LINE
  8
DAMAN
 10
-0.21825
 20
-0.03125
 30
0.0
 11
-0.21825
 21
-0.84325
 31
0.0
  0
LINE
  8
DAMAN
 10
-0.156
 20
-5.0
 30
0.0
 11
-0.156
 21
0.0
 31
0.0
  0
LINE
  8
DAMAN
 10
-1.375
 20
0.0
 30
0.0
 11
-1.375
 21
-5.0
 31
0.0
  0
LINE
  8
DAMAN
 10
0.0
 20
-5.0
 30
0.0
 11
0.0
 21
0.0
 31
0.0
  0
LINE
  8
DAMAN
 10
-0.21825
 20
-4.87425
 30
0.0
 11
-0.46825
 21
-4.87425
 31
0.0
  0
LINE
  8
DAMAN
 10
-0.43725
 20
-4.73425
 30
0.0
 11
-0.46825
 21
-4.73425
 31
0.0
  0
LINE
  8
DAMAN
 10
-0.46825
 20
-4.24925
 30
0.0
 11
-0.21825
 21
-4.24925
 31
0.0
  0
LINE
  8
DAMAN
 10
-0.43725
 20
-4.38925
 30
0.0
 11
-0.46825
 21
-4.38925
 31
0.0
  0
LINE
  8
DAMAN
 10
-1.375
 20
-5.0
 30
0.0
 11
0.0
 21
-5.0
 31
0.0
  0
LINE
  8
DAMAN
 10
-0.46825
 20
-4.87425
 30
0.0
 11
-0.46825
 21
-4.24925
 31
0.0
  0
INSERT
  8
DAMAN
  2
100CROSS
 10
-0.937
 20
-4.562
 30
0.0
 41
0.422
 42
0.422
 43
0.0
  0
POLYLINE
  8
DAMAN
 66
     1
 10
0.0
 20
0.0
 30
0.0
 70
     1
  0
VERTEX
  8
DAMAN
 10
-1.2072
 20
-4.718
 30
0.0
  0
VERTEX
  8
DAMAN
 10
-0.937
 20
-4.874
 30
0.0
  0
VERTEX
  8
DAMAN
 10
-0.6668
 20
-4.718
 30
0.0
  0
VERTEX
  8
DAMAN
 10
-0.6668
 20
-4.406
 30
0.0
  0
VERTEX
  8
DAMAN
 10
-0.937
 20
-4.25
 30
0.0
  0
VERTEX
  8
DAMAN
 10
-1.2072
 20
-4.406
 30
0.0
  0
SEQEND
  8
DAMAN
  0
CIRCLE
  8
DAMAN
 10
-0.937
 20
-4.562
 30
0.0
 40
0.265
  0
POINT
  8
CHIDDEN
 10
-1.074717
 20
-4.72186
 30
0.0
  0
POINT
  8
CHIDDEN
 10
-1.024928
 20
-4.370194
 30
0.0
  0
POINT
  8
CHIDDEN
 10
-0.734293
 20
-4.620572
 30
0.0
  0
LINE
  8
DAMAN
 10
-0.21825
 20
-4.15625
 30
0.0
 11
-0.21825
 21
-4.96825
 31
0.0
  0
LINE
  8
DAMAN
 10
-0.21825
 20
-4.96825
 30
0.0
 11
-0.15575
 21
-4.96825
 31
0.0
  0
LINE
  8
DAMAN
 10
-0.21825
 20
-4.73425
 30
0.0
 11
-0.43725
 21
-4.73425
 31
0.0
  0
LINE
  8
DAMAN
 10
-0.21825
 20
-4.38925
 30
0.0
 11
-0.43725
 21
-4.38925
 31
0.0
  0
LINE
  8
DAMAN
 10
-0.15625
 20
-4.15625
 30
0.0
 11
-0.21825
 21
-4.15625
 31
0.0
  0
LINE
  8
DAMAN
 10
-0.21825
 20
-0.84325
 30
0.0
 11
-0.15575
 21
-0.84325
 31
0.0
  0
LINE
  8
DAMAN
 10
-0.43725
 20
-0.26425
 30
0.0
 11
-0.46825
 21
-0.26425
 31
0.0
  0
LINE
  8
DAMAN
 10
-0.46825
 20
-0.12425
 30
0.0
 11
-0.21825
 21
-0.12425
 31
0.0
  0
LINE
  8
DAMAN
 10
-0.43725
 20
-0.60925
 30
0.0
 11
-0.46825
 21
-0.60925
 31
0.0
  0
LINE
  8
DAMAN
 10
-0.21825
 20
-0.74925
 30
0.0
 11
-0.46825
 21
-0.74925
 31
0.0
  0
LINE
  8
DAMAN
 10
0.0
 20
0.0
 30
0.0
 11
-1.375
 21
0.0
 31
0.0
  0
POLYLINE
  8
DAMAN
 66
     1
 10
0.0
 20
0.0
 30
0.0
 70
     1
  0
VERTEX
  8
DAMAN
 10
-1.2072
 20
-0.593
 30
0.0
  0
VERTEX
  8
DAMAN
 10
-0.937
 20
-0.749
 30
0.0
  0
VERTEX
  8
DAMAN
 10
-0.6668
 20
-0.593
 30
0.0
  0
VERTEX
  8
DAMAN
 10
-0.6668
 20
-0.281
 30
0.0
  0
VERTEX
  8
DAMAN
 10
-0.937
 20
-0.125
 30
0.0
  0
VERTEX
  8
DAMAN
 10
-1.2072
 20
-0.281
 30
0.0
  0
SEQEND
  8
DAMAN
  0
CIRCLE
  8
DAMAN
 10
-0.937
 20
-0.437
 30
0.0
 40
0.265
  0
POINT
  8
CHIDDEN
 10
-1.074717
 20
-0.59686
 30
0.0
  0
POINT
  8
CHIDDEN
 10
-1.024928
 20
-0.245194
 30
0.0
  0
LINE
  8
DAMAN
 10
-0.46825
 20
-0.74925
 30
0.0
 11
-0.46825
 21
-0.12425
 31
0.0
  0
POINT
  8
CHIDDEN
 10
-0.734293
 20
-0.495572
 30
0.0
  0
LINE
  8
DAMAN
 10
-0.21825
 20
-0.60925
 30
0.0
 11
-0.43725
 21
-0.60925
 31
0.0
  0
LINE
  8
DAMAN
 10
-0.15625
 20
-0.03125
 30
0.0
 11
-0.21825
 21
-0.03125
 31
0.0
  0
LINE
  8
DAMAN
 10
-0.21825
 20
-0.26425
 30
0.0
 11
-0.43725
 21
-0.26425
 31
0.0
  0
ENDBLK
  8
0
  0
BLOCK
  8
0
  2
500MKS
 70
    64
 10
0.0
 20
0.0
 30
0.0
  3
500MKS
  0
LINE
  8
DAMAN
 10
-0.313
 20
-0.71875
 30
0.0
 11
-1.125
 21
-0.71875
 31
0.0
  0
LINE
  8
DAMAN
 10
-1.031
 20
-0.46875
 30
0.0
 11
-0.406
 21
-0.46875
 31
0.0
  0
LINE
  8
DAMAN
 10
-0.18775
 20
-0.781
 30
0.0
 11
-1.15675
 21
-0.781
 31
0.0
  0
LINE
  8
DAMAN
 10
-1.15675
 20
-0.937
 30
0.0
 11
-0.18775
 21
-0.937
 31
0.0
  0
LINE
  8
DAMAN
  6
CENTER
 10
-0.71875
 20
-0.187
 30
0.0
 11
-0.71875
 21
-1.937
 31
0.0
  0
LINE
  8
DAMAN
 10
-0.875
 20
-0.937
 30
0.0
 11
-0.875
 21
-1.781
 31
0.0
  0
LINE
  8
DAMAN
 10
-0.562
 20
-0.937
 30
0.0
 11
-0.562
 21
-1.781
 31
0.0
  0
LINE
  8
DAMAN
 10
-0.531
 20
-1.749
 30
0.0
 11
-0.531
 21
-0.937
 31
0.0
  0
LINE
  8
DAMAN
 10
-0.906
 20
-0.937
 30
0.0
 11
-0.906
 21
-1.749
 31
0.0
  0
LINE
  8
DAMAN
 10
-0.906
 20
-1.749
 30
0.0
 11
-0.8435
 21
-1.812
 31
0.0
  0
LINE
  8
DAMAN
 10
-0.594
 20
-1.812
 30
0.0
 11
-0.531
 21
-1.749
 31
0.0
  0
LINE
  8
DAMAN
 10
-0.8435
 20
-1.812
 30
0.0
 11
-0.594
 21
-1.812
 31
0.0
  0
LINE
  8
DAMAN
 10
-1.15675
 20
-0.781
 30
0.0
 11
-1.15675
 21
-0.937
 31
0.0
  0
LINE
  8
DAMAN
 10
-1.031
 20
-0.71875
 30
0.0
 11
-1.031
 21
-0.46875
 31
0.0
  0
LINE
  8
DAMAN
 10
-0.891
 20
-0.71875
 30
0.0
 11
-0.891
 21
-0.49975
 31
0.0
  0
LINE
  8
DAMAN
 10
-1.125
 20
-0.71875
 30
0.0
 11
-1.125
 21
-0.78125
 31
0.0
  0
LINE
  8
DAMAN
 10
-0.891
 20
-0.49975
 30
0.0
 11
-0.891
 21
-0.46875
 31
0.0
  0
LINE
  8
DAMAN
 10
-0.546
 20
-0.71875
 30
0.0
 11
-0.546
 21
-0.49975
 31
0.0
  0
LINE
  8
DAMAN
 10
-0.546
 20
-0.49975
 30
0.0
 11
-0.546
 21
-0.46875
 31
0.0
  0
LINE
  8
DAMAN
 10
-0.25
 20
-0.312
 30
0.0
 11
-0.25
 21
0.313
 31
0.0
  0
LINE
  8
DAMAN
 10
0.0
 20
0.406
 30
0.0
 11
0.0
 21
-0.406
 31
0.0
  0
LINE
  8
DAMAN
 10
0.0625
 20
-0.406
 30
0.0
 11
0.062
 21
0.406
 31
0.0
  0
LINE
  8
DAMAN
 10
0.06225
 20
0.438
 30
0.0
 11
0.06225
 21
-0.531
 31
0.0
  0
LINE
  8
DAMAN
 10
0.21825
 20
-0.531
 30
0.0
 11
0.21825
 21
0.438
 31
0.0
  0
ARC
  8
DAMAN
 10
-0.18775
 20
-0.531
 30
0.0
 40
0.406
 50
270.0
 51
0.0
  0
LINE
  8
DAMAN
 10
0.0
 20
-0.406
 30
0.0
 11
0.0625
 21
-0.406
 31
0.0
  0
ARC
  8
DAMAN
 10
-0.18775
 20
-0.531
 30
0.0
 40
0.25
 50
270.0
 51
0.0
  0
LINE
  8
DAMAN
 10
-0.406
 20
-0.46875
 30
0.0
 11
-0.406
 21
-0.71875
 31
0.0
  0
LINE
  8
DAMAN
 10
-0.313
 20
-0.78075
 30
0.0
 11
-0.313
 21
-0.71875
 31
0.0
  0
LINE
  8
DAMAN
 10
0.0
 20
-0.312
 30
0.0
 11
-0.25
 21
-0.312
 31
0.0
  0
LINE
  8
DAMAN
 10
-0.219
 20
-0.172
 30
0.0
 11
-0.25
 21
-0.172
 31
0.0
  0
LINE
  8
DAMAN
 10
0.0
 20
-0.172
 30
0.0
 11
-0.219
 21
-0.172
 31
0.0
  0
LINE
  8
DAMAN
 10
-0.219
 20
0.173
 30
0.0
 11
-0.25
 21
0.173
 31
0.0
  0
LINE
  8
DAMAN
 10
0.0
 20
0.173
 30
0.0
 11
-0.219
 21
0.173
 31
0.0
  0
LINE
  8
DAMAN
 10
0.062
 20
0.406
 30
0.0
 11
0.0
 21
0.406
 31
0.0
  0
LINE
  8
DAMAN
 10
-0.25
 20
0.313
 30
0.0
 11
0.0
 21
0.313
 31
0.0
  0
LINE
  8
DAMAN
 10
0.21825
 20
0.438
 30
0.0
 11
0.06225
 21
0.438
 31
0.0
  0
ENDBLK
  8
0
  0
BLOCK
  8
0
  2
D05H
 70
     0
 10
0.0
 20
0.0
 30
0.0
  3
D05H
  0
INSERT
  8
DAMAN
  2
D05
 10
5.03125
 20
5.71875
 30
0.0
  0
CIRCLE
  8
DAMAN
 10
5.12525
 20
6.15675
 30
0.0
 40
0.094
  0
INSERT
  8
DAMAN
  2
100CROSS
 10
5.12525
 20
6.15675
 30
0.0
 41
0.25
 42
0.25
 43
0.0
  0
CIRCLE
  8
DAMAN
 10
6.75025
 20
3.15675
 30
0.0
 40
0.094
  0
INSERT
  8
DAMAN
  2
100CROSS
 10
6.75025
 20
3.15675
 30
0.0
 41
0.25
 42
0.25
 43
0.0
  0
ENDBLK
  8
0
  0
BLOCK
  8
0
  2
D05
 70
    64
 10
0.0
 20
0.0
 30
0.0
  3
D05
  0
CIRCLE
  8
DAMAN
  6
HIDDEN
 10
1.8125
 20
0.0
 30
0.0
 40
0.125
  0
CIRCLE
  8
DAMAN
  6
HIDDEN
 10
1.8125
 20
-2.125
 30
0.0
 40
0.125
  0
CIRCLE
  8
DAMAN
  6
HIDDEN
 10
0.0
 20
0.0
 30
0.0
 40
0.125
  0
CIRCLE
  8
DAMAN
  6
HIDDEN
 10
0.0
 20
-2.125
 30
0.0
 40
0.125
  0
INSERT
  8
DAMAN
  2
100CROSS
 10
0.0
 20
0.0
 30
0.0
 41
0.25
 42
0.25
 43
0.0
  0
CIRCLE
  8
DAMAN
 10
0.0
 20
0.0
 30
0.0
 40
0.1055
  0
CIRCLE
  8
DAMAN
 10
0.0
 20
-2.125
 30
0.0
 40
0.1055
  0
INSERT
  8
DAMAN
  2
100CROSS
 10
0.0
 20
-2.125
 30
0.0
 41
0.25
 42
0.25
 43
0.0
  0
CIRCLE
  8
DAMAN
 10
1.8125
 20
0.0
 30
0.0
 40
0.1055
  0
INSERT
  8
DAMAN
  2
100CROSS
 10
1.8125
 20
0.0
 30
0.0
 41
0.25
 42
0.25
 43
0.0
  0
CIRCLE
  8
DAMAN
 10
1.8125
 20
-2.125
 30
0.0
 40
0.1055
  0
INSERT
  8
DAMAN
  2
100CROSS
 10
1.8125
 20
-2.125
 30
0.0
 41
0.25
 42
0.25
 43
0.0
  0
INSERT
  8
DAMAN
  2
100CROSS
 10
0.531
 20
-0.125
 30
0.0
 41
0.438
 42
0.438
 43
0.0
  0
CIRCLE
  8
DAMAN
 10
0.531
 20
-0.125
 30
0.0
 40
0.21875
  0
CIRCLE
  8
DAMAN
 10
0.9685
 20
-0.656
 30
0.0
 40
0.21875
  0
INSERT
  8
DAMAN
  2
100CROSS
 10
0.9685
 20
-0.656
 30
0.0
 41
0.438
 42
0.438
 43
0.0
  0
INSERT
  8
DAMAN
  2
100CROSS
 10
0.9685
 20
-1.4685
 30
0.0
 41
0.438
 42
0.438
 43
0.0
  0
CIRCLE
  8
DAMAN
 10
0.9685
 20
-1.4685
 30
0.0
 40
0.21875
  0
CIRCLE
  8
DAMAN
 10
1.5625
 20
-1.06225
 30
0.0
 40
0.21875
  0
INSERT
  8
DAMAN
  2
100CROSS
 10
1.5625
 20
-1.06225
 30
0.0
 41
0.438
 42
0.438
 43
0.0
  0
ENDBLK
  8
0
  0
BLOCK
  8
0
  2
075NPTFT
 70
     0
 10
0.0
 20
0.0
 30
0.0
  3
075NPTFT
  0
INSERT
  8
DAMAN
  2
750NPTFT
 10
-6.410893
 20
-4.555543
 30
0.0
  0
ENDBLK
  8
0
  0
BLOCK
  8
0
  2
750NPTFT
 70
    64
 10
0.0
 20
0.0
 30
0.0
  3
750NPTFT
  0
INSERT
  8
DAMAN
 62
     5
  2
100CROSS
 10
6.410893
 20
4.555543
 30
0.0
 41
0.98
 42
0.98
 43
0.0
  0
CIRCLE
  8
DAMAN
 62
     5
 10
6.410893
 20
4.555543
 30
0.0
 40
0.491067
  0
CIRCLE
  8
DAMAN
 62
     5
 10
6.410893
 20
4.555543
 30
0.0
 40
0.453
  0
CIRCLE
  8
DAMAN
 62
     5
 10
6.410893
 20
4.555543
 30
0.0
 40
0.53125
  0
ENDBLK
  8
0
  0
BLOCK
  8
0
  2
100NPTFT
 70
     0
 10
0.0
 20
0.0
 30
0.0
  3
100NPTFT
  0
CIRCLE
  8
DAMAN
 10
0.0
 20
0.0
 30
0.0
 40
0.5625
  0
CIRCLE
  8
DAMAN
 10
0.0
 20
0.0
 30
0.0
 40
0.672
  0
INSERT
  8
DAMAN
  2
100CROSS
 10
0.0
 20
0.0
 30
0.0
 41
1.2
 42
1.2
 43
0.0
  0
CIRCLE
  8
DAMAN
 10
0.0
 20
0.0
 30
0.0
 40
0.625
  0
ENDBLK
  8
0
  0
BLOCK
  8
0
  2
025NPTFT
 70
     0
 10
0.0
 20
0.0
 30
0.0
  3
025NPTFT
  0
INSERT
  8
DAMAN
  2
250NPTFT
 10
0.0
 20
0.0
 30
0.0
  0
ENDBLK
  8
0
  0
BLOCK
  8
0
  2
250NPTFT
 70
    64
 10
0.0
 20
0.0
 30
0.0
  3
250NPTFT
  0
CIRCLE
  8
DAMAN
 10
0.0
 20
0.0
 30
0.0
 40
0.273
  0
CIRCLE
  8
DAMAN
 10
0.0
 20
0.0
 30
0.0
 40
0.211
  0
INSERT
  8
DAMAN
  2
100CROSS
 10
0.0
 20
0.0
 30
0.0
 41
0.422
 42
0.422
 43
0.0
  0
CIRCLE
  8
DAMAN
 10
0.0
 20
0.0
 30
0.0
 40
0.242251
  0
POINT
  8
CHIDDEN
 10
-0.087928
 20
0.191806
 30
0.0
  0
POINT
  8
CHIDDEN
 10
-0.137717
 20
-0.15986
 30
0.0
  0
POINT
  8
CHIDDEN
 10
0.202707
 20
-0.058572
 30
0.0
  0
ENDBLK
  8
0
  0
BLOCK
  8
0
  2
038NPTFT
 70
     0
 10
0.0
 20
0.0
 30
0.0
  3
038NPTFT
  0
INSERT
  8
DAMAN
  2
375NPTFT
 10
0.0
 20
0.0
 30
0.0
  0
ENDBLK
  8
0
  0
BLOCK
  8
0
  2
375NPTFT
 70
    64
 10
0.0
 20
0.0
 30
0.0
  3
375NPTFT
  0
INSERT
  8
DAMAN
  2
100CROSS
 10
0.0
 20
0.0
 30
0.0
 41
0.68
 42
0.68
 43
0.0
  0
CIRCLE
  8
DAMAN
 10
0.0
 20
0.0
 30
0.0
 40
0.3125
  0
CIRCLE
  8
DAMAN
 10
0.0
 20
0.0
 30
0.0
 40
0.281
  0
CIRCLE
  8
DAMAN
 10
0.0
 20
0.0
 30
0.0
 40
0.344
  0
ENDBLK
  8
0
  0
BLOCK
  8
0
  2
C102T
 70
    64
 10
0.0
 20
0.0
 30
0.0
  3
C102T
  0
CIRCLE
  8
DAMAN
 10
0.0
 20
0.0
 30
0.0
 40
0.406
  0
INSERT
  8
DAMAN
  2
100CROSS
 10
0.0
 20
0.0
 30
0.0
 41
1.2
 42
1.2
 43
0.0
  0
CIRCLE
  8
DAMAN
 10
0.0
 20
0.0
 30
0.0
 40
0.594
  0
CIRCLE
  8
DAMAN
  6
HIDDEN
 10
0.0
 20
0.0
 30
0.0
 40
0.4375
  0
CIRCLE
  8
DAMAN
 10
0.0
 20
0.0
 30
0.0
 40
0.4725
  0
CIRCLE
  8
DAMAN
 10
0.0
 20
0.0
 30
0.0
 40
0.3125
  0
ENDBLK
  8
0
  0
BLOCK
  8
0
  2
T3AT
 70
     0
 10
0.0
 20
0.0
 30
0.0
  3
T3AT
  0
CIRCLE
  8
DAMAN
 10
0.0
 20
0.0
 30
0.0
 40
0.4665
  0
CIRCLE
  8
DAMAN
 10
0.0
 20
0.0
 30
0.0
 40
0.4375
  0
CIRCLE
  8
DAMAN
  6
HIDDEN
 10
0.0
 20
0.0
 30
0.0
 40
0.5
  0
INSERT
  8
DAMAN
  2
100CROSS
 10
0.0
 20
0.0
 30
0.0
 41
0.88
 42
0.88
  0
CIRCLE
  8
DAMAN
 10
0.0
 20
0.0
 30
0.0
 40
0.516
  0
CIRCLE
  8
DAMAN
 10
0.0
 20
0.0
 30
0.0
 40
0.539
  0
CIRCLE
  8
DAMAN
 10
0.0
 20
0.0
 30
0.0
 40
0.344
  0
ENDBLK
  8
0
  0
BLOCK
  8
0
  2
D05HE
 70
     0
 10
0.0
 20
0.0
 30
0.0
  3
D05HE
  0
INSERT
  8
DAMAN
  2
100CROSS
 10
6.40625
 20
3.28175
 30
0.0
 41
0.25
 42
0.25
 43
0.0
  0
CIRCLE
  8
DAMAN
  6
HIDDEN
 10
6.84375
 20
5.71875
 30
0.0
 40
0.125
  0
CIRCLE
  8
DAMAN
  6
HIDDEN
 10
6.84375
 20
3.59375
 30
0.0
 40
0.125
  0
CIRCLE
  8
DAMAN
  6
HIDDEN
 10
5.03125
 20
5.71875
 30
0.0
 40
0.125
  0
CIRCLE
  8
DAMAN
  6
HIDDEN
 10
5.03125
 20
3.59375
 30
0.0
 40
0.125
  0
INSERT
  8
DAMAN
  2
100CROSS
 10
5.03125
 20
5.71875
 30
0.0
 41
0.25
 42
0.25
 43
0.0
  0
CIRCLE
  8
DAMAN
 10
5.03125
 20
5.71875
 30
0.0
 40
0.1055
  0
CIRCLE
  8
DAMAN
 10
5.03125
 20
3.59375
 30
0.0
 40
0.1055
  0
INSERT
  8
DAMAN
  2
100CROSS
 10
5.03125
 20
3.59375
 30
0.0
 41
0.25
 42
0.25
 43
0.0
  0
CIRCLE
  8
DAMAN
 10
6.84375
 20
5.71875
 30
0.0
 40
0.1055
  0
INSERT
  8
DAMAN
  2
100CROSS
 10
6.84375
 20
5.71875
 30
0.0
 41
0.25
 42
0.25
 43
0.0
  0
CIRCLE
  8
DAMAN
 10
6.84375
 20
3.59375
 30
0.0
 40
0.1055
  0
INSERT
  8
DAMAN
  2
100CROSS
 10
6.84375
 20
3.59375
 30
0.0
 41
0.25
 42
0.25
 43
0.0
  0
INSERT
  8
DAMAN
  2
100CROSS
 10
5.56225
 20
5.59375
 30
0.0
 41
0.438
 42
0.438
 43
0.0
  0
CIRCLE
  8
DAMAN
 10
5.56225
 20
5.59375
 30
0.0
 40
0.21875
  0
CIRCLE
  8
DAMAN
 10
5.99975
 20
5.06275
 30
0.0
 40
0.21875
  0
INSERT
  8
DAMAN
  2
100CROSS
 10
5.99975
 20
5.06275
 30
0.0
 41
0.438
 42
0.438
 43
0.0
  0
INSERT
  8
DAMAN
  2
100CROSS
 10
5.99975
 20
4.25025
 30
0.0
 41
0.438
 42
0.438
 43
0.0
  0
CIRCLE
  8
DAMAN
 10
5.99975
 20
4.25025
 30
0.0
 40
0.21875
  0
CIRCLE
  8
DAMAN
 10
6.59375
 20
4.6565
 30
0.0
 40
0.21875
  0
INSERT
  8
DAMAN
  2
100CROSS
 10
6.59375
 20
4.6565
 30
0.0
 41
0.438
 42
0.438
 43
0.0
  0
CIRCLE
  8
DAMAN
 10
5.56225
 20
3.71925
 30
0.0
 40
0.21875
  0
INSERT
  8
DAMAN
  2
100CROSS
 10
5.56225
 20
3.71925
 30
0.0
 41
-0.438
 42
0.438
 50
180.0
 43
0.0
  0
CIRCLE
  8
DAMAN
 10
6.40625
 20
3.28175
 30
0.0
 40
0.136
  0
CIRCLE
  8
DAMAN
 10
6.40625
 20
6.03125
 30
0.0
 40
0.136
  0
INSERT
  8
DAMAN
  2
100CROSS
 10
6.40625
 20
6.03125
 30
0.0
 41
-0.25
 42
0.25
 50
180.0
 43
0.0
  0
ENDBLK
  8
0
  0
BLOCK
  8
0
  2
0375BSPPT
 70
     0
 10
0.0
 20
0.0
 30
0.0
  3
0375BSPPT
  0
CIRCLE
  8
DAMAN
  6
HIDDEN
 10
5.71875
 20
4.34375
 30
0.0
 40
0.328
  0
CIRCLE
  8
DAMAN
 10
5.71875
 20
4.34375
 30
0.0
 40
0.3325
  0
CIRCLE
  8
DAMAN
 10
5.71875
 20
4.34375
 30
0.0
 40
0.3035
  0
CIRCLE
  8
DAMAN
 10
5.71875
 20
4.34375
 30
0.0
 40
0.51
  0
INSERT
  8
DAMAN
  2
100CROSS
 10
5.71875
 20
4.34375
 30
0.0
 41
0.88
 42
0.88
 43
0.0
  0
ENDBLK
  8
0
  0
BLOCK
  8
0
  2
075BSPPT
 70
    64
 10
0.0
 20
0.0
 30
0.0
  3
075BSPPT
  0
CIRCLE
  8
DAMAN
 10
0.0
 20
0.0
 30
0.0
 40
0.453
  0
CIRCLE
  8
DAMAN
 10
0.0
 20
0.0
 30
0.0
 40
0.475
  0
CIRCLE
  8
DAMAN
 10
0.0
 20
0.0
 30
0.0
 40
0.72
  0
LINE
  8
DAMAN
  6
CENTER
 10
-0.8125
 20
0.0
 30
0.0
 11
0.8125
 21
0.0
 31
0.0
  0
CIRCLE
  8
DAMAN
  6
HIDDEN
 10
0.0
 20
0.0
 30
0.0
 40
0.52
  0
LINE
  8
DAMAN
  6
CENTER
 10
0.0
 20
0.8125
 30
0.0
 11
0.0
 21
-0.8125
 31
0.0
  0
ENDBLK
  8
0
  0
BLOCK
  8
0
  2
100BSPPT
 70
    64
 10
0.0
 20
0.0
 30
0.0
  3
100BSPPT
  0
CIRCLE
  8
DAMAN
  6
HIDDEN
 10
0.0
 20
0.0
 30
0.0
 40
0.6545
  0
CIRCLE
  8
DAMAN
 10
0.0
 20
0.0
 30
0.0
 40
0.6125
  0
CIRCLE
  8
DAMAN
 10
0.0
 20
0.0
 30
0.0
 40
0.915
  0
INSERT
  8
DAMAN
  2
100CROSS
 10
0.0
 20
0.0
 30
0.0
 41
1.33
 42
1.33
 43
0.0
  0
CIRCLE
  8
DAMAN
 10
0.0
 20
0.0
 30
0.0
 40
0.6575
  0
ENDBLK
  8
0
  0
BLOCK
  8
0
  2
106SAET
 70
     0
 10
0.0
 20
0.0
 30
0.0
  3
106SAET
  0
CIRCLE
  8
CSOLID
 10
0.0
 20
0.0
 30
0.0
 40
0.492
  0
CIRCLE
  8
CSOLID
 10
0.0
 20
0.0
 30
0.0
 40
0.453
  0
CIRCLE
  8
CSOLID
 10
0.0
 20
0.0
 30
0.0
 40
0.8125
  0
INSERT
  8
CCENTER
  2
100CROSS
 10
0.0
 20
0.0
 30
0.0
 41
1.33
 42
1.33
 43
0.0
  0
CIRCLE
  8
CHIDDEN
 10
0.0
 20
0.0
 30
0.0
 40
0.53125
  0
CIRCLE
  8
PHANTOM
 10
0.0
 20
0.0
 30
0.0
 40
0.725
  0
ENDBLK
  8
0
  0
BLOCK
  8
0
  2
MGBG
 70
    64
 10
0.0
 20
0.0
 30
0.0
  3
MGBG
  0
LINE
  8
DAMAN
 10
1.0
 20
6.0
 30
0.0
 11
5.0
 21
6.0
 31
0.0
  0
LINE
  8
DAMAN
 10
5.0
 20
6.0
 30
0.0
 11
5.0
 21
11.0
 31
0.0
  0
LINE
  8
DAMAN
 10
5.0
 20
11.0
 30
0.0
 11
1.0
 21
11.0
 31
0.0
  0
LINE
  8
DAMAN
  6
HIDDEN
 10
1.0
 20
11.0
 30
0.0
 11
1.0
 21
6.0
 31
0.0
  0
LINE
  8
DAMAN
 10
7.0
 20
6.0
 30
0.0
 11
13.5
 21
6.0
 31
0.0
  0
LINE
  8
DAMAN
 10
13.5
 20
6.0
 30
0.0
 11
13.5
 21
11.0
 31
0.0
  0
LINE
  8
DAMAN
 10
13.5
 20
11.0
 30
0.0
 11
7.0
 21
11.0
 31
0.0
  0
LINE
  8
DAMAN
 10
7.0
 20
11.0
 30
0.0
 11
7.0
 21
6.0
 31
0.0
  0
LINE
  8
DAMAN
  6
HIDDEN
 10
19.5
 20
11.0
 30
0.0
 11
19.5
 21
6.0
 31
0.0
  0
LINE
  8
DAMAN
 10
15.5
 20
6.0
 30
0.0
 11
15.5
 21
11.0
 31
0.0
  0
LINE
  8
DAMAN
 10
19.5
 20
6.0
 30
0.0
 11
15.5
 21
6.0
 31
0.0
  0
LINE
  8
DAMAN
 10
15.5
 20
11.0
 30
0.0
 11
19.5
 21
11.0
 31
0.0
  0
LINE
  8
DAMAN
 10
13.5
 20
5.0
 30
0.0
 11
7.0
 21
5.0
 31
0.0
  0
LINE
  8
DAMAN
 10
7.0
 20
1.0
 30
0.0
 11
13.5
 21
1.0
 31
0.0
  0
LINE
  8
DAMAN
 10
7.0
 20
5.0
 30
0.0
 11
7.0
 21
1.0
 31
0.0
  0
LINE
  8
DAMAN
 10
13.5
 20
1.0
 30
0.0
 11
13.5
 21
5.0
 31
0.0
  0
INSERT
  8
DAMAN
  2
500MKT
 10
20.062
 20
11.0
 30
0.0
  0
INSERT
  8
DAMAN
  2
500MKT
 10
0.438
 20
6.0
 30
0.0
 50
180.0
  0
INSERT
  8
DAMAN
  2
500MKCT
 10
7.0
 20
11.0
 30
0.0
  0
INSERT
  8
DAMAN
  2
500MKCT
 10
13.5
 20
6.0
 30
0.0
 50
180.0
  0
INSERT
  8
DAMAN
  2
500MKS
 10
6.78175
 20
1.375
 30
0.0
  0
INSERT
  8
DAMAN
  2
500MKS
 10
13.71825
 20
1.375
 30
0.0
 41
-1.0
  0
TEXT
  8
DAMAN
 10
4.1875
 20
10.4375
 30
0.0
 40
0.2
  1
T
 50
270.0
  0
TEXT
  8
DAMAN
 10
4.28125
 20
6.875
 30
0.0
 40
0.2
  1
P
 50
270.0
  0
TEXT
  8
DAMAN
 10
16.3125
 20
10.375
 30
0.0
 40
0.2
  1
T
 50
90.0
  0
TEXT
  8
DAMAN
 10
16.21875
 20
6.90625
 30
0.0
 40
0.2
  1
P
 50
90.0
  0
TEXT
  8
DAMAN
 10
9.5
 20
4.6875
 30
0.0
 40
0.2
  1
B
  0
TEXT
  8
DAMAN
 10
9.5
 20
2.6875
 30
0.0
 40
0.2
  1
A
  0
TEXT
  8
DAMAN
 10
12.75
 20
4.6875
 30
0.0
 40
0.2
  1
B
  0
TEXT
  8
DAMAN
 10
12.75
 20
2.6875
 30
0.0
 40
0.2
  1
A
  0
TEXT
  8
DAMAN
 10
9.375
 20
3.5625
 30
0.0
 40
0.18
  1
DAMAN ****
  0
INSERT
  8
DAMAN
  2
D05
 10
7.7185
 20
9.37425
 30
0.0
  0
INSERT
  8
DAMAN
  2
D05
 10
10.9685
 20
9.37425
 30
0.0
  0
INSERT
  8
DAMAN
  2
12SAET
 10
8.562
 20
4.125
 30
0.0
  0
INSERT
  8
DAMAN
  2
12SAET
 10
11.812
 20
4.125
 30
0.0
  0
INSERT
  8
DAMAN
  2
12SAET
 10
11.812
 20
1.875
 30
0.0
  0
INSERT
  8
DAMAN
  2
12SAET
 10
8.562
 20
1.875
 30
0.0
  0
INSERT
  8
DAMAN
  2
12SAET
 10
3.0
 20
7.844
 30
0.0
  0
INSERT
  8
DAMAN
  2
12SAET
 10
17.5
 20
7.844
 30
0.0
  0
INSERT
  8
DAMAN
  2
16SAET
 10
3.0
 20
9.844
 30
0.0
  0
INSERT
  8
DAMAN
  2
16SAET
 10
17.5
 20
9.844
 30
0.0
  0
INSERT
  8
DAMAN
  2
06SAET
 10
10.188
 20
2.5
 30
0.0
  0
TEXT
  8
DAMAN
 10
10.75
 20
2.96875
 30
0.0
 40
0.188
  1
GA
  0
ENDBLK
  8
0
  0
BLOCK
  8
0
  2
MGBHBI
 70
    64
 10
0.0
 20
0.0
 30
0.0
  3
MGBHBI
  0
LINE
  8
DAMAN
 10
1.0
 20
6.0
 30
0.0
 11
5.0
 21
6.0
 31
0.0
  0
LINE
  8
DAMAN
 10
5.0
 20
6.0
 30
0.0
 11
5.0
 21
11.0
 31
0.0
  0
LINE
  8
DAMAN
 10
5.0
 20
11.0
 30
0.0
 11
1.0
 21
11.0
 31
0.0
  0
LINE
  8
DAMAN
  6
HIDDEN
 10
1.0
 20
11.0
 30
0.0
 11
1.0
 21
6.0
 31
0.0
  0
LINE
  8
DAMAN
 10
7.0
 20
6.0
 30
0.0
 11
13.5
 21
6.0
 31
0.0
  0
LINE
  8
DAMAN
 10
13.5
 20
6.0
 30
0.0
 11
13.5
 21
11.0
 31
0.0
  0
LINE
  8
DAMAN
 10
13.5
 20
11.0
 30
0.0
 11
7.0
 21
11.0
 31
0.0
  0
LINE
  8
DAMAN
 10
7.0
 20
11.0
 30
0.0
 11
7.0
 21
6.0
 31
0.0
  0
LINE
  8
DAMAN
  6
HIDDEN
 10
19.5
 20
11.0
 30
0.0
 11
19.5
 21
6.0
 31
0.0
  0
LINE
  8
DAMAN
 10
15.5
 20
6.0
 30
0.0
 11
15.5
 21
11.0
 31
0.0
  0
LINE
  8
DAMAN
 10
19.5
 20
6.0
 30
0.0
 11
15.5
 21
6.0
 31
0.0
  0
LINE
  8
DAMAN
 10
15.5
 20
11.0
 30
0.0
 11
19.5
 21
11.0
 31
0.0
  0
LINE
  8
DAMAN
 10
13.5
 20
16.0
 30
0.0
 11
7.0
 21
16.0
 31
0.0
  0
LINE
  8
DAMAN
 10
7.0
 20
12.0
 30
0.0
 11
13.5
 21
12.0
 31
0.0
  0
LINE
  8
DAMAN
 10
7.0
 20
16.0
 30
0.0
 11
7.0
 21
12.0
 31
0.0
  0
LINE
  8
DAMAN
 10
13.5
 20
12.0
 30
0.0
 11
13.5
 21
16.0
 31
0.0
  0
LINE
  8
DAMAN
 10
13.5
 20
5.0
 30
0.0
 11
7.0
 21
5.0
 31
0.0
  0
LINE
  8
DAMAN
 10
7.0
 20
1.0
 30
0.0
 11
13.5
 21
1.0
 31
0.0
  0
LINE
  8
DAMAN
 10
7.0
 20
5.0
 30
0.0
 11
7.0
 21
1.0
 31
0.0
  0
LINE
  8
DAMAN
 10
13.5
 20
1.0
 30
0.0
 11
13.5
 21
5.0
 31
0.0
  0
INSERT
  8
DAMAN
  2
500MKT
 10
20.062
 20
11.0
 30
0.0
  0
INSERT
  8
DAMAN
  2
500MKT
 10
0.438
 20
6.0
 30
0.0
 50
180.0
  0
INSERT
  8
DAMAN
  2
500MKCT
 10
7.0
 20
11.0
 30
0.0
  0
INSERT
  8
DAMAN
  2
500MKCT
 10
13.5
 20
6.0
 30
0.0
 50
180.0
  0
INSERT
  8
DAMAN
  2
500MKS
 10
6.78175
 20
1.375
 30
0.0
  0
INSERT
  8
DAMAN
  2
500MKS
 10
13.71825
 20
1.375
 30
0.0
 41
-1.0
  0
INSERT
  8
DAMAN
  2
500MKS
 10
13.71825
 20
15.625
 30
0.0
 50
180.0
  0
INSERT
  8
DAMAN
  2
500MKS
 10
6.78175
 20
15.625
 30
0.0
 41
-1.0
 50
180.0
  0
TEXT
  8
DAMAN
 10
4.1875
 20
10.4375
 30
0.0
 40
0.2
  1
T
 50
270.0
  0
TEXT
  8
DAMAN
 10
4.28125
 20
6.875
 30
0.0
 40
0.2
  1
P
 50
270.0
  0
TEXT
  8
DAMAN
 10
16.3125
 20
10.375
 30
0.0
 40
0.2
  1
T
 50
90.0
  0
TEXT
  8
DAMAN
 10
16.21875
 20
6.90625
 30
0.0
 40
0.2
  1
P
 50
90.0
  0
TEXT
  8
DAMAN
 10
9.5
 20
4.6875
 30
0.0
 40
0.2
  1
B
  0
TEXT
  8
DAMAN
 10
9.5
 20
2.6875
 30
0.0
 40
0.2
  1
A
  0
TEXT
  8
DAMAN
 10
12.75
 20
4.6875
 30
0.0
 40
0.2
  1
B
  0
TEXT
  8
DAMAN
 10
12.75
 20
2.6875
 30
0.0
 40
0.2
  1
A
  0
TEXT
  8
DAMAN
 10
9.375
 20
3.5625
 30
0.0
 40
0.18
  1
DAMAN ****
  0
TEXT
  8
DAMAN
 10
7.25
 20
3.53125
 30
0.0
 40
0.2
  1
X
  0
INSERT
  8
DAMAN
  2
D05
 10
7.7185
 20
9.37425
 30
0.0
  0
INSERT
  8
DAMAN
  2
D05
 10
10.9685
 20
9.37425
 30
0.0
  0
INSERT
  8
DAMAN
  2
T3AT
 10
10.25
 20
14.625
 30
0.0
  0
INSERT
  8
DAMAN
  2
100CROSS
 10
7.8125
 20
9.81225
 30
0.0
 41
0.25
 42
0.25
 43
0.0
  0
CIRCLE
  8
DAMAN
 10
7.8125
 20
9.81225
 30
0.0
 40
0.094
  0
INSERT
  8
DAMAN
  2
100CROSS
 10
9.4375
 20
6.81225
 30
0.0
 41
0.25
 42
0.25
 43
0.0
  0
CIRCLE
  8
DAMAN
 10
9.4375
 20
6.81225
 30
0.0
 40
0.094
  0
INSERT
  8
DAMAN
  2
100CROSS
 10
11.0625
 20
9.81225
 30
0.0
 41
0.25
 42
0.25
 43
0.0
  0
CIRCLE
  8
DAMAN
 10
11.0625
 20
9.81225
 30
0.0
 40
0.094
  0
CIRCLE
  8
DAMAN
 10
12.6875
 20
6.81225
 30
0.0
 40
0.094
  0
INSERT
  8
DAMAN
  2
100CROSS
 10
12.6875
 20
6.81225
 30
0.0
 41
0.25
 42
0.25
 43
0.0
  0
TEXT
  8
DAMAN
 10
7.4375
 20
12.34375
 30
0.0
 40
0.2
  1
Y
 50
180.0
  0
INSERT
  8
DAMAN
  2
0375BSPPT
 10
2.28125
 20
8.40625
 30
0.0
  0
INSERT
  8
DAMAN
  2
0375BSPPT
 10
2.03125
 20
-1.34375
 30
0.0
  0
INSERT
  8
DAMAN
  2
100BSPPT
 10
3.0
 20
9.844
 30
0.0
  0
INSERT
  8
DAMAN
  2
100BSPPT
 10
17.5
 20
9.844
 30
0.0
  0
INSERT
  8
DAMAN
  2
075BSPPT
 10
3.0
 20
7.844
 30
0.0
  0
INSERT
  8
DAMAN
  2
075BSPPT
 10
8.562
 20
4.125
 30
0.0
  0
INSERT
  8
DAMAN
  2
075BSPPT
 10
8.562
 20
1.875
 30
0.0
  0
INSERT
  8
DAMAN
  2
075BSPPT
 10
11.812
 20
4.125
 30
0.0
  0
INSERT
  8
DAMAN
  2
075BSPPT
 10
11.812
 20
1.875
 30
0.0
  0
INSERT
  8
DAMAN
  2
075BSPPT
 10
17.5
 20
7.844
 30
0.0
  0
ENDBLK
  8
0
  0
BLOCK
  8
0
  2
12SAET
 70
    64
 10
0.0
 20
0.0
 30
0.0
  3
12SAET
  0
CIRCLE
  8
DAMAN
 10
0.0
 20
0.0
 30
0.0
 40
0.53125
  0
INSERT
  8
DAMAN
  2
100CROSS
 10
0.0
 20
0.0
 30
0.0
 41
1.33
 42
1.33
 43
0.0
  0
CIRCLE
  8
DAMAN
 10
0.0
 20
0.0
 30
0.0
 40
0.8125
  0
CIRCLE
  8
DAMAN
 10
0.0
 20
0.0
 30
0.0
 40
0.453
  0
CIRCLE
  8
DAMAN
 10
0.0
 20
0.0
 30
0.0
 40
0.492
  0
ENDBLK
  8
0
  0
BLOCK
  8
0
  2
16SAET
 70
    64
 10
0.0
 20
0.0
 30
0.0
  3
16SAET
  0
CIRCLE
  8
DAMAN
 10
0.0
 20
0.0
 30
0.0
 40
0.6125
  0
CIRCLE
  8
DAMAN
 10
0.0
 20
0.0
 30
0.0
 40
0.562
  0
CIRCLE
  8
DAMAN
 10
0.0
 20
0.0
 30
0.0
 40
1.0
  0
INSERT
  8
DAMAN
  2
100CROSS
 10
0.0
 20
0.0
 30
0.0
 41
1.6
 42
1.6
 43
0.0
  0
CIRCLE
  8
DAMAN
 10
0.0
 20
0.0
 30
0.0
 40
0.65625
  0
ENDBLK
  8
0
  0
BLOCK
  8
0
  2
06SAET
 70
    64
 10
0.0
 20
0.0
 30
0.0
  3
06SAET
  0
INSERT
  8
DAMAN
  2
100CROSS
 10
0.0
 20
0.0
 30
0.0
 43
0.0
  0
CIRCLE
  8
DAMAN
 10
0.0
 20
0.0
 30
0.0
 40
0.28125
  0
CIRCLE
  8
DAMAN
 10
0.0
 20
0.0
 30
0.0
 40
0.5
  0
CIRCLE
  8
DAMAN
 10
0.0
 20
0.0
 30
0.0
 40
0.25
  0
ENDBLK
  8
0
  0
ENDSEC
  0
SECTION
  2
ENTITIES
  0
LINE
  8
DAMAN
 10
1.0
 20
6.0
 30
0.0
 11
5.0
 21
6.0
 31
0.0
  0
LINE
  8
DAMAN
 10
5.0
 20
6.0
 30
0.0
 11
5.0
 21
11.0
 31
0.0
  0
LINE
  8
DAMAN
 10
5.0
 20
11.0
 30
0.0
 11
1.0
 21
11.0
 31
0.0
  0
LINE
  8
DAMAN
  6
HIDDEN
 10
1.0
 20
11.0
 30
0.0
 11
1.0
 21
6.0
 31
0.0
  0
LINE
  8
DAMAN
 10
7.0
 20
6.0
 30
0.0
 11
23.25
 21
6.0
 31
0.0
  0
LINE
  8
DAMAN
 10
23.25
 20
6.0
 30
0.0
 11
23.25
 21
11.0
 31
0.0
  0
LINE
  8
DAMAN
 10
23.25
 20
11.0
 30
0.0
 11
7.0
 21
11.0
 31
0.0
  0
LINE
  8
DAMAN
 10
7.0
 20
11.0
 30
0.0
 11
7.0
 21
6.0
 31
0.0
  0
LINE
  8
DAMAN
  6
HIDDEN
 10
29.25
 20
11.0
 30
0.0
 11
29.25
 21
6.0
 31
0.0
  0
LINE
  8
DAMAN
 10
25.25
 20
6.0
 30
0.0
 11
25.25
 21
11.0
 31
0.0
  0
LINE
  8
DAMAN
 10
29.25
 20
6.0
 30
0.0
 11
25.25
 21
6.0
 31
0.0
  0
LINE
  8
DAMAN
 10
25.25
 20
11.0
 30
0.0
 11
29.25
 21
11.0
 31
0.0
  0
LINE
  8
DAMAN
 10
23.25
 20
16.0
 30
0.0
 11
7.0
 21
16.0
 31
0.0
  0
LINE
  8
DAMAN
 10
7.0
 20
12.0
 30
0.0
 11
23.25
 21
12.0
 31
0.0
  0
LINE
  8
DAMAN
 10
7.0
 20
16.0
 30
0.0
 11
7.0
 21
12.0
 31
0.0
  0
LINE
  8
DAMAN
 10
23.25
 20
12.0
 30
0.0
 11
23.25
 21
16.0
 31
0.0
  0
LINE
  8
DAMAN
 10
23.25
 20
5.0
 30
0.0
 11
7.0
 21
5.0
 31
0.0
  0
LINE
  8
DAMAN
 10
7.0
 20
1.0
 30
0.0
 11
23.25
 21
1.0
 31
0.0
  0
LINE
  8
DAMAN
 10
7.0
 20
5.0
 30
0.0
 11
7.0
 21
1.0
 31
0.0
  0
LINE
  8
DAMAN
 10
23.25
 20
1.0
 30
0.0
 11
23.25
 21
5.0
 31
0.0
  0
INSERT
  8
DAMAN
  2
500MKT
 10
29.812
 20
11.0
 30
0.0
  0
INSERT
  8
DAMAN
  2
500MKT
 10
0.438
 20
6.0
 30
0.0
 50
180.0
  0
INSERT
  8
DAMAN
  2
500MKCT
 10
7.0
 20
11.0
 30
0.0
  0
INSERT
  8
DAMAN
  2
500MKCT
 10
23.25
 20
6.0
 30
0.0
 50
180.0
  0
INSERT
  8
DAMAN
  2
500MKS
 10
6.78175
 20
1.375
 30
0.0
  0
INSERT
  8
DAMAN
  2
500MKS
 10
23.46825
 20
1.375
 30
0.0
 41
-1.0
  0
INSERT
  8
DAMAN
  2
500MKS
 10
23.46825
 20
15.625
 30
0.0
 50
180.0
  0
INSERT
  8
DAMAN
  2
500MKS
 10
6.78175
 20
15.625
 30
0.0
 41
-1.0
 50
180.0
  0
TEXT
  8
DAMAN
 10
4.1875
 20
10.4375
 30
0.0
 40
0.2
  1
T
 50
270.0
  0
TEXT
  8
DAMAN
 10
4.28125
 20
6.875
 30
0.0
 40
0.2
  1
P
 50
270.0
  0
TEXT
  8
DAMAN
 10
26.0625
 20
10.375
 30
0.0
 40
0.2
  1
T
 50
90.0
  0
TEXT
  8
DAMAN
 10
25.96875
 20
6.90625
 30
0.0
 40
0.2
  1
P
 50
90.0
  0
TEXT
  8
DAMAN
 10
9.5
 20
4.6875
 30
0.0
 40
0.2
  1
B
  0
TEXT
  8
DAMAN
 10
9.5
 20
2.6875
 30
0.0
 40
0.2
  1
A
  0
TEXT
  8
DAMAN
 10
12.75
 20
4.6875
 30
0.0
 40
0.2
  1
B
  0
TEXT
  8
DAMAN
 10
12.75
 20
2.6875
 30
0.0
 40
0.2
  1
A
  0
TEXT
  8
DAMAN
 10
9.375
 20
3.5625
 30
0.0
 40
0.18
  1
DAMAN ****
  0
INSERT
  8
DAMAN
  2
D05
 10
7.7185
 20
9.37425
 30
0.0
  0
INSERT
  8
DAMAN
  2
D05
 10
10.9685
 20
9.37425
 30
0.0
  0
INSERT
  8
DAMAN
  2
C102T
 10
10.25
 20
15.0
 30
0.0
  0
INSERT
  8
DAMAN
  2
12SAET
 10
8.562
 20
4.125
 30
0.0
  0
INSERT
  8
DAMAN
  2
12SAET
 10
11.812
 20
4.125
 30
0.0
  0
INSERT
  8
DAMAN
  2
12SAET
 10
11.812
 20
1.875
 30
0.0
  0
INSERT
  8
DAMAN
  2
12SAET
 10
8.562
 20
1.875
 30
0.0
  0
INSERT
  8
DAMAN
  2
12SAET
 10
3.0
 20
7.844
 30
0.0
  0
INSERT
  8
DAMAN
  2
12SAET
 10
27.25
 20
7.844
 30
0.0
  0
INSERT
  8
DAMAN
  2
16SAET
 10
3.0
 20
9.844
 30
0.0
  0
INSERT
  8
DAMAN
  2
16SAET
 10
27.25
 20
9.844
 30
0.0
  0
INSERT
  8
DAMAN
  2
06SAET
 10
10.188
 20
2.5
 30
0.0
  0
TEXT
  8
DAMAN
 10
10.75
 20
2.96875
 30
0.0
 40
0.188
  1
GA
  0
INSERT
  8
DAMAN
  2
12SAET
 10
21.562
 20
4.125
 30
0.0
  0
INSERT
  8
DAMAN
  2
12SAET
 10
21.562
 20
1.875
 30
0.0
  0
TEXT
  8
DAMAN
 10
22.5
 20
2.6875
 30
0.0
 40
0.2
  1
A
  0
TEXT
  8
DAMAN
 10
22.5
 20
4.6875
 30
0.0
 40
0.2
  1
B
  0
INSERT
  8
DAMAN
  2
D05
 10
20.7185
 20
9.37425
 30
0.0
  0
INSERT
  8
DAMAN
  2
D05
 10
14.2185
 20
9.37425
 30
0.0
  0
INSERT
  8
DAMAN
  2
12SAET
 10
15.062
 20
1.875
 30
0.0
  0
TEXT
  8
DAMAN
 10
16.0
 20
2.6875
 30
0.0
 40
0.2
  1
A
  0
INSERT
  8
DAMAN
  2
12SAET
 10
15.062
 20
4.125
 30
0.0
  0
TEXT
  8
DAMAN
 10
16.0
 20
4.6875
 30
0.0
 40
0.2
  1
B
  0
INSERT
  8
DAMAN
  2
D05
 10
17.4685
 20
9.37425
 30
0.0
  0
TEXT
  8
DAMAN
 10
19.25
 20
2.6875
 30
0.0
 40
0.2
  1
A
  0
INSERT
  8
DAMAN
  2
12SAET
 10
18.312
 20
1.875
 30
0.0
  0
INSERT
  8
DAMAN
  2
12SAET
 10
18.312
 20
4.125
 30
0.0
  0
TEXT
  8
DAMAN
 10
19.25
 20
4.6875
 30
0.0
 40
0.2
  1
B
  0
ENDSEC
  0
EOF
