  0
SECTION
  2
HEADER
  9
$ACADVER
  1
AC1014
  9
$ACADMAINTVER
 70
     9
  9
$DWGCODEPAGE
  3
ANSI_1252
  9
$INSBASE
 10
0.0
 20
0.0
 30
0.0
  9
$EXTMIN
 10
7.343704354020417
 20
3.406229536129082
 30
-0.0015258207003583
  9
$EXTMAX
 10
19.21885508027165
 20
15.53172401229731
 30
0.0000000349246037
  9
$LIMMIN
 10
0.0
 20
0.0
  9
$LIMMAX
 10
12.0
 20
9.0
  9
$ORTHOMODE
 70
     1
  9
$REGENMODE
 70
     1
  9
$FILLMODE
 70
     1
  9
$QTEXTMODE
 70
     0
  9
$MIRRTEXT
 70
     1
  9
$DRAGMODE
 70
     2
  9
$LTSCALE
 40
1.0
  9
$OSMODE
 70
    37
  9
$ATTMODE
 70
     1
  9
$TEXTSIZE
 40
0.188
  9
$TRACEWID
 40
0.05
  9
$TEXTSTYLE
  7
STANDARD
  9
$CLAYER
  8
DAMAN
  9
$CELTYPE
  6
BYLAYER
  9
$CECOLOR
 62
   256
  9
$CELTSCALE
 40
1.0
  9
$DELOBJ
 70
     1
  9
$DISPSILH
 70
     0
  9
$DIMSCALE
 40
1.0
  9
$DIMASZ
 40
0.18
  9
$DIMEXO
 40
0.0625
  9
$DIMDLI
 40
0.38
  9
$DIMRND
 40
0.0
  9
$DIMDLE
 40
0.0
  9
$DIMEXE
 40
0.18
  9
$DIMTP
 40
0.0
  9
$DIMTM
 40
0.0
  9
$DIMTXT
 40
0.18
  9
$DIMCEN
 40
0.09
  9
$DIMTSZ
 40
0.0
  9
$DIMTOL
 70
     0
  9
$DIMLIM
 70
     0
  9
$DIMTIH
 70
     1
  9
$DIMTOH
 70
     1
  9
$DIMSE1
 70
     0
  9
$DIMSE2
 70
     0
  9
$DIMTAD
 70
     0
  9
$DIMZIN
 70
     0
  9
$DIMBLK
  1

  9
$DIMASO
 70
     1
  9
$DIMSHO
 70
     1
  9
$DIMPOST
  1

  9
$DIMAPOST
  1

  9
$DIMALT
 70
     0
  9
$DIMALTD
 70
     2
  9
$DIMALTF
 40
25.4
  9
$DIMLFAC
 40
1.0
  9
$DIMTOFL
 70
     0
  9
$DIMTVP
 40
0.0
  9
$DIMTIX
 70
     0
  9
$DIMSOXD
 70
     0
  9
$DIMSAH
 70
     0
  9
$DIMBLK1
  1

  9
$DIMBLK2
  1

  9
$DIMSTYLE
  2
STANDARD
  9
$DIMCLRD
 70
     0
  9
$DIMCLRE
 70
     0
  9
$DIMCLRT
 70
     0
  9
$DIMTFAC
 40
1.0
  9
$DIMGAP
 40
0.09
  9
$DIMJUST
 70
     0
  9
$DIMSD1
 70
     0
  9
$DIMSD2
 70
     0
  9
$DIMTOLJ
 70
     1
  9
$DIMTZIN
 70
     0
  9
$DIMALTZ
 70
     0
  9
$DIMALTTZ
 70
     0
  9
$DIMFIT
 70
     3
  9
$DIMUPT
 70
     0
  9
$DIMUNIT
 70
     2
  9
$DIMDEC
 70
     4
  9
$DIMTDEC
 70
     4
  9
$DIMALTU
 70
     2
  9
$DIMALTTD
 70
     2
  9
$DIMTXSTY
  7
STANDARD
  9
$DIMAUNIT
 70
     0
  9
$LUNITS
 70
     2
  9
$LUPREC
 70
     4
  9
$SKETCHINC
 40
0.1
  9
$FILLETRAD
 40
0.0
  9
$AUNITS
 70
     0
  9
$AUPREC
 70
     0
  9
$MENU
  1
tom
  9
$ELEVATION
 40
0.0
  9
$PELEVATION
 40
0.0
  9
$THICKNESS
 40
0.0
  9
$LIMCHECK
 70
     0
  9
$BLIPMODE
 70
     0
  9
$CHAMFERA
 40
0.0
  9
$CHAMFERB
 40
0.0
  9
$CHAMFERC
 40
0.0
  9
$CHAMFERD
 40
0.0
  9
$SKPOLY
 70
     0
  9
$TDCREATE
 40
2449742.520102592
  9
$TDUPDATE
 40
2453425.444432233
  9
$TDINDWG
 40
0.0003718287
  9
$TDUSRTIMER
 40
0.0003718287
  9
$USRTIMER
 70
     1
  9
$ANGBASE
 50
0.0
  9
$ANGDIR
 70
     0
  9
$PDMODE
 70
     0
  9
$PDSIZE
 40
0.0
  9
$PLINEWID
 40
0.0
  9
$COORDS
 70
     1
  9
$SPLFRAME
 70
     0
  9
$SPLINETYPE
 70
     6
  9
$SPLINESEGS
 70
     8
  9
$ATTDIA
 70
     0
  9
$ATTREQ
 70
     1
  9
$HANDLING
 70
-16383
  9
$HANDSEED
  5
1A7
  9
$SURFTAB1
 70
     6
  9
$SURFTAB2
 70
     6
  9
$SURFTYPE
 70
     6
  9
$SURFU
 70
     6
  9
$SURFV
 70
     6
  9
$UCSNAME
  2

  9
$UCSORG
 10
0.0
 20
0.0
 30
0.0
  9
$UCSXDIR
 10
1.0
 20
0.0
 30
0.0
  9
$UCSYDIR
 10
0.0
 20
1.0
 30
0.0
  9
$PUCSNAME
  2

  9
$PUCSORG
 10
0.0
 20
0.0
 30
0.0
  9
$PUCSXDIR
 10
1.0
 20
0.0
 30
0.0
  9
$PUCSYDIR
 10
0.0
 20
1.0
 30
0.0
  9
$USERI1
 70
     0
  9
$USERI2
 70
     0
  9
$USERI3
 70
     0
  9
$USERI4
 70
     0
  9
$USERI5
 70
     0
  9
$USERR1
 40
0.0
  9
$USERR2
 40
0.0
  9
$USERR3
 40
0.0
  9
$USERR4
 40
0.0
  9
$USERR5
 40
0.0
  9
$WORLDVIEW
 70
     1
  9
$SHADEDGE
 70
     3
  9
$SHADEDIF
 70
    70
  9
$TILEMODE
 70
     1
  9
$MAXACTVP
 70
    16
  9
$PINSBASE
 10
0.0
 20
0.0
 30
0.0
  9
$PLIMCHECK
 70
     0
  9
$PEXTMIN
 10
1.000000000000000E+20
 20
1.000000000000000E+20
 30
1.000000000000000E+20
  9
$PEXTMAX
 10
-1.000000000000000E+20
 20
-1.000000000000000E+20
 30
-1.000000000000000E+20
  9
$PLIMMIN
 10
0.0
 20
0.0
  9
$PLIMMAX
 10
12.0
 20
9.0
  9
$UNITMODE
 70
     0
  9
$VISRETAIN
 70
     0
  9
$PLINEGEN
 70
     0
  9
$PSLTSCALE
 70
     1
  9
$TREEDEPTH
 70
  3020
  9
$PICKSTYLE
 70
     1
  9
$CMLSTYLE
  2
STANDARD
  9
$CMLJUST
 70
     0
  9
$CMLSCALE
 40
1.0
  9
$PROXYGRAPHICS
 70
     1
  9
$MEASUREMENT
 70
     0
  0
ENDSEC
  0
SECTION
  2
CLASSES
  0
CLASS
  1
ACDBDICTIONARYWDFLT
  2
AcDbDictionaryWithDefault
  3
AutoCAD 2000
 90
        0
280
     0
281
     0
  0
CLASS
  1
ACDBPLACEHOLDER
  2
AcDbPlaceHolder
  3
AutoCAD 2000
 90
        0
280
     0
281
     0
  0
CLASS
  1
LAYOUT
  2
AcDbLayout
  3
AutoCAD 2000
 90
        0
280
     0
281
     0
  0
CLASS
  1
LONG_TRANSACTION
  2
AcDbLongTransaction
  3
AutoCAD 2000
 90
        0
280
     0
281
     0
  0
CLASS
  1
LWPOLYLINE
  2
AcDbPolyline
  3
AutoCAD 2000
 90
        0
280
     0
281
     1
  0
CLASS
  1
HATCH
  2
AcDbHatch
  3
AutoCAD 2000
 90
        0
280
     0
281
     1
  0
CLASS
  1
XRECORD
  2
AcDbXrecord
  3
AutoCAD 2000
 90
        0
280
     0
281
     0
  0
ENDSEC
  0
SECTION
  2
TABLES
  0
TABLE
  2
VPORT
  5
8
330
0
100
AcDbSymbolTable
 70
     3
  0
VPORT
  5
182
330
8
100
AcDbSymbolTableRecord
100
AcDbViewportTableRecord
  2
*ACTIVE
 70
     0
 10
0.0
 20
0.0
 11
1.0
 21
1.0
 12
13.21746942346446
 22
9.650344268840953
 13
0.0
 23
0.0
 14
0.03125
 24
0.03125
 15
0.0
 25
0.0
 16
0.0
 26
0.0
 36
1.0
 17
0.0
 27
0.0
 37
0.0
 40
13.46512206177818
 41
1.647569444444444
 42
50.0
 43
0.0
 44
0.0
 50
0.0
 51
0.0
 71
     0
 72
   100
 73
     1
 74
     1
 75
     1
 76
     0
 77
     0
 78
     0
  0
ENDTAB
  0
TABLE
  2
LTYPE
  5
5
330
0
100
AcDbSymbolTable
 70
     4
  0
LTYPE
  5
13
330
5
100
AcDbSymbolTableRecord
100
AcDbLinetypeTableRecord
  2
BYBLOCK
 70
     0
  3

 72
    65
 73
     0
 40
0.0
  0
LTYPE
  5
14
330
5
100
AcDbSymbolTableRecord
100
AcDbLinetypeTableRecord
  2
BYLAYER
 70
     0
  3

 72
    65
 73
     0
 40
0.0
  0
LTYPE
  5
15
330
5
100
AcDbSymbolTableRecord
100
AcDbLinetypeTableRecord
  2
CONTINUOUS
 70
     0
  3
Solid line
 72
    65
 73
     0
 40
0.0
  0
LTYPE
  5
24
330
5
100
AcDbSymbolTableRecord
100
AcDbLinetypeTableRecord
  2
HIDDEN
 70
     0
  3
_ _ _ _ _ _ _ _ _ _ _ _ _ _ _ _ _ _ _ _ _ _ _
 72
    65
 73
     2
 40
0.375
 49
0.25
 74
     0
 49
-0.125
 74
     0
  0
LTYPE
  5
25
330
5
100
AcDbSymbolTableRecord
100
AcDbLinetypeTableRecord
  2
CENTER
 70
     0
  3
____ _ ____ _ ____ _ ____ _ ____ _ ____ _ ____
 72
    65
 73
     4
 40
2.0
 49
1.25
 74
     0
 49
-0.25
 74
     0
 49
0.25
 74
     0
 49
-0.25
 74
     0
  0
LTYPE
  5
26
330
5
100
AcDbSymbolTableRecord
100
AcDbLinetypeTableRecord
  2
PHANTOM
 70
     0
  3
_____ _ _ _____ _ _ _____ _ _ _____ _ _ ____
 72
    65
 73
     6
 40
2.5
 49
1.25
 74
     0
 49
-0.25
 74
     0
 49
0.25
 74
     0
 49
-0.25
 74
     0
 49
0.25
 74
     0
 49
-0.25
 74
     0
  0
ENDTAB
  0
TABLE
  2
LAYER
  5
2
330
0
100
AcDbSymbolTable
 70
     9
  0
LAYER
  5
10
330
2
100
AcDbSymbolTableRecord
100
AcDbLayerTableRecord
  2
0
 70
     0
 62
     7
  6
CONTINUOUS
  0
LAYER
  5
22
330
2
100
AcDbSymbolTableRecord
100
AcDbLayerTableRecord
  2
DAMAN
 70
     0
 62
     5
  6
CONTINUOUS
  0
LAYER
  5
27
330
2
100
AcDbSymbolTableRecord
100
AcDbLayerTableRecord
  2
BORDER
 70
     0
 62
     7
  6
CONTINUOUS
  0
LAYER
  5
28
330
2
100
AcDbSymbolTableRecord
100
AcDbLayerTableRecord
  2
CSOLID
 70
     0
 62
     3
  6
CONTINUOUS
  0
LAYER
  5
29
330
2
100
AcDbSymbolTableRecord
100
AcDbLayerTableRecord
  2
SOLID
 70
     0
 62
     4
  6
CONTINUOUS
  0
LAYER
  5
2A
330
2
100
AcDbSymbolTableRecord
100
AcDbLayerTableRecord
  2
CHIDDEN
 70
     0
 62
     3
  6
HIDDEN
  0
LAYER
  5
2B
330
2
100
AcDbSymbolTableRecord
100
AcDbLayerTableRecord
  2
CDIM
 70
     0
 62
     2
  6
CONTINUOUS
  0
LAYER
  5
2C
330
2
100
AcDbSymbolTableRecord
100
AcDbLayerTableRecord
  2
CCENTER
 70
     0
 62
     4
  6
CENTER
  0
LAYER
  5
2D
330
2
100
AcDbSymbolTableRecord
100
AcDbLayerTableRecord
  2
PHANTOM
 70
     0
 62
     1
  6
PHANTOM
  0
ENDTAB
  0
TABLE
  2
STYLE
  5
3
330
0
100
AcDbSymbolTable
 70
     2
  0
STYLE
  5
11
330
3
100
AcDbSymbolTableRecord
100
AcDbTextStyleTableRecord
  2
STANDARD
 70
     0
 40
0.0
 41
1.0
 50
0.0
 71
     0
 42
0.188
  3
txt
  4

  0
STYLE
  5
2E
330
3
100
AcDbSymbolTableRecord
100
AcDbTextStyleTableRecord
  2
STR
 70
     0
 40
0.0
 41
1.0
 50
0.0
 71
     0
 42
0.25
  3
SIMPLEX
  4

  0
ENDTAB
  0
TABLE
  2
VIEW
  5
6
330
0
100
AcDbSymbolTable
 70
     0
  0
ENDTAB
  0
TABLE
  2
UCS
  5
7
330
0
100
AcDbSymbolTable
 70
     0
  0
ENDTAB
  0
TABLE
  2
APPID
  5
9
330
0
100
AcDbSymbolTable
 70
     1
  0
APPID
  5
12
330
9
100
AcDbSymbolTableRecord
100
AcDbRegAppTableRecord
  2
ACAD
 70
     0
  0
ENDTAB
  0
TABLE
  2
DIMSTYLE
  5
A
330
0
100
AcDbSymbolTable
 70
     1
  0
DIMSTYLE
105
180
330
A
100
AcDbSymbolTableRecord
100
AcDbDimStyleTableRecord
  2
STANDARD
 70
     0
  3

  4

  5

  6

  7

 40
1.0
 41
0.18
 42
0.0625
 43
0.38
 44
0.18
 45
0.0
 46
0.0
 47
0.0
 48
0.0
140
0.18
141
0.09
142
0.0
143
25.4
144
1.0
145
0.0
146
1.0
147
0.09
 71
     0
 72
     0
 73
     1
 74
     1
 75
     0
 76
     0
 77
     0
 78
     0
170
     0
171
     2
172
     0
173
     0
174
     0
175
     0
176
     0
177
     0
178
     0
270
     2
271
     4
272
     4
273
     2
274
     2
340
11
275
     0
280
     0
281
     0
282
     0
283
     1
284
     0
285
     0
286
     0
287
     3
288
     0
  0
ENDTAB
  0
TABLE
  2
BLOCK_RECORD
  5
1
330
0
100
AcDbSymbolTable
 70
     9
  0
BLOCK_RECORD
  5
1E
102
{ACAD_XDICTIONARY
360
1A5
102
}
330
1
100
AcDbSymbolTableRecord
100
AcDbBlockTableRecord
  2
*MODEL_SPACE
  0
BLOCK_RECORD
  5
1A
102
{ACAD_XDICTIONARY
360
1A3
102
}
330
1
100
AcDbSymbolTableRecord
100
AcDbBlockTableRecord
  2
*PAPER_SPACE
  0
BLOCK_RECORD
  5
31
330
1
100
AcDbSymbolTableRecord
100
AcDbBlockTableRecord
  2
D02HESPS
  0
BLOCK_RECORD
  5
51
330
1
100
AcDbSymbolTableRecord
100
AcDbBlockTableRecord
  2
100CROSS
  0
BLOCK_RECORD
  5
70
330
1
100
AcDbSymbolTableRecord
100
AcDbBlockTableRecord
  2
025NPTFT
  0
BLOCK_RECORD
  5
72
330
1
100
AcDbSymbolTableRecord
100
AcDbBlockTableRecord
  2
075NPTFT
  0
BLOCK_RECORD
  5
75
330
1
100
AcDbSymbolTableRecord
100
AcDbBlockTableRecord
  2
106SAET
  0
BLOCK_RECORD
  5
FC
330
1
100
AcDbSymbolTableRecord
100
AcDbBlockTableRecord
  2
044SAET
  0
BLOCK_RECORD
  5
111
330
1
100
AcDbSymbolTableRecord
100
AcDbBlockTableRecord
  2
050CROSS
  0
BLOCK_RECORD
  5
11D
330
1
100
AcDbSymbolTableRecord
100
AcDbBlockTableRecord
  2
750NPTFT
  0
BLOCK_RECORD
  5
121
330
1
100
AcDbSymbolTableRecord
100
AcDbBlockTableRecord
  2
250NPTFT
  0
ENDTAB
  0
ENDSEC
  0
SECTION
  2
BLOCKS
  0
BLOCK
  5
1F
330
1E
100
AcDbEntity
  8
0
100
AcDbBlockBegin
  2
*MODEL_SPACE
 70
     0
 10
0.0
 20
0.0
 30
0.0
  3
*MODEL_SPACE
  1

  0
ENDBLK
  5
20
330
1E
100
AcDbEntity
  8
0
100
AcDbBlockEnd
  0
BLOCK
  5
1B
330
1A
100
AcDbEntity
 67
     1
  8
0
100
AcDbBlockBegin
  2
*PAPER_SPACE
 70
     0
 10
0.0
 20
0.0
 30
0.0
  3
*PAPER_SPACE
  1

  0
ENDBLK
  5
1C
330
1A
100
AcDbEntity
 67
     1
  8
0
100
AcDbBlockEnd
  0
BLOCK
  5
32
330
31
100
AcDbEntity
  8
0
100
AcDbBlockBegin
  2
D02HESPS
 70
     0
 10
0.0
 20
0.0
 30
0.0
  3
D02HESPS
  1

  0
LWPOLYLINE
  5
33
330
31
100
AcDbEntity
  8
BORDER
100
AcDbPolyline
 90
        4
 70
     1
 43
0.0
 10
9.75
 20
14.25
 10
13.5
 20
14.25
 10
13.5
 20
12.5
 10
9.75
 20
12.5
  0
LWPOLYLINE
  5
39
330
31
100
AcDbEntity
  8
BORDER
100
AcDbPolyline
 90
        4
 70
     1
 43
0.0
 10
9.75
 20
3.875
 10
13.5
 20
3.875
 10
13.5
 20
2.125
 10
9.75
 20
2.125
  0
LWPOLYLINE
  5
3F
330
31
100
AcDbEntity
  8
BORDER
100
AcDbPolyline
 90
        4
 70
     1
 43
0.0
 10
9.75
 20
10.5
 10
13.5
 20
10.5
 10
13.5
 20
5.75
 10
9.75
 20
5.75
  0
LWPOLYLINE
  5
45
330
31
100
AcDbEntity
  8
BORDER
100
AcDbPolyline
 90
        4
 70
     1
 43
0.0
 10
3.6875
 20
10.5
 10
5.4375
 20
10.5
 10
5.4375
 20
5.75
 10
3.6875
 20
5.75
  0
LWPOLYLINE
  5
4B
330
31
100
AcDbEntity
  8
BORDER
100
AcDbPolyline
 90
        4
 70
     1
 43
0.0
 10
17.8125
 20
10.5
 10
19.5625
 20
10.5
 10
19.5625
 20
5.75
 10
17.8125
 20
5.75
  0
INSERT
  5
52
330
31
100
AcDbEntity
  8
CCENTER
100
AcDbBlockReference
  2
100CROSS
 10
12.094
 20
6.75
 30
0.0
 41
0.250604
 42
0.250604
  0
CIRCLE
  5
53
330
31
100
AcDbEntity
  8
CSOLID
100
AcDbCircle
 10
12.094
 20
6.75
 30
0.0
 40
0.124969
  0
CIRCLE
  5
54
330
31
100
AcDbEntity
  8
CSOLID
100
AcDbCircle
 10
12.094
 20
9.5
 30
0.0
 40
0.124969
  0
INSERT
  5
55
330
31
100
AcDbEntity
  8
CCENTER
100
AcDbBlockReference
  2
100CROSS
 10
12.094
 20
9.5
 30
0.0
 41
0.250604
 42
0.250604
  0
INSERT
  5
56
330
31
100
AcDbEntity
  8
CCENTER
100
AcDbBlockReference
  2
100CROSS
 10
10.71875
 20
9.1875
 30
0.0
 41
0.25
 42
0.25
  0
CIRCLE
  5
57
330
31
100
AcDbEntity
  8
CSOLID
100
AcDbCircle
 10
10.71875
 20
9.1875
 30
0.0
 40
0.1055
  0
CIRCLE
  5
58
330
31
100
AcDbEntity
  8
CSOLID
100
AcDbCircle
 10
10.71875
 20
7.0625
 30
0.0
 40
0.1055
  0
INSERT
  5
59
330
31
100
AcDbEntity
  8
CCENTER
100
AcDbBlockReference
  2
100CROSS
 10
10.71875
 20
7.0625
 30
0.0
 41
0.25
 42
0.25
  0
CIRCLE
  5
5A
330
31
100
AcDbEntity
  8
CSOLID
100
AcDbCircle
 10
12.53125
 20
9.1875
 30
0.0
 40
0.1055
  0
INSERT
  5
5B
330
31
100
AcDbEntity
  8
CCENTER
100
AcDbBlockReference
  2
100CROSS
 10
12.53125
 20
9.1875
 30
0.0
 41
0.25
 42
0.25
  0
CIRCLE
  5
5C
330
31
100
AcDbEntity
  8
CSOLID
100
AcDbCircle
 10
12.53125
 20
7.0625
 30
0.0
 40
0.1055
  0
INSERT
  5
5D
330
31
100
AcDbEntity
  8
CCENTER
100
AcDbBlockReference
  2
100CROSS
 10
12.53125
 20
7.0625
 30
0.0
 41
0.25
 42
0.25
  0
INSERT
  5
5E
330
31
100
AcDbEntity
  8
CCENTER
100
AcDbBlockReference
  2
100CROSS
 10
11.24975
 20
9.0625
 30
0.0
 41
0.4379999999999999
 42
0.4379999999999999
  0
CIRCLE
  5
5F
330
31
100
AcDbEntity
  8
CSOLID
100
AcDbCircle
 10
11.24975
 20
9.0625
 30
0.0
 40
0.21875
  0
CIRCLE
  5
60
330
31
100
AcDbEntity
  8
CSOLID
100
AcDbCircle
 10
11.68725
 20
8.531499999999999
 30
0.0
 40
0.21875
  0
INSERT
  5
61
330
31
100
AcDbEntity
  8
CCENTER
100
AcDbBlockReference
  2
100CROSS
 10
11.68725
 20
8.531499999999999
 30
0.0
 41
0.4379999999999999
 42
0.4379999999999999
  0
INSERT
  5
62
330
31
100
AcDbEntity
  8
CCENTER
100
AcDbBlockReference
  2
100CROSS
 10
11.68725
 20
7.718999999999999
 30
0.0
 41
0.4379999999999999
 42
0.4379999999999999
  0
CIRCLE
  5
63
330
31
100
AcDbEntity
  8
CSOLID
100
AcDbCircle
 10
11.68725
 20
7.718999999999999
 30
0.0
 40
0.21875
  0
CIRCLE
  5
64
330
31
100
AcDbEntity
  8
CSOLID
100
AcDbCircle
 10
12.28125
 20
8.125249999999999
 30
0.0
 40
0.21875
  0
INSERT
  5
65
330
31
100
AcDbEntity
  8
CCENTER
100
AcDbBlockReference
  2
100CROSS
 10
12.28125
 20
8.125249999999999
 30
0.0
 41
0.4379999999999999
 42
0.4379999999999999
  0
CIRCLE
  5
66
330
31
100
AcDbEntity
  8
CHIDDEN
100
AcDbCircle
 10
10.71875
 20
7.0625
 30
0.0
 40
0.125
  0
CIRCLE
  5
67
330
31
100
AcDbEntity
  8
CHIDDEN
100
AcDbCircle
 10
12.53125
 20
7.0625
 30
0.0
 40
0.125
  0
CIRCLE
  5
68
330
31
100
AcDbEntity
  8
CHIDDEN
100
AcDbCircle
 10
12.53125
 20
9.1875
 30
0.0
 40
0.125
  0
CIRCLE
  5
69
330
31
100
AcDbEntity
  8
CHIDDEN
100
AcDbCircle
 10
10.71875
 20
9.1875
 30
0.0
 40
0.125
  0
INSERT
  5
6A
330
31
100
AcDbEntity
  8
CCENTER
100
AcDbBlockReference
  2
100CROSS
 10
10.12499999999999
 20
6.125
 30
0.0
 41
0.625
 42
0.625
 43
0.625
 50
270.0
  0
INSERT
  5
6B
330
31
100
AcDbEntity
  8
CCENTER
100
AcDbBlockReference
  2
100CROSS
 10
13.125
 20
10.12499999999999
 30
0.0
 41
0.625
 42
0.625
 43
0.625
 50
270.0
  0
CIRCLE
  5
6C
330
31
100
AcDbEntity
  8
CSOLID
100
AcDbCircle
 10
13.125
 20
10.12499999999999
 30
0.0
 40
0.3125
  0
CIRCLE
  5
6D
330
31
100
AcDbEntity
  8
CSOLID
100
AcDbCircle
 10
13.125
 20
10.12499999999999
 30
0.0
 40
0.203125
  0
CIRCLE
  5
6E
330
31
100
AcDbEntity
  8
CSOLID
100
AcDbCircle
 10
10.12499999999999
 20
6.125
 30
0.0
 40
0.203125
  0
CIRCLE
  5
6F
330
31
100
AcDbEntity
  8
CSOLID
100
AcDbCircle
 10
10.12499999999999
 20
6.125
 30
0.0
 40
0.3125
  0
INSERT
  5
71
330
31
100
AcDbEntity
  8
SOLID
100
AcDbBlockReference
  2
025NPTFT
 10
19.125
 20
6.5625
 30
0.0
 50
270.0
  0
INSERT
  5
73
330
31
100
AcDbEntity
  8
SOLID
100
AcDbBlockReference
  2
075NPTFT
 10
11.625
 20
3.0
 30
0.0
 50
270.0
  0
INSERT
  5
74
330
31
100
AcDbEntity
  8
SOLID
100
AcDbBlockReference
  2
075NPTFT
 10
11.625
 20
13.375
 30
0.0
 50
270.0
  0
INSERT
  5
76
330
31
100
AcDbEntity
  8
CDIM
100
AcDbBlockReference
  2
106SAET
 10
18.6875
 20
8.125
 30
0.0
  0
INSERT
  5
77
330
31
100
AcDbEntity
  8
CDIM
100
AcDbBlockReference
  2
106SAET
 10
4.5625
 20
8.375
 30
0.0
  0
TEXT
  5
78
330
31
100
AcDbEntity
  8
CDIM
100
AcDbText
 10
5.0
 20
7.5
 30
0.0
 40
0.25
  1
A
 50
270.0
  7
STR
100
AcDbText
  0
LINE
  5
79
330
31
100
AcDbEntity
  8
CDIM
100
AcDbLine
 10
3.6875
 20
10.651875
 30
0.0
 11
3.6875
 21
11.49125
 31
0.0
  0
LINE
  5
7A
330
31
100
AcDbEntity
  8
CDIM
100
AcDbLine
 10
4.5625
 20
10.276875
 30
0.0
 11
4.5625
 21
11.49125
 31
0.0
  0
LINE
  5
7B
330
31
100
AcDbEntity
  8
CDIM
100
AcDbLine
 10
4.866249999999999
 20
11.1875
 30
0.0
 11
5.169999999999999
 21
11.1875
 31
0.0
  0
LINE
  5
7C
330
31
100
AcDbEntity
  8
CDIM
100
AcDbLine
 10
3.38375
 20
11.1875
 30
0.0
 11
3.08
 21
11.1875
 31
0.0
  0
SOLID
  5
7D
330
31
100
AcDbEntity
  8
CDIM
100
AcDbTrace
 10
4.866249999999999
 20
11.13687499999999
 30
0.0
 11
4.866249999999999
 21
11.238125
 31
0.0
 12
4.5625
 22
11.1875
 32
0.0
 13
4.5625
 23
11.1875
 33
0.0
  0
SOLID
  5
7E
330
31
100
AcDbEntity
  8
CDIM
100
AcDbTrace
 10
3.38375
 20
11.13687499999999
 30
0.0
 11
3.38375
 21
11.238125
 31
0.0
 12
3.6875
 22
11.1875
 32
0.0
 13
3.6875
 23
11.1875
 33
0.0
  0
TEXT
  5
7F
330
31
100
AcDbEntity
  8
CDIM
100
AcDbText
 10
5.348749999999999
 20
11.0174
 30
0.0
 40
0.3402
  1
0.88
  7
STR
100
AcDbText
  0
LINE
  5
80
330
31
100
AcDbEntity
  8
CDIM
100
AcDbLine
 10
3.6875
 20
10.651875
 30
0.0
 11
3.6875
 21
12.4025
 31
0.0
  0
LINE
  5
81
330
31
100
AcDbEntity
  8
CDIM
100
AcDbLine
 10
5.4375
 20
10.651875
 30
0.0
 11
5.4375
 21
10.84375
 31
0.0
  0
LINE
  5
82
330
31
100
AcDbEntity
  8
CDIM
100
AcDbLine
 10
5.741249999999999
 20
12.09875
 30
0.0
 11
6.044999999999999
 21
12.09875
 31
0.0
  0
LINE
  5
83
330
31
100
AcDbEntity
  8
CDIM
100
AcDbLine
 10
3.38375
 20
12.09875
 30
0.0
 11
3.08
 21
12.09875
 31
0.0
  0
SOLID
  5
84
330
31
100
AcDbEntity
  8
CDIM
100
AcDbTrace
 10
5.741249999999999
 20
12.048125
 30
0.0
 11
5.741249999999999
 21
12.149375
 31
0.0
 12
5.4375
 22
12.09875
 32
0.0
 13
5.4375
 23
12.09875
 33
0.0
  0
SOLID
  5
85
330
31
100
AcDbEntity
  8
CDIM
100
AcDbTrace
 10
3.38375
 20
12.048125
 30
0.0
 11
3.38375
 21
12.149375
 31
0.0
 12
3.6875
 22
12.09875
 32
0.0
 13
3.6875
 23
12.09875
 33
0.0
  0
TEXT
  5
86
330
31
100
AcDbEntity
  8
CDIM
100
AcDbText
 10
4.098749999999999
 20
11.92865
 30
0.0
 40
0.3402
  1
1.75
  7
STR
100
AcDbText
  0
LINE
  5
87
330
31
100
AcDbEntity
  8
CDIM
100
AcDbLine
 10
9.598124999999999
 20
10.5
 30
0.0
 11
8.758749999999999
 21
10.5
 31
0.0
  0
LINE
  5
88
330
31
100
AcDbEntity
  8
CDIM
100
AcDbLine
 10
11.896687
 20
8.125249999999999
 30
0.0
 11
8.8125
 21
8.125249999999999
 31
0.0
  0
LINE
  5
89
330
31
100
AcDbEntity
  8
CDIM
100
AcDbLine
 10
9.0625
 20
10.19625
 30
0.0
 11
9.0625
 21
9.786474999999999
 31
0.0
  0
LINE
  5
8A
330
31
100
AcDbEntity
  8
CDIM
100
AcDbLine
 10
9.0625
 20
8.429
 30
0.0
 11
9.0625
 21
8.838775
 31
0.0
  0
SOLID
  5
8B
330
31
100
AcDbEntity
  8
CDIM
100
AcDbTrace
 10
9.113125
 20
10.19625
 30
0.0
 11
9.011874999999999
 21
10.19625
 31
0.0
 12
9.0625
 22
10.5
 32
0.0
 13
9.0625
 23
10.5
 33
0.0
  0
SOLID
  5
8C
330
31
100
AcDbEntity
  8
CDIM
100
AcDbTrace
 10
9.113125
 20
8.429
 30
0.0
 11
9.011874999999999
 21
8.429
 31
0.0
 12
9.0625
 22
8.125249999999999
 32
0.0
 13
9.0625
 23
8.125249999999999
 33
0.0
  0
TEXT
  5
8D
330
31
100
AcDbEntity
  8
CDIM
100
AcDbText
 10
8.5441
 20
9.142524999999999
 30
0.0
 40
0.3402
  1
2.37
  7
STR
100
AcDbText
  0
LINE
  5
8E
330
31
100
AcDbEntity
  8
CDIM
100
AcDbLine
 10
9.598124999999999
 20
10.5
 30
0.0
 11
7.8475
 21
10.5
 31
0.0
  0
LINE
  5
8F
330
31
100
AcDbEntity
  8
CDIM
100
AcDbLine
 10
9.598124999999999
 20
5.75
 30
0.0
 11
7.8475
 21
5.75
 31
0.0
  0
LINE
  5
90
330
31
100
AcDbEntity
  8
CDIM
100
AcDbLine
 10
8.151249999999999
 20
10.19625
 30
0.0
 11
8.151249999999999
 21
8.59885
 31
0.0
  0
LINE
  5
91
330
31
100
AcDbEntity
  8
CDIM
100
AcDbLine
 10
8.151249999999999
 20
6.053749999999999
 30
0.0
 11
8.151249999999999
 21
7.65115
 31
0.0
  0
SOLID
  5
92
330
31
100
AcDbEntity
  8
CDIM
100
AcDbTrace
 10
8.201874999999999
 20
10.19625
 30
0.0
 11
8.100625
 21
10.19625
 31
0.0
 12
8.151249999999999
 22
10.5
 32
0.0
 13
8.151249999999999
 23
10.5
 33
0.0
  0
SOLID
  5
93
330
31
100
AcDbEntity
  8
CDIM
100
AcDbTrace
 10
8.201874999999999
 20
6.053749999999999
 30
0.0
 11
8.100625
 21
6.053749999999999
 31
0.0
 12
8.151249999999999
 22
5.75
 32
0.0
 13
8.151249999999999
 23
5.75
 33
0.0
  0
TEXT
  5
94
330
31
100
AcDbEntity
  8
CDIM
100
AcDbText
 10
7.63285
 20
7.9549
 30
0.0
 40
0.3402
  1
4.75
  7
STR
100
AcDbText
  0
LINE
  5
95
330
31
100
AcDbEntity
  8
CDIM
100
AcDbLine
 10
9.75
 20
5.629374999999999
 30
0.0
 11
9.75
 21
4.88375
 31
0.0
  0
LINE
  5
96
330
31
100
AcDbEntity
  8
CDIM
100
AcDbLine
 10
10.12499999999999
 20
5.629374999999999
 30
0.0
 11
10.12499999999999
 21
4.88375
 31
0.0
  0
LINE
  5
97
330
31
100
AcDbEntity
  8
CDIM
100
AcDbLine
 10
10.42875
 20
5.1875
 30
0.0
 11
10.7325
 21
5.1875
 31
0.0
  0
LINE
  5
98
330
31
100
AcDbEntity
  8
CDIM
100
AcDbLine
 10
9.446249999999999
 20
5.1875
 30
0.0
 11
9.1425
 21
5.1875
 31
0.0
  0
SOLID
  5
99
330
31
100
AcDbEntity
  8
CDIM
100
AcDbTrace
 10
10.42875
 20
5.136874999999999
 30
0.0
 11
10.42875
 21
5.238125
 31
0.0
 12
10.12499999999999
 22
5.1875
 32
0.0
 13
10.12499999999999
 23
5.1875
 33
0.0
  0
SOLID
  5
9A
330
31
100
AcDbEntity
  8
CDIM
100
AcDbTrace
 10
9.446249999999999
 20
5.136874999999999
 30
0.0
 11
9.446249999999999
 21
5.238125
 31
0.0
 12
9.75
 22
5.1875
 32
0.0
 13
9.75
 23
5.1875
 33
0.0
  0
TEXT
  5
9B
330
31
100
AcDbEntity
  8
CDIM
100
AcDbText
 10
11.03625
 20
5.0174
 30
0.0
 40
0.3402
  1
0.37
  7
STR
100
AcDbText
  0
LINE
  5
9C
330
31
100
AcDbEntity
  8
CDIM
100
AcDbLine
 10
9.75
 20
5.629374999999999
 30
0.0
 11
9.75
 21
4.0975
 31
0.0
  0
LINE
  5
9D
330
31
100
AcDbEntity
  8
CDIM
100
AcDbLine
 10
13.125
 20
9.566874999999999
 30
0.0
 11
13.125
 21
4.0975
 31
0.0
  0
LINE
  5
9E
330
31
100
AcDbEntity
  8
CDIM
100
AcDbLine
 10
10.05375
 20
4.40125
 30
0.0
 11
10.61534999999999
 21
4.40125
 31
0.0
  0
LINE
  5
9F
330
31
100
AcDbEntity
  8
CDIM
100
AcDbLine
 10
12.82124999999999
 20
4.40125
 30
0.0
 11
12.25965
 21
4.40125
 31
0.0
  0
SOLID
  5
A0
330
31
100
AcDbEntity
  8
CDIM
100
AcDbTrace
 10
10.05375
 20
4.350624999999999
 30
0.0
 11
10.05375
 21
4.451875
 31
0.0
 12
9.75
 22
4.40125
 32
0.0
 13
9.75
 23
4.40125
 33
0.0
  0
SOLID
  5
A1
330
31
100
AcDbEntity
  8
CDIM
100
AcDbTrace
 10
12.82124999999999
 20
4.350624999999999
 30
0.0
 11
12.82124999999999
 21
4.451875
 31
0.0
 12
13.125
 22
4.40125
 32
0.0
 13
13.125
 23
4.40125
 33
0.0
  0
TEXT
  5
A2
330
31
100
AcDbEntity
  8
CDIM
100
AcDbText
 10
10.9191
 20
4.23115
 30
0.0
 40
0.3402
  1
3.38
  7
STR
100
AcDbText
  0
LINE
  5
A3
330
31
100
AcDbEntity
  8
CDIM
100
AcDbLine
 10
11.625
 20
2.223125
 30
0.0
 11
11.625
 21
1.2275
 31
0.0
  0
LINE
  5
A4
330
31
100
AcDbEntity
  8
CDIM
100
AcDbLine
 10
11.92875
 20
1.53125
 30
0.0
 11
12.2325
 21
1.53125
 31
0.0
  0
LINE
  5
A5
330
31
100
AcDbEntity
  8
CDIM
100
AcDbLine
 10
9.446249999999999
 20
1.53125
 30
0.0
 11
9.1425
 21
1.53125
 31
0.0
  0
SOLID
  5
A6
330
31
100
AcDbEntity
  8
CDIM
100
AcDbTrace
 10
11.92875
 20
1.480625
 30
0.0
 11
11.92875
 21
1.581874999999999
 31
0.0
 12
11.625
 22
1.53125
 32
0.0
 13
11.625
 23
1.53125
 33
0.0
  0
SOLID
  5
A7
330
31
100
AcDbEntity
  8
CDIM
100
AcDbTrace
 10
9.446249999999999
 20
1.480625
 30
0.0
 11
9.446249999999999
 21
1.581874999999999
 31
0.0
 12
9.75
 22
1.53125
 32
0.0
 13
9.75
 23
1.53125
 33
0.0
  0
TEXT
  5
A8
330
31
100
AcDbEntity
  8
CDIM
100
AcDbText
 10
10.255
 20
1.36115
 30
0.0
 40
0.3402
  1
1.88
  7
STR
100
AcDbText
  0
LINE
  5
A9
330
31
100
AcDbEntity
  8
CDIM
100
AcDbLine
 10
9.598124999999999
 20
2.125
 30
0.0
 11
8.758749999999999
 21
2.125
 31
0.0
  0
LINE
  5
AA
330
31
100
AcDbEntity
  8
CDIM
100
AcDbLine
 10
10.566875
 20
3.0
 30
0.0
 11
8.758749999999999
 21
3.0
 31
0.0
  0
LINE
  5
AB
330
31
100
AcDbEntity
  8
CDIM
100
AcDbLine
 10
9.0625
 20
3.303749999999999
 30
0.0
 11
9.0625
 21
3.607499999999999
 31
0.0
  0
LINE
  5
AC
330
31
100
AcDbEntity
  8
CDIM
100
AcDbLine
 10
9.0625
 20
1.82125
 30
0.0
 11
9.0625
 21
1.5175
 31
0.0
  0
SOLID
  5
AD
330
31
100
AcDbEntity
  8
CDIM
100
AcDbTrace
 10
9.113125
 20
3.303749999999999
 30
0.0
 11
9.011874999999999
 21
3.303749999999999
 31
0.0
 12
9.0625
 22
3.0
 32
0.0
 13
9.0625
 23
3.0
 33
0.0
  0
SOLID
  5
AE
330
31
100
AcDbEntity
  8
CDIM
100
AcDbTrace
 10
9.113125
 20
1.82125
 30
0.0
 11
9.011874999999999
 21
1.82125
 31
0.0
 12
9.0625
 22
2.125
 32
0.0
 13
9.0625
 23
2.125
 33
0.0
  0
TEXT
  5
AF
330
31
100
AcDbEntity
  8
CDIM
100
AcDbText
 10
8.607499999999999
 20
2.406149999999999
 30
0.0
 40
0.3402
  1
0.88
  7
STR
100
AcDbText
  0
LINE
  5
B0
330
31
100
AcDbEntity
  8
CDIM
100
AcDbLine
 10
11.625
 20
14.308125
 30
0.0
 11
11.625
 21
15.11625
 31
0.0
  0
LINE
  5
B1
330
31
100
AcDbEntity
  8
CDIM
100
AcDbLine
 10
11.92875
 20
14.8125
 30
0.0
 11
12.2325
 21
14.8125
 31
0.0
  0
LINE
  5
B2
330
31
100
AcDbEntity
  8
CDIM
100
AcDbLine
 10
9.446249999999999
 20
14.8125
 30
0.0
 11
9.1425
 21
14.8125
 31
0.0
  0
SOLID
  5
B3
330
31
100
AcDbEntity
  8
CDIM
100
AcDbTrace
 10
11.92875
 20
14.76187499999999
 30
0.0
 11
11.92875
 21
14.863125
 31
0.0
 12
11.625
 22
14.8125
 32
0.0
 13
11.625
 23
14.8125
 33
0.0
  0
SOLID
  5
B4
330
31
100
AcDbEntity
  8
CDIM
100
AcDbTrace
 10
9.446249999999999
 20
14.76187499999999
 30
0.0
 11
9.446249999999999
 21
14.863125
 31
0.0
 12
9.75
 22
14.8125
 32
0.0
 13
9.75
 23
14.8125
 33
0.0
  0
TEXT
  5
B5
330
31
100
AcDbEntity
  8
CDIM
100
AcDbText
 10
10.22375
 20
14.6424
 30
0.0
 40
0.3402
  1
1.88
  7
STR
100
AcDbText
  0
LINE
  5
B6
330
31
100
AcDbEntity
  8
CDIM
100
AcDbLine
 10
9.598124999999999
 20
14.25
 30
0.0
 11
8.758749999999999
 21
14.25
 31
0.0
  0
LINE
  5
B7
330
31
100
AcDbEntity
  8
CDIM
100
AcDbLine
 10
10.566875
 20
13.375
 30
0.0
 11
8.758749999999999
 21
13.375
 31
0.0
  0
LINE
  5
B8
330
31
100
AcDbEntity
  8
CDIM
100
AcDbLine
 10
9.0625
 20
13.07125
 30
0.0
 11
9.0625
 21
12.7675
 31
0.0
  0
LINE
  5
B9
330
31
100
AcDbEntity
  8
CDIM
100
AcDbLine
 10
9.0625
 20
14.55375
 30
0.0
 11
9.0625
 21
14.8575
 31
0.0
  0
SOLID
  5
BA
330
31
100
AcDbEntity
  8
CDIM
100
AcDbTrace
 10
9.113125
 20
13.07125
 30
0.0
 11
9.011874999999999
 21
13.07125
 31
0.0
 12
9.0625
 22
13.375
 32
0.0
 13
9.0625
 23
13.375
 33
0.0
  0
SOLID
  5
BB
330
31
100
AcDbEntity
  8
CDIM
100
AcDbTrace
 10
9.113125
 20
14.55375
 30
0.0
 11
9.011874999999999
 21
14.55375
 31
0.0
 12
9.0625
 22
14.25
 32
0.0
 13
9.0625
 23
14.25
 33
0.0
  0
TEXT
  5
BC
330
31
100
AcDbEntity
  8
CDIM
100
AcDbText
 10
8.57445
 20
13.62865
 30
0.0
 40
0.3402
  1
0.88
  7
STR
100
AcDbText
  0
LINE
  5
BD
330
31
100
AcDbEntity
  8
CDIM
100
AcDbLine
 10
9.75
 20
10.651875
 30
0.0
 11
9.75
 21
11.49125
 31
0.0
  0
LINE
  5
BE
330
31
100
AcDbEntity
  8
CDIM
100
AcDbLine
 10
12.28125
 20
8.495625
 30
0.0
 11
12.28125
 21
11.49125
 31
0.0
  0
LINE
  5
BF
330
31
100
AcDbEntity
  8
CDIM
100
AcDbLine
 10
10.05375
 20
11.1875
 30
0.0
 11
10.193475
 21
11.1875
 31
0.0
  0
LINE
  5
C0
330
31
100
AcDbEntity
  8
CDIM
100
AcDbLine
 10
11.97749999999999
 20
11.1875
 30
0.0
 11
11.837775
 21
11.1875
 31
0.0
  0
SOLID
  5
C1
330
31
100
AcDbEntity
  8
CDIM
100
AcDbTrace
 10
10.05375
 20
11.13687499999999
 30
0.0
 11
10.05375
 21
11.238125
 31
0.0
 12
9.75
 22
11.1875
 32
0.0
 13
9.75
 23
11.1875
 33
0.0
  0
SOLID
  5
C2
330
31
100
AcDbEntity
  8
CDIM
100
AcDbTrace
 10
11.97749999999999
 20
11.13687499999999
 30
0.0
 11
11.97749999999999
 21
11.238125
 31
0.0
 12
12.28125
 22
11.1875
 32
0.0
 13
12.28125
 23
11.1875
 33
0.0
  0
TEXT
  5
C3
330
31
100
AcDbEntity
  8
CDIM
100
AcDbText
 10
10.497225
 20
11.0174
 30
0.0
 40
0.3402
  1
2.53
  7
STR
100
AcDbText
  0
LINE
  5
C4
330
31
100
AcDbEntity
  8
CDIM
100
AcDbLine
 10
9.75
 20
10.651875
 30
0.0
 11
9.75
 21
12.2775
 31
0.0
  0
LINE
  5
C5
330
31
100
AcDbEntity
  8
CDIM
100
AcDbLine
 10
13.5
 20
10.651875
 30
0.0
 11
13.5
 21
12.2775
 31
0.0
  0
LINE
  5
C6
330
31
100
AcDbEntity
  8
CDIM
100
AcDbLine
 10
10.05375
 20
11.97375
 30
0.0
 11
10.80284999999999
 21
11.97375
 31
0.0
  0
LINE
  5
C7
330
31
100
AcDbEntity
  8
CDIM
100
AcDbLine
 10
13.19625
 20
11.97375
 30
0.0
 11
12.44715
 21
11.97375
 31
0.0
  0
SOLID
  5
C8
330
31
100
AcDbEntity
  8
CDIM
100
AcDbTrace
 10
10.05375
 20
11.923125
 30
0.0
 11
10.05375
 21
12.024375
 31
0.0
 12
9.75
 22
11.97375
 32
0.0
 13
9.75
 23
11.97375
 33
0.0
  0
SOLID
  5
C9
330
31
100
AcDbEntity
  8
CDIM
100
AcDbTrace
 10
13.19625
 20
11.923125
 30
0.0
 11
13.19625
 21
12.024375
 31
0.0
 12
13.5
 22
11.97375
 32
0.0
 13
13.5
 23
11.97375
 33
0.0
  0
TEXT
  5
CA
330
31
100
AcDbEntity
  8
CDIM
100
AcDbText
 10
11.10659999999999
 20
11.80364999999999
 30
0.0
 40
0.3402
  1
3.75
  7
STR
100
AcDbText
  0
LINE
  5
CB
330
31
100
AcDbEntity
  8
CDIM
100
AcDbLine
 10
13.651875
 20
10.5
 30
0.0
 11
14.49125
 21
10.5
 31
0.0
  0
LINE
  5
CC
330
31
100
AcDbEntity
  8
CDIM
100
AcDbLine
 10
13.620625
 20
10.12499999999999
 30
0.0
 11
14.49125
 21
10.12499999999999
 31
0.0
  0
LINE
  5
CD
330
31
100
AcDbEntity
  8
CDIM
100
AcDbLine
 10
14.1875
 20
9.821249999999999
 30
0.0
 11
14.1875
 21
9.5175
 31
0.0
  0
LINE
  5
CE
330
31
100
AcDbEntity
  8
CDIM
100
AcDbLine
 10
14.1875
 20
10.80375
 30
0.0
 11
14.1875
 21
11.1075
 31
0.0
  0
SOLID
  5
CF
330
31
100
AcDbEntity
  8
CDIM
100
AcDbTrace
 10
14.238125
 20
9.821249999999999
 30
0.0
 11
14.13687499999999
 21
9.821249999999999
 31
0.0
 12
14.1875
 22
10.12499999999999
 32
0.0
 13
14.1875
 23
10.12499999999999
 33
0.0
  0
SOLID
  5
D0
330
31
100
AcDbEntity
  8
CDIM
100
AcDbTrace
 10
14.238125
 20
10.80375
 30
0.0
 11
14.13687499999999
 21
10.80375
 31
0.0
 12
14.1875
 22
10.5
 32
0.0
 13
14.1875
 23
10.5
 33
0.0
  0
TEXT
  5
D1
330
31
100
AcDbEntity
  8
CDIM
100
AcDbText
 10
13.69945
 20
9.00365
 30
0.0
 40
0.3402
  1
0.37
  7
STR
100
AcDbText
  0
LINE
  5
D2
330
31
100
AcDbEntity
  8
CDIM
100
AcDbLine
 10
13.651875
 20
10.5
 30
0.0
 11
15.4025
 21
10.5
 31
0.0
  0
LINE
  5
D3
330
31
100
AcDbEntity
  8
CDIM
100
AcDbLine
 10
10.558125
 20
6.125
 30
0.0
 11
15.4025
 21
6.125
 31
0.0
  0
LINE
  5
D4
330
31
100
AcDbEntity
  8
CDIM
100
AcDbLine
 10
15.09875
 20
10.19625
 30
0.0
 11
15.09875
 21
8.22385
 31
0.0
  0
LINE
  5
D5
330
31
100
AcDbEntity
  8
CDIM
100
AcDbLine
 10
15.09875
 20
6.428749999999999
 30
0.0
 11
15.09875
 21
7.27615
 31
0.0
  0
SOLID
  5
D6
330
31
100
AcDbEntity
  8
CDIM
100
AcDbTrace
 10
15.149375
 20
10.19625
 30
0.0
 11
15.048125
 21
10.19625
 31
0.0
 12
15.09875
 22
10.5
 32
0.0
 13
15.09875
 23
10.5
 33
0.0
  0
SOLID
  5
D7
330
31
100
AcDbEntity
  8
CDIM
100
AcDbTrace
 10
15.149375
 20
6.428749999999999
 30
0.0
 11
15.048125
 21
6.428749999999999
 31
0.0
 12
15.09875
 22
6.125
 32
0.0
 13
15.09875
 23
6.125
 33
0.0
  0
TEXT
  5
D8
330
31
100
AcDbEntity
  8
CDIM
100
AcDbText
 10
14.58034999999999
 20
7.5799
 30
0.0
 40
0.3402
  1
4.37
  7
STR
100
AcDbText
  0
LINE
  5
D9
330
31
100
AcDbEntity
  8
CDIM
100
AcDbLine
 10
17.660625
 20
10.5
 30
0.0
 11
16.82125
 21
10.5
 31
0.0
  0
LINE
  5
DA
330
31
100
AcDbEntity
  8
CDIM
100
AcDbLine
 10
17.660625
 20
8.125
 30
0.0
 11
16.82125
 21
8.125
 31
0.0
  0
LINE
  5
DB
330
31
100
AcDbEntity
  8
CDIM
100
AcDbLine
 10
17.125
 20
10.19625
 30
0.0
 11
17.125
 21
9.78635
 31
0.0
  0
LINE
  5
DC
330
31
100
AcDbEntity
  8
CDIM
100
AcDbLine
 10
17.125
 20
8.42875
 30
0.0
 11
17.125
 21
8.838649999999999
 31
0.0
  0
SOLID
  5
DD
330
31
100
AcDbEntity
  8
CDIM
100
AcDbTrace
 10
17.175625
 20
10.19625
 30
0.0
 11
17.074375
 21
10.19625
 31
0.0
 12
17.125
 22
10.5
 32
0.0
 13
17.125
 23
10.5
 33
0.0
  0
SOLID
  5
DE
330
31
100
AcDbEntity
  8
CDIM
100
AcDbTrace
 10
17.175625
 20
8.42875
 30
0.0
 11
17.074375
 21
8.42875
 31
0.0
 12
17.125
 22
8.125
 32
0.0
 13
17.125
 23
8.125
 33
0.0
  0
TEXT
  5
DF
330
31
100
AcDbEntity
  8
CDIM
100
AcDbText
 10
16.6066
 20
9.1424
 30
0.0
 40
0.3402
  1
2.38
  7
STR
100
AcDbText
  0
LINE
  5
E0
330
31
100
AcDbEntity
  8
CDIM
100
AcDbLine
 10
17.660625
 20
10.5
 30
0.0
 11
15.91
 21
10.5
 31
0.0
  0
LINE
  5
E1
330
31
100
AcDbEntity
  8
CDIM
100
AcDbLine
 10
18.53125
 20
6.5625
 30
0.0
 11
15.91
 21
6.5625
 31
0.0
  0
LINE
  5
E2
330
31
100
AcDbEntity
  8
CDIM
100
AcDbLine
 10
16.21375
 20
10.19625
 30
0.0
 11
16.21375
 21
9.0051
 31
0.0
  0
LINE
  5
E3
330
31
100
AcDbEntity
  8
CDIM
100
AcDbLine
 10
16.21375
 20
6.866249999999999
 30
0.0
 11
16.21375
 21
8.057399999999999
 31
0.0
  0
SOLID
  5
E4
330
31
100
AcDbEntity
  8
CDIM
100
AcDbTrace
 10
16.264375
 20
10.19625
 30
0.0
 11
16.163125
 21
10.19625
 31
0.0
 12
16.21375
 22
10.5
 32
0.0
 13
16.21375
 23
10.5
 33
0.0
  0
SOLID
  5
E5
330
31
100
AcDbEntity
  8
CDIM
100
AcDbTrace
 10
16.264375
 20
6.866249999999999
 30
0.0
 11
16.163125
 21
6.866249999999999
 31
0.0
 12
16.21375
 22
6.5625
 32
0.0
 13
16.21375
 23
6.5625
 33
0.0
  0
TEXT
  5
E6
330
31
100
AcDbEntity
  8
CDIM
100
AcDbText
 10
15.68725
 20
8.3299
 30
0.0
 40
0.3402
  1
3.94
  7
STR
100
AcDbText
  0
LINE
  5
E7
330
31
100
AcDbEntity
  8
CDIM
100
AcDbLine
 10
19.5625
 20
10.651875
 30
0.0
 11
19.5625
 21
12.2725
 31
0.0
  0
LINE
  5
E8
330
31
100
AcDbEntity
  8
CDIM
100
AcDbLine
 10
18.6875
 20
9.151875
 30
0.0
 11
18.6875
 21
10.90624999999999
 31
0.0
  0
LINE
  5
E9
330
31
100
AcDbEntity
  8
CDIM
100
AcDbLine
 10
18.38375
 20
11.96875
 30
0.0
 11
18.07999999999999
 21
11.96875
 31
0.0
  0
LINE
  5
EA
330
31
100
AcDbEntity
  8
CDIM
100
AcDbLine
 10
19.86625
 20
11.96875
 30
0.0
 11
20.17
 21
11.96875
 31
0.0
  0
SOLID
  5
EB
330
31
100
AcDbEntity
  8
CDIM
100
AcDbTrace
 10
18.38375
 20
11.91812499999999
 30
0.0
 11
18.38375
 21
12.019375
 31
0.0
 12
18.6875
 22
11.96875
 32
0.0
 13
18.6875
 23
11.96875
 33
0.0
  0
SOLID
  5
EC
330
31
100
AcDbEntity
  8
CDIM
100
AcDbTrace
 10
19.86625
 20
11.91812499999999
 30
0.0
 11
19.86625
 21
12.019375
 31
0.0
 12
19.5625
 22
11.96875
 32
0.0
 13
19.5625
 23
11.96875
 33
0.0
  0
TEXT
  5
ED
330
31
100
AcDbEntity
  8
CDIM
100
AcDbText
 10
16.73945
 20
11.79865
 30
0.0
 40
0.3402
  1
0.88
  7
STR
100
AcDbText
  0
TEXT
  5
EE
330
31
100
AcDbEntity
  8
CDIM
100
AcDbText
 10
18.125
 20
8.9375
 30
0.0
 40
0.25
  1
P
 50
90.0
  7
STR
100
AcDbText
  0
TEXT
  5
EF
330
31
100
AcDbEntity
  8
CDIM
100
AcDbText
 10
18.75
 20
9.9375
 30
0.0
 40
0.25
  1
X
 50
90.0
  7
STR
100
AcDbText
  0
TEXT
  5
F0
330
31
100
AcDbEntity
  8
CDIM
100
AcDbText
 10
10.74999999999999
 20
12.90625
 30
0.0
 40
0.25
  1
T
 50
180.0
  7
STR
100
AcDbText
  0
TEXT
  5
F1
330
31
100
AcDbEntity
  8
CDIM
100
AcDbText
 10
12.40625
 20
3.5
 30
0.0
 40
0.25
  1
B
  7
STR
100
AcDbText
  0
LINE
  5
F2
330
31
100
AcDbEntity
  8
CDIM
100
AcDbLine
 10
5.589375
 20
10.5
 30
0.0
 11
6.428749999999999
 21
10.5
 31
0.0
  0
LINE
  5
F3
330
31
100
AcDbEntity
  8
CDIM
100
AcDbLine
 10
5.589375
 20
10.5
 30
0.0
 11
6.433749999999999
 21
10.5
 31
0.0
  0
LINE
  5
F4
330
31
100
AcDbEntity
  8
CDIM
100
AcDbLine
 10
5.620625
 20
8.375
 30
0.0
 11
6.433749999999999
 21
8.375
 31
0.0
  0
LINE
  5
F5
330
31
100
AcDbEntity
  8
CDIM
100
AcDbLine
 10
6.129999999999999
 20
10.19625
 30
0.0
 11
6.129999999999999
 21
9.91135
 31
0.0
  0
LINE
  5
F6
330
31
100
AcDbEntity
  8
CDIM
100
AcDbLine
 10
6.129999999999999
 20
8.67875
 30
0.0
 11
6.129999999999999
 21
8.963649999999999
 31
0.0
  0
SOLID
  5
F7
330
31
100
AcDbEntity
  8
CDIM
100
AcDbTrace
 10
6.180625
 20
10.19625
 30
0.0
 11
6.079374999999999
 21
10.19625
 31
0.0
 12
6.129999999999999
 22
10.5
 32
0.0
 13
6.129999999999999
 23
10.5
 33
0.0
  0
SOLID
  5
F8
330
31
100
AcDbEntity
  8
CDIM
100
AcDbTrace
 10
6.180625
 20
8.67875
 30
0.0
 11
6.079374999999999
 21
8.67875
 31
0.0
 12
6.129999999999999
 22
8.375
 32
0.0
 13
6.129999999999999
 23
8.375
 33
0.0
  0
TEXT
  5
F9
330
31
100
AcDbEntity
  8
CDIM
100
AcDbText
 10
5.644
 20
9.2674
 30
0.0
 40
0.3402
  1
2.13
  7
STR
100
AcDbText
  0
LINE
  5
FA
330
31
100
AcDbEntity
  8
CDIM
100
AcDbLine
 10
9.75
 20
14.46875
 30
0.0
 11
9.75
 21
15.11625
 31
0.0
  0
LINE
  5
FB
330
31
100
AcDbEntity
  8
CDIM
100
AcDbLine
 10
9.75
 20
1.96875
 30
0.0
 11
9.75
 21
1.2275
 31
0.0
  0
INSERT
  5
FD
330
31
100
AcDbEntity
  8
CDIM
100
AcDbBlockReference
  2
044SAET
 10
19.125
 20
9.5
 30
0.0
  0
TEXT
  5
FE
330
31
100
AcDbEntity
  8
CDIM
100
AcDbText
 10
18.75
 20
6.0
 30
0.0
 40
0.25
  1
Y
 50
90.0
  7
STR
100
AcDbText
  0
LINE
  5
FF
330
31
100
AcDbEntity
  8
CDIM
100
AcDbLine
 10
19.714375
 20
10.5
 30
0.0
 11
20.55375
 21
10.5
 31
0.0
  0
LINE
  5
100
330
31
100
AcDbEntity
  8
CDIM
100
AcDbLine
 10
19.745625
 20
9.5
 30
0.0
 11
20.55375
 21
9.5
 31
0.0
  0
LINE
  5
101
330
31
100
AcDbEntity
  8
CDIM
100
AcDbLine
 10
20.24999999999999
 20
9.196249999999999
 30
0.0
 11
20.24999999999999
 21
8.8925
 31
0.0
  0
LINE
  5
102
330
31
100
AcDbEntity
  8
CDIM
100
AcDbLine
 10
20.24999999999999
 20
10.80375
 30
0.0
 11
20.24999999999999
 21
11.1075
 31
0.0
  0
SOLID
  5
103
330
31
100
AcDbEntity
  8
CDIM
100
AcDbTrace
 10
20.300625
 20
9.196249999999999
 30
0.0
 11
20.199375
 21
9.196249999999999
 31
0.0
 12
20.24999999999999
 22
9.5
 32
0.0
 13
20.24999999999999
 23
9.5
 33
0.0
  0
SOLID
  5
104
330
31
100
AcDbEntity
  8
CDIM
100
AcDbTrace
 10
20.300625
 20
10.80375
 30
0.0
 11
20.199375
 21
10.80375
 31
0.0
 12
20.24999999999999
 22
10.5
 32
0.0
 13
20.24999999999999
 23
10.5
 33
0.0
  0
TEXT
  5
105
330
31
100
AcDbEntity
  8
CDIM
100
AcDbText
 10
19.82675
 20
9.81615
 30
0.0
 40
0.3402
  1
1.00
  7
STR
100
AcDbText
  0
LINE
  5
106
330
31
100
AcDbEntity
  8
CDIM
100
AcDbLine
 10
19.5625
 20
10.651875
 30
0.0
 11
19.5625
 21
11.49125
 31
0.0
  0
LINE
  5
107
330
31
100
AcDbEntity
  8
CDIM
100
AcDbLine
 10
19.125
 20
10.05812499999999
 30
0.0
 11
19.125
 21
11.49125
 31
0.0
  0
LINE
  5
108
330
31
100
AcDbEntity
  8
CDIM
100
AcDbLine
 10
18.82125
 20
11.1875
 30
0.0
 11
18.5175
 21
11.1875
 31
0.0
  0
LINE
  5
109
330
31
100
AcDbEntity
  8
CDIM
100
AcDbLine
 10
19.86625
 20
11.1875
 30
0.0
 11
20.17
 21
11.1875
 31
0.0
  0
SOLID
  5
10A
330
31
100
AcDbEntity
  8
CDIM
100
AcDbTrace
 10
18.82125
 20
11.13687499999999
 30
0.0
 11
18.82125
 21
11.238125
 31
0.0
 12
19.125
 22
11.1875
 32
0.0
 13
19.125
 23
11.1875
 33
0.0
  0
SOLID
  5
10B
330
31
100
AcDbEntity
  8
CDIM
100
AcDbTrace
 10
19.86625
 20
11.13687499999999
 30
0.0
 11
19.86625
 21
11.238125
 31
0.0
 12
19.5625
 22
11.1875
 32
0.0
 13
19.5625
 23
11.1875
 33
0.0
  0
TEXT
  5
10C
330
31
100
AcDbEntity
  8
CDIM
100
AcDbText
 10
17.16075
 20
11.0174
 30
0.0
 40
0.3402
  1
0.44
  7
STR
100
AcDbText
  0
LINE
  5
10D
330
31
100
AcDbEntity
  8
CDIM
100
AcDbLine
 10
18.6875
 20
11.53124999999999
 30
0.0
 11
18.6875
 21
12.2725
 31
0.0
  0
LINE
  5
10E
330
31
100
AcDbEntity
  8
CDIM
100
AcDbLine
 10
5.4375
 20
11.53124999999999
 30
0.0
 11
5.4375
 21
12.4025
 31
0.0
  0
ENDBLK
  5
10F
330
31
100
AcDbEntity
  8
0
100
AcDbBlockEnd
  0
BLOCK
  5
110
330
51
100
AcDbEntity
  8
CSOLID
100
AcDbBlockBegin
  2
100CROSS
 70
     0
 10
5.625
 20
4.59375
 30
0.0
  3
100CROSS
  1

  0
INSERT
  5
112
330
51
100
AcDbEntity
  8
0
100
AcDbBlockReference
  2
050CROSS
 10
5.625
 20
4.59375
 30
0.0
  0
ENDBLK
  5
113
330
51
100
AcDbEntity
  8
0
100
AcDbBlockEnd
  0
BLOCK
  5
120
330
70
100
AcDbEntity
  8
0
100
AcDbBlockBegin
  2
025NPTFT
 70
     0
 10
0.0
 20
0.0
 30
0.0
  3
025NPTFT
  1

  0
INSERT
  5
122
330
70
100
AcDbEntity
  8
DAMAN
100
AcDbBlockReference
  2
250NPTFT
 10
0.0
 20
0.0
 30
0.0
  0
ENDBLK
  5
123
330
70
100
AcDbEntity
  8
0
100
AcDbBlockEnd
  0
BLOCK
  5
11C
330
72
100
AcDbEntity
  8
0
100
AcDbBlockBegin
  2
075NPTFT
 70
     0
 10
0.0
 20
0.0
 30
0.0
  3
075NPTFT
  1

  0
INSERT
  5
11E
330
72
100
AcDbEntity
  8
DAMAN
100
AcDbBlockReference
  2
750NPTFT
 10
-6.410892999999999
 20
-4.555543
 30
0.0
  0
ENDBLK
  5
11F
330
72
100
AcDbEntity
  8
0
100
AcDbBlockEnd
  0
BLOCK
  5
124
330
75
100
AcDbEntity
  8
CDIM
100
AcDbBlockBegin
  2
106SAET
 70
     0
 10
6.625
 20
14.28125
 30
0.0
  3
106SAET
  1

  0
CIRCLE
  5
125
330
75
100
AcDbEntity
  8
CSOLID
100
AcDbCircle
 10
6.625
 20
14.28125
 30
0.0
 40
0.4920000000000001
  0
CIRCLE
  5
126
330
75
100
AcDbEntity
  8
CSOLID
100
AcDbCircle
 10
6.625
 20
14.28125
 30
0.0
 40
0.453
  0
CIRCLE
  5
127
330
75
100
AcDbEntity
  8
CSOLID
100
AcDbCircle
 10
6.625
 20
14.28125
 30
0.0
 40
0.8125
  0
INSERT
  5
128
330
75
100
AcDbEntity
  8
CCENTER
100
AcDbBlockReference
  2
100CROSS
 10
6.625
 20
14.28125
 30
0.0
 41
1.33
 42
1.33
  0
CIRCLE
  5
129
330
75
100
AcDbEntity
  8
CHIDDEN
100
AcDbCircle
 10
6.625
 20
14.28125
 30
0.0
 40
0.53125
  0
ENDBLK
  5
12A
330
75
100
AcDbEntity
  8
CDIM
100
AcDbBlockEnd
  0
BLOCK
  5
12B
330
FC
100
AcDbEntity
  8
CDIM
100
AcDbBlockBegin
  2
044SAET
 70
     0
 10
6.375
 20
2.1875
 30
0.0
  3
044SAET
  1

  0
CIRCLE
  5
12C
330
FC
100
AcDbEntity
  8
CHIDDEN
100
AcDbCircle
 10
6.375
 20
2.1875
 30
0.0
 40
0.21875
  0
INSERT
  5
12D
330
FC
100
AcDbEntity
  8
CCENTER
100
AcDbBlockReference
  2
100CROSS
 10
6.375
 20
2.1875
 30
0.0
 41
0.8
 42
0.8
  0
CIRCLE
  5
12E
330
FC
100
AcDbEntity
  8
CSOLID
100
AcDbCircle
 10
6.375
 20
2.1875
 30
0.0
 40
0.1875
  0
CIRCLE
  5
12F
330
FC
100
AcDbEntity
  8
CSOLID
100
AcDbCircle
 10
6.375
 20
2.1875
 30
0.0
 40
0.4375
  0
ENDBLK
  5
130
330
FC
100
AcDbEntity
  8
CDIM
100
AcDbBlockEnd
  0
BLOCK
  5
114
330
111
100
AcDbEntity
  8
0
100
AcDbBlockBegin
  2
050CROSS
 70
     0
 10
5.0
 20
5.0
 30
0.0
  3
050CROSS
  1

  0
LINE
  5
115
330
111
100
AcDbEntity
  8
0
100
AcDbLine
 10
5.0
 20
5.28125
 30
0.0
 11
5.0
 21
5.78125
 31
0.0
  0
LINE
  5
116
330
111
100
AcDbEntity
  8
0
100
AcDbLine
 10
5.0
 20
4.875
 30
0.0
 11
5.0
 21
5.125
 31
0.0
  0
LINE
  5
117
330
111
100
AcDbEntity
  8
0
100
AcDbLine
 10
5.0
 20
4.15625
 30
0.0
 11
5.0
 21
4.71875
 31
0.0
  0
LINE
  5
118
330
111
100
AcDbEntity
  8
0
100
AcDbLine
 10
5.25
 20
5.0
 30
0.0
 11
5.8125
 21
5.0
 31
0.0
  0
LINE
  5
119
330
111
100
AcDbEntity
  8
0
100
AcDbLine
 10
4.90625
 20
5.0
 30
0.0
 11
5.09375
 21
5.0
 31
0.0
  0
LINE
  5
11A
330
111
100
AcDbEntity
  8
0
100
AcDbLine
 10
4.1875
 20
5.0
 30
0.0
 11
4.75
 21
5.0
 31
0.0
  0
ENDBLK
  5
11B
330
111
100
AcDbEntity
  8
0
100
AcDbBlockEnd
  0
BLOCK
  5
131
330
11D
100
AcDbEntity
  8
0
100
AcDbBlockBegin
  2
750NPTFT
 70
     0
 10
0.0
 20
0.0
 30
0.0
  3
750NPTFT
  1

  0
INSERT
  5
132
330
11D
100
AcDbEntity
  8
DAMAN
 62
     5
100
AcDbBlockReference
  2
100CROSS
 10
6.410892999999999
 20
4.555543
 30
0.0
 41
0.98
 42
0.98
  0
CIRCLE
  5
133
330
11D
100
AcDbEntity
  8
DAMAN
 62
     5
100
AcDbCircle
 10
6.410892999999999
 20
4.555543
 30
0.0
 40
0.4910670000000001
  0
CIRCLE
  5
134
330
11D
100
AcDbEntity
  8
DAMAN
 62
     5
100
AcDbCircle
 10
6.410892999999999
 20
4.555543
 30
0.0
 40
0.453
  0
CIRCLE
  5
135
330
11D
100
AcDbEntity
  8
DAMAN
 62
     5
100
AcDbCircle
 10
6.410892999999999
 20
4.555543
 30
0.0
 40
0.53125
  0
ENDBLK
  5
136
330
11D
100
AcDbEntity
  8
0
100
AcDbBlockEnd
  0
BLOCK
  5
137
330
121
100
AcDbEntity
  8
0
100
AcDbBlockBegin
  2
250NPTFT
 70
     0
 10
0.0
 20
0.0
 30
0.0
  3
250NPTFT
  1

  0
CIRCLE
  5
138
330
121
100
AcDbEntity
  8
DAMAN
100
AcDbCircle
 10
0.0
 20
0.0
 30
0.0
 40
0.273
  0
CIRCLE
  5
139
330
121
100
AcDbEntity
  8
DAMAN
100
AcDbCircle
 10
0.0
 20
0.0
 30
0.0
 40
0.211
  0
INSERT
  5
13A
330
121
100
AcDbEntity
  8
DAMAN
100
AcDbBlockReference
  2
100CROSS
 10
0.0
 20
0.0
 30
0.0
 41
0.4220000000000001
 42
0.4220000000000001
  0
CIRCLE
  5
13B
330
121
100
AcDbEntity
  8
DAMAN
100
AcDbCircle
 10
0.0
 20
0.0
 30
0.0
 40
0.242251
  0
POINT
  5
13C
330
121
100
AcDbEntity
  8
CHIDDEN
100
AcDbPoint
 10
-0.087928
 20
0.191806
 30
0.0
  0
POINT
  5
13D
330
121
100
AcDbEntity
  8
CHIDDEN
100
AcDbPoint
 10
-0.137717
 20
-0.15986
 30
0.0
  0
POINT
  5
13E
330
121
100
AcDbEntity
  8
CHIDDEN
100
AcDbPoint
 10
0.202707
 20
-0.058572
 30
0.0
  0
ENDBLK
  5
13F
330
121
100
AcDbEntity
  8
0
100
AcDbBlockEnd
  0
ENDSEC
  0
SECTION
  2
ENTITIES
  0
INSERT
  5
140
330
1E
100
AcDbEntity
  8
DAMAN
100
AcDbBlockReference
  2
100CROSS
 10
13.75024999999999
 20
8.03125
 30
0.0
 41
0.250604
 42
0.250604
  0
CIRCLE
  5
141
330
1E
100
AcDbEntity
  8
DAMAN
100
AcDbCircle
 10
13.75024999999999
 20
8.03125
 30
0.0
 40
0.124969
  0
CIRCLE
  5
142
330
1E
100
AcDbEntity
  8
DAMAN
100
AcDbCircle
 10
13.75024999999999
 20
10.78125
 30
0.0
 40
0.124969
  0
INSERT
  5
143
330
1E
100
AcDbEntity
  8
DAMAN
100
AcDbBlockReference
  2
100CROSS
 10
13.75024999999999
 20
10.78125
 30
0.0
 41
0.250604
 42
0.250604
  0
INSERT
  5
144
330
1E
100
AcDbEntity
  8
DAMAN
100
AcDbBlockReference
  2
100CROSS
 10
12.375
 20
10.46875
 30
0.0
 41
0.25
 42
0.25
  0
CIRCLE
  5
145
330
1E
100
AcDbEntity
  8
DAMAN
100
AcDbCircle
 10
12.375
 20
10.46875
 30
0.0
 40
0.1055
  0
CIRCLE
  5
146
330
1E
100
AcDbEntity
  8
DAMAN
100
AcDbCircle
 10
12.375
 20
8.34375
 30
0.0
 40
0.1055
  0
INSERT
  5
147
330
1E
100
AcDbEntity
  8
DAMAN
100
AcDbBlockReference
  2
100CROSS
 10
12.375
 20
8.34375
 30
0.0
 41
0.25
 42
0.25
  0
CIRCLE
  5
148
330
1E
100
AcDbEntity
  8
DAMAN
100
AcDbCircle
 10
14.1875
 20
10.46875
 30
0.0
 40
0.1055
  0
INSERT
  5
149
330
1E
100
AcDbEntity
  8
DAMAN
100
AcDbBlockReference
  2
100CROSS
 10
14.1875
 20
10.46875
 30
0.0
 41
0.25
 42
0.25
  0
CIRCLE
  5
14A
330
1E
100
AcDbEntity
  8
DAMAN
100
AcDbCircle
 10
14.1875
 20
8.34375
 30
0.0
 40
0.1055
  0
INSERT
  5
14B
330
1E
100
AcDbEntity
  8
DAMAN
100
AcDbBlockReference
  2
100CROSS
 10
14.1875
 20
8.34375
 30
0.0
 41
0.25
 42
0.25
  0
INSERT
  5
14C
330
1E
100
AcDbEntity
  8
DAMAN
100
AcDbBlockReference
  2
100CROSS
 10
12.90599999999999
 20
10.34375
 30
0.0
 41
0.4379999999999999
 42
0.4379999999999999
  0
CIRCLE
  5
14D
330
1E
100
AcDbEntity
  8
DAMAN
100
AcDbCircle
 10
12.90599999999999
 20
10.34375
 30
0.0
 40
0.21875
  0
CIRCLE
  5
14E
330
1E
100
AcDbEntity
  8
DAMAN
100
AcDbCircle
 10
13.3435
 20
9.812749999999999
 30
0.0
 40
0.21875
  0
INSERT
  5
14F
330
1E
100
AcDbEntity
  8
DAMAN
100
AcDbBlockReference
  2
100CROSS
 10
13.3435
 20
9.812749999999999
 30
0.0
 41
0.4379999999999999
 42
0.4379999999999999
  0
INSERT
  5
150
330
1E
100
AcDbEntity
  8
DAMAN
100
AcDbBlockReference
  2
100CROSS
 10
13.3435
 20
9.000249999999999
 30
0.0
 41
0.4379999999999999
 42
0.4379999999999999
  0
CIRCLE
  5
151
330
1E
100
AcDbEntity
  8
DAMAN
100
AcDbCircle
 10
13.3435
 20
9.000249999999999
 30
0.0
 40
0.21875
  0
CIRCLE
  5
152
330
1E
100
AcDbEntity
  8
DAMAN
100
AcDbCircle
 10
13.9375
 20
9.406499999999999
 30
0.0
 40
0.21875
  0
INSERT
  5
153
330
1E
100
AcDbEntity
  8
DAMAN
100
AcDbBlockReference
  2
100CROSS
 10
13.9375
 20
9.406499999999999
 30
0.0
 41
0.4379999999999999
 42
0.4379999999999999
  0
CIRCLE
  5
154
330
1E
100
AcDbEntity
  8
DAMAN
100
AcDbCircle
 10
12.375
 20
8.34375
 30
0.0
 40
0.125
  0
CIRCLE
  5
155
330
1E
100
AcDbEntity
  8
DAMAN
100
AcDbCircle
 10
14.1875
 20
8.34375
 30
0.0
 40
0.125
  0
CIRCLE
  5
156
330
1E
100
AcDbEntity
  8
DAMAN
100
AcDbCircle
 10
14.1875
 20
10.46875
 30
0.0
 40
0.125
  0
CIRCLE
  5
157
330
1E
100
AcDbEntity
  8
DAMAN
100
AcDbCircle
 10
12.375
 20
10.46875
 30
0.0
 40
0.125
  0
CIRCLE
  5
158
330
1E
100
AcDbEntity
  8
DAMAN
100
AcDbCircle
 10
14.78125
 20
11.40625
 30
0.0
 40
0.3125
  0
CIRCLE
  5
159
330
1E
100
AcDbEntity
  8
DAMAN
100
AcDbCircle
 10
14.78125
 20
11.40625
 30
0.0
 40
0.203125
  0
CIRCLE
  5
15A
330
1E
100
AcDbEntity
  8
DAMAN
100
AcDbCircle
 10
11.78125
 20
7.40625
 30
0.0
 40
0.203125
  0
CIRCLE
  5
15B
330
1E
100
AcDbEntity
  8
DAMAN
100
AcDbCircle
 10
11.78125
 20
7.40625
 30
0.0
 40
0.3125
  0
TEXT
  5
15C
330
1E
100
AcDbEntity
  8
DAMAN
100
AcDbText
 10
8.65625
 20
8.78125
 30
0.0
 40
0.25
  1
A
 50
270.0
  7
STR
100
AcDbText
  0
TEXT
  5
15D
330
1E
100
AcDbEntity
  8
DAMAN
100
AcDbText
 10
17.78125
 20
10.21875
 30
0.0
 40
0.25
  1
P
 50
90.0
  7
STR
100
AcDbText
  0
TEXT
  5
15E
330
1E
100
AcDbEntity
  8
DAMAN
100
AcDbText
 10
18.40625
 20
11.21874999999999
 30
0.0
 40
0.25
  1
X
 50
90.0
  7
STR
100
AcDbText
  0
TEXT
  5
15F
330
1E
100
AcDbEntity
  8
DAMAN
100
AcDbText
 10
12.40625
 20
14.1875
 30
0.0
 40
0.25
  1
T
 50
180.0
  7
STR
100
AcDbText
  0
TEXT
  5
160
330
1E
100
AcDbEntity
  8
DAMAN
100
AcDbText
 10
14.0625
 20
4.78125
 30
0.0
 40
0.25
  1
B
  7
STR
100
AcDbText
  0
TEXT
  5
161
330
1E
100
AcDbEntity
  8
DAMAN
100
AcDbText
 10
18.40625
 20
7.28125
 30
0.0
 40
0.25
  1
Y
 50
90.0
  7
STR
100
AcDbText
  0
LINE
  5
162
330
1E
100
AcDbEntity
  8
DAMAN
100
AcDbLine
 10
7.34375
 20
11.78125
 30
0.0
 11
9.09375
 21
11.78125
 31
0.0
  0
LINE
  5
163
330
1E
100
AcDbEntity
  8
DAMAN
100
AcDbLine
 10
9.09375
 20
11.78125
 30
0.0
 11
9.09375
 21
7.03125
 31
0.0
  0
LINE
  5
164
330
1E
100
AcDbEntity
  8
DAMAN
100
AcDbLine
 10
9.09375
 20
7.03125
 30
0.0
 11
7.34375
 21
7.03125
 31
0.0
  0
LINE
  5
165
330
1E
100
AcDbEntity
  8
DAMAN
100
AcDbLine
 10
7.34375
 20
7.03125
 30
0.0
 11
7.34375
 21
11.78125
 31
0.0
  0
LINE
  5
166
330
1E
100
AcDbEntity
  8
DAMAN
100
AcDbLine
 10
11.40625
 20
11.78125
 30
0.0
 11
15.15625
 21
11.78125
 31
0.0
  0
LINE
  5
167
330
1E
100
AcDbEntity
  8
DAMAN
100
AcDbLine
 10
15.15625
 20
11.78125
 30
0.0
 11
15.15625
 21
7.03125
 31
0.0
  0
LINE
  5
168
330
1E
100
AcDbEntity
  8
DAMAN
100
AcDbLine
 10
15.15625
 20
7.03125
 30
0.0
 11
11.40625
 21
7.03125
 31
0.0
  0
LINE
  5
169
330
1E
100
AcDbEntity
  8
DAMAN
100
AcDbLine
 10
11.40625
 20
7.03125
 30
0.0
 11
11.40625
 21
11.78125
 31
0.0
  0
LINE
  5
16A
330
1E
100
AcDbEntity
  8
DAMAN
100
AcDbLine
 10
17.46875
 20
11.78125
 30
0.0
 11
19.21875
 21
11.78125
 31
0.0
  0
LINE
  5
16B
330
1E
100
AcDbEntity
  8
DAMAN
100
AcDbLine
 10
19.21875
 20
11.78125
 30
0.0
 11
19.21875
 21
7.03125
 31
0.0
  0
LINE
  5
16C
330
1E
100
AcDbEntity
  8
DAMAN
100
AcDbLine
 10
19.21875
 20
7.03125
 30
0.0
 11
17.46875
 21
7.03125
 31
0.0
  0
LINE
  5
16D
330
1E
100
AcDbEntity
  8
DAMAN
100
AcDbLine
 10
17.46875
 20
7.03125
 30
0.0
 11
17.46875
 21
11.78125
 31
0.0
  0
LINE
  5
16E
330
1E
100
AcDbEntity
  8
DAMAN
100
AcDbLine
 10
11.40625
 20
5.15625
 30
0.0
 11
15.15625
 21
5.15625
 31
0.0
  0
LINE
  5
16F
330
1E
100
AcDbEntity
  8
DAMAN
100
AcDbLine
 10
15.15625
 20
5.15625
 30
0.0
 11
15.15625
 21
3.40625
 31
0.0
  0
LINE
  5
170
330
1E
100
AcDbEntity
  8
DAMAN
100
AcDbLine
 10
15.15625
 20
3.40625
 30
0.0
 11
11.40625
 21
3.40625
 31
0.0
  0
LINE
  5
171
330
1E
100
AcDbEntity
  8
DAMAN
100
AcDbLine
 10
11.40625
 20
3.40625
 30
0.0
 11
11.40625
 21
5.15625
 31
0.0
  0
INSERT
  5
172
330
1E
100
AcDbEntity
  8
DAMAN
100
AcDbBlockReference
  2
050CROSS
 10
11.78125
 20
7.40625
 30
0.0
 41
0.625
 42
0.625
 50
270.0
  0
INSERT
  5
173
330
1E
100
AcDbEntity
  8
DAMAN
100
AcDbBlockReference
  2
050CROSS
 10
14.78125
 20
11.40625
 30
0.0
 41
0.625
 42
0.625
 50
270.0
  0
LINE
  5
174
330
1E
100
AcDbEntity
  8
DAMAN
100
AcDbLine
 10
11.40625
 20
15.53125
 30
0.0
 11
15.15625
 21
15.53125
 31
0.0
  0
LINE
  5
175
330
1E
100
AcDbEntity
  8
DAMAN
100
AcDbLine
 10
15.15625
 20
15.53125
 30
0.0
 11
15.15625
 21
13.78125
 31
0.0
  0
LINE
  5
176
330
1E
100
AcDbEntity
  8
DAMAN
100
AcDbLine
 10
15.15625
 20
13.78125
 30
0.0
 11
11.40625
 21
13.78125
 31
0.0
  0
LINE
  5
177
330
1E
100
AcDbEntity
  8
DAMAN
100
AcDbLine
 10
11.40625
 20
13.78125
 30
0.0
 11
11.40625
 21
15.53125
 31
0.0
  0
INSERT
  5
178
330
1E
100
AcDbEntity
  8
DAMAN
100
AcDbBlockReference
  2
075NPTFT
 10
8.21875
 20
9.65625
 30
0.0
  0
INSERT
  5
179
330
1E
100
AcDbEntity
  8
DAMAN
100
AcDbBlockReference
  2
075NPTFT
 10
13.28125
 20
14.65625
 30
0.0
  0
INSERT
  5
17A
330
1E
100
AcDbEntity
  8
DAMAN
100
AcDbBlockReference
  2
075NPTFT
 10
18.34375
 20
9.40625
 30
0.0
  0
INSERT
  5
17B
330
1E
100
AcDbEntity
  8
DAMAN
100
AcDbBlockReference
  2
075NPTFT
 10
13.28125
 20
4.28125
 30
0.0
  0
INSERT
  5
17C
330
1E
100
AcDbEntity
  8
DAMAN
100
AcDbBlockReference
  2
025NPTFT
 10
18.78125
 20
10.78125
 30
0.0
  0
INSERT
  5
17D
330
1E
100
AcDbEntity
  8
DAMAN
100
AcDbBlockReference
  2
025NPTFT
 10
18.78125
 20
7.84375
 30
0.0
  0
TEXT
  5
17E
330
1E
100
AcDbEntity
  8
DAMAN
100
AcDbText
 10
8.772589852384109
 20
8.127428173049214
 30
0.0
 40
0.188
  1
DAMAN
 50
270.0
100
AcDbText
  0
TEXT
  5
17F
330
1E
100
AcDbEntity
  8
DAMAN
100
AcDbText
 10
8.428839852384109
 20
8.096178173049215
 30
0.0
 40
0.188
  1
****
 50
270.0
100
AcDbText
  0
ENDSEC
  0
SECTION
  2
OBJECTS
  0
DICTIONARY
  5
C
330
0
100
AcDbDictionary
  3
ACAD_GROUP
350
D
  3
ACAD_LAYOUT
350
19
  3
ACAD_MLINESTYLE
350
16
  3
ACAD_PLOTSETTINGS
350
18
  3
ACAD_PLOTSTYLENAME
350
E
  3
ACDBHEADERROUNDTRIPXREC
350
183
  0
DICTIONARY
  5
1A5
330
1E
100
AcDbDictionary
280
     1
  3
ACAD_LAYOUTSELFREF
360
1A6
  0
DICTIONARY
  5
1A3
330
1A
100
AcDbDictionary
280
     1
  3
ACAD_LAYOUTSELFREF
360
1A4
  0
DICTIONARY
  5
D
102
{ACAD_REACTORS
330
C
102
}
330
C
100
AcDbDictionary
  0
DICTIONARY
  5
19
102
{ACAD_REACTORS
330
C
102
}
330
C
100
AcDbDictionary
  0
DICTIONARY
  5
16
102
{ACAD_REACTORS
330
C
102
}
330
C
100
AcDbDictionary
  3
STANDARD
350
17
  0
DICTIONARY
  5
18
102
{ACAD_REACTORS
330
C
102
}
330
C
100
AcDbDictionary
  0
ACDBDICTIONARYWDFLT
  5
E
102
{ACAD_REACTORS
330
C
102
}
330
C
100
AcDbDictionary
281
     1
  3
Normal
350
F
100
AcDbDictionaryWithDefault
340
F
  0
DICTIONARY
  5
183
102
{ACAD_REACTORS
330
C
102
}
330
C
100
AcDbDictionary
  3
CEPSNTYPE
350
18D
  3
FINGERPRINTGUID
350
18E
  3
HYPERLINKBASE
350
186
  3
INSUNITS
350
18C
  3
LAYOUTDICT
350
188
  3
LWETCUNION
350
18B
  3
PLOTSETDICT
350
189
  3
PLOTSTYLNAMDICT
350
18A
  3
PSVPSCALE
350
190
  3
PUCSBASE
350
193
  3
PUCSORGBACK
350
199
  3
PUCSORGBOTTOM
350
195
  3
PUCSORGFRONT
350
198
  3
PUCSORGLEFT
350
196
  3
PUCSORGRIGHT
350
197
  3
PUCSORGTOP
350
194
  3
PUCSORTHOREF
350
191
  3
PUCSORTHOVIEW
350
192
  3
STYLESHEET
350
187
  3
TSTACKALIGN
350
184
  3
TSTACKSIZE
350
185
  3
UCSBASE
350
19C
  3
UCSORGBACK
350
1A2
  3
UCSORGBOTTOM
350
19E
  3
UCSORGFRONT
350
1A1
  3
UCSORGLEFT
350
19F
  3
UCSORGRIGHT
350
1A0
  3
UCSORGTOP
350
19D
  3
UCSORTHOREF
350
19A
  3
UCSORTHOVIEW
350
19B
  3
VERSIONGUID
350
18F
  0
XRECORD
  5
1A6
102
{ACAD_REACTORS
330
1A5
102
}
330
1A5
100
AcDbXrecord
340
1E
  0
XRECORD
  5
1A4
102
{ACAD_REACTORS
330
1A3
102
}
330
1A3
100
AcDbXrecord
340
1A
  0
MLINESTYLE
  5
17
102
{ACAD_REACTORS
330
16
102
}
330
16
100
AcDbMlineStyle
  2
STANDARD
 70
     0
  3

 62
   256
 51
90.0
 52
90.0
 71
     2
 49
0.5
 62
   256
  6
BYLAYER
 49
-0.5
 62
   256
  6
BYLAYER
  0
ACDBPLACEHOLDER
  5
F
102
{ACAD_REACTORS
330
E
102
}
330
E
100
AcDbPlaceHolder
280
     0
  0
XRECORD
  5
18D
102
{ACAD_REACTORS
330
183
102
}
330
183
100
AcDbXrecord
 90
        0
  0
XRECORD
  5
18E
102
{ACAD_REACTORS
330
183
102
}
330
183
100
AcDbXrecord
  1
{F2D21888-CA81-41C1-B4E5-52523FBFB902}
  0
XRECORD
  5
186
102
{ACAD_REACTORS
330
183
102
}
330
183
100
AcDbXrecord
  1

  0
XRECORD
  5
18C
102
{ACAD_REACTORS
330
183
102
}
330
183
100
AcDbXrecord
 90
        0
  0
XRECORD
  5
188
102
{ACAD_REACTORS
330
183
102
}
330
183
100
AcDbXrecord
340
19
  0
XRECORD
  5
18B
102
{ACAD_REACTORS
330
183
102
}
330
183
100
AcDbXrecord
 90
    10781
  0
XRECORD
  5
189
102
{ACAD_REACTORS
330
183
102
}
330
183
100
AcDbXrecord
340
18
  0
XRECORD
  5
18A
102
{ACAD_REACTORS
330
183
102
}
330
183
100
AcDbXrecord
340
E
  0
XRECORD
  5
190
102
{ACAD_REACTORS
330
183
102
}
330
183
100
AcDbXrecord
 40
0.0
  0
XRECORD
  5
193
102
{ACAD_REACTORS
330
183
102
}
330
183
100
AcDbXrecord
340
0
  0
XRECORD
  5
199
102
{ACAD_REACTORS
330
183
102
}
330
183
100
AcDbXrecord
 10
0.0
 20
0.0
 30
0.0
  0
XRECORD
  5
195
102
{ACAD_REACTORS
330
183
102
}
330
183
100
AcDbXrecord
 10
0.0
 20
0.0
 30
0.0
  0
XRECORD
  5
198
102
{ACAD_REACTORS
330
183
102
}
330
183
100
AcDbXrecord
 10
0.0
 20
0.0
 30
0.0
  0
XRECORD
  5
196
102
{ACAD_REACTORS
330
183
102
}
330
183
100
AcDbXrecord
 10
0.0
 20
0.0
 30
0.0
  0
XRECORD
  5
197
102
{ACAD_REACTORS
330
183
102
}
330
183
100
AcDbXrecord
 10
0.0
 20
0.0
 30
0.0
  0
XRECORD
  5
194
102
{ACAD_REACTORS
330
183
102
}
330
183
100
AcDbXrecord
 10
0.0
 20
0.0
 30
0.0
  0
XRECORD
  5
191
102
{ACAD_REACTORS
330
183
102
}
330
183
100
AcDbXrecord
340
0
  0
XRECORD
  5
192
102
{ACAD_REACTORS
330
183
102
}
330
183
100
AcDbXrecord
 70
     0
  0
XRECORD
  5
187
102
{ACAD_REACTORS
330
183
102
}
330
183
100
AcDbXrecord
  1

  0
XRECORD
  5
184
102
{ACAD_REACTORS
330
183
102
}
330
183
100
AcDbXrecord
 90
        1
  0
XRECORD
  5
185
102
{ACAD_REACTORS
330
183
102
}
330
183
100
AcDbXrecord
 90
       70
  0
XRECORD
  5
19C
102
{ACAD_REACTORS
330
183
102
}
330
183
100
AcDbXrecord
340
0
  0
XRECORD
  5
1A2
102
{ACAD_REACTORS
330
183
102
}
330
183
100
AcDbXrecord
 10
0.0
 20
0.0
 30
0.0
  0
XRECORD
  5
19E
102
{ACAD_REACTORS
330
183
102
}
330
183
100
AcDbXrecord
 10
0.0
 20
0.0
 30
0.0
  0
XRECORD
  5
1A1
102
{ACAD_REACTORS
330
183
102
}
330
183
100
AcDbXrecord
 10
0.0
 20
0.0
 30
0.0
  0
XRECORD
  5
19F
102
{ACAD_REACTORS
330
183
102
}
330
183
100
AcDbXrecord
 10
0.0
 20
0.0
 30
0.0
  0
XRECORD
  5
1A0
102
{ACAD_REACTORS
330
183
102
}
330
183
100
AcDbXrecord
 10
0.0
 20
0.0
 30
0.0
  0
XRECORD
  5
19D
102
{ACAD_REACTORS
330
183
102
}
330
183
100
AcDbXrecord
 10
0.0
 20
0.0
 30
0.0
  0
XRECORD
  5
19A
102
{ACAD_REACTORS
330
183
102
}
330
183
100
AcDbXrecord
340
0
  0
XRECORD
  5
19B
102
{ACAD_REACTORS
330
183
102
}
330
183
100
AcDbXrecord
 70
     0
  0
XRECORD
  5
18F
102
{ACAD_REACTORS
330
183
102
}
330
183
100
AcDbXrecord
  1
{96300925-0228-45E4-8A4C-6A74A81D5D31}
  0
ENDSEC
  0
EOF
