  0
SECTION
  2
HEADER
  9
$ACADVER
  1
AC1014
  9
$ACADMAINTVER
 70
     9
  9
$DWGCODEPAGE
  3
ANSI_1252
  9
$INSBASE
 10
0.0
 20
0.0
 30
0.0
  9
$EXTMIN
 10
3.062072785410649
 20
4.249542266886617
 30
-0.0015258207003583
  9
$EXTMAX
 10
10.31304934238205
 20
11.50051882502217
 30
0.0000000349246037
  9
$LIMMIN
 10
0.0
 20
0.0
  9
$LIMMAX
 10
12.0
 20
9.0
  9
$ORTHOMODE
 70
     1
  9
$REGENMODE
 70
     1
  9
$FILLMODE
 70
     1
  9
$QTEXTMODE
 70
     0
  9
$MIRRTEXT
 70
     1
  9
$DRAGMODE
 70
     2
  9
$LTSCALE
 40
1.0
  9
$OSMODE
 70
    37
  9
$ATTMODE
 70
     1
  9
$TEXTSIZE
 40
0.188
  9
$TRACEWID
 40
0.05
  9
$TEXTSTYLE
  7
STANDARD
  9
$CLAYER
  8
DAMAN
  9
$CELTYPE
  6
BYLAYER
  9
$CECOLOR
 62
   256
  9
$CELTSCALE
 40
1.0
  9
$DELOBJ
 70
     1
  9
$DISPSILH
 70
     0
  9
$DIMSCALE
 40
1.0
  9
$DIMASZ
 40
0.18
  9
$DIMEXO
 40
0.0625
  9
$DIMDLI
 40
0.38
  9
$DIMRND
 40
0.0
  9
$DIMDLE
 40
0.0
  9
$DIMEXE
 40
0.18
  9
$DIMTP
 40
0.0
  9
$DIMTM
 40
0.0
  9
$DIMTXT
 40
0.18
  9
$DIMCEN
 40
0.09
  9
$DIMTSZ
 40
0.0
  9
$DIMTOL
 70
     0
  9
$DIMLIM
 70
     0
  9
$DIMTIH
 70
     1
  9
$DIMTOH
 70
     1
  9
$DIMSE1
 70
     0
  9
$DIMSE2
 70
     0
  9
$DIMTAD
 70
     0
  9
$DIMZIN
 70
     0
  9
$DIMBLK
  1

  9
$DIMASO
 70
     1
  9
$DIMSHO
 70
     1
  9
$DIMPOST
  1

  9
$DIMAPOST
  1

  9
$DIMALT
 70
     0
  9
$DIMALTD
 70
     2
  9
$DIMALTF
 40
25.4
  9
$DIMLFAC
 40
1.0
  9
$DIMTOFL
 70
     0
  9
$DIMTVP
 40
0.0
  9
$DIMTIX
 70
     0
  9
$DIMSOXD
 70
     0
  9
$DIMSAH
 70
     0
  9
$DIMBLK1
  1

  9
$DIMBLK2
  1

  9
$DIMSTYLE
  2
STANDARD
  9
$DIMCLRD
 70
     0
  9
$DIMCLRE
 70
     0
  9
$DIMCLRT
 70
     0
  9
$DIMTFAC
 40
1.0
  9
$DIMGAP
 40
0.09
  9
$DIMJUST
 70
     0
  9
$DIMSD1
 70
     0
  9
$DIMSD2
 70
     0
  9
$DIMTOLJ
 70
     1
  9
$DIMTZIN
 70
     0
  9
$DIMALTZ
 70
     0
  9
$DIMALTTZ
 70
     0
  9
$DIMFIT
 70
     3
  9
$DIMUPT
 70
     0
  9
$DIMUNIT
 70
     2
  9
$DIMDEC
 70
     4
  9
$DIMTDEC
 70
     4
  9
$DIMALTU
 70
     2
  9
$DIMALTTD
 70
     2
  9
$DIMTXSTY
  7
STANDARD
  9
$DIMAUNIT
 70
     0
  9
$LUNITS
 70
     2
  9
$LUPREC
 70
     4
  9
$SKETCHINC
 40
0.1
  9
$FILLETRAD
 40
0.0
  9
$AUNITS
 70
     0
  9
$AUPREC
 70
     0
  9
$MENU
  1
tom
  9
$ELEVATION
 40
0.0
  9
$PELEVATION
 40
0.0
  9
$THICKNESS
 40
0.0
  9
$LIMCHECK
 70
     0
  9
$BLIPMODE
 70
     0
  9
$CHAMFERA
 40
0.0
  9
$CHAMFERB
 40
0.0
  9
$CHAMFERC
 40
0.0
  9
$CHAMFERD
 40
0.0
  9
$SKPOLY
 70
     0
  9
$TDCREATE
 40
2449752.695412569
  9
$TDUPDATE
 40
2453423.660982349
  9
$TDINDWG
 40
0.0033829051
  9
$TDUSRTIMER
 40
0.0033829051
  9
$USRTIMER
 70
     1
  9
$ANGBASE
 50
0.0
  9
$ANGDIR
 70
     0
  9
$PDMODE
 70
     0
  9
$PDSIZE
 40
0.0
  9
$PLINEWID
 40
0.0
  9
$COORDS
 70
     1
  9
$SPLFRAME
 70
     0
  9
$SPLINETYPE
 70
     6
  9
$SPLINESEGS
 70
     8
  9
$ATTDIA
 70
     0
  9
$ATTREQ
 70
     1
  9
$HANDLING
 70
-16383
  9
$HANDSEED
  5
113
  9
$SURFTAB1
 70
     6
  9
$SURFTAB2
 70
     6
  9
$SURFTYPE
 70
     6
  9
$SURFU
 70
     6
  9
$SURFV
 70
     6
  9
$UCSNAME
  2

  9
$UCSORG
 10
0.0
 20
0.0
 30
0.0
  9
$UCSXDIR
 10
1.0
 20
0.0
 30
0.0
  9
$UCSYDIR
 10
0.0
 20
1.0
 30
0.0
  9
$PUCSNAME
  2

  9
$PUCSORG
 10
0.0
 20
0.0
 30
0.0
  9
$PUCSXDIR
 10
1.0
 20
0.0
 30
0.0
  9
$PUCSYDIR
 10
0.0
 20
1.0
 30
0.0
  9
$USERI1
 70
     0
  9
$USERI2
 70
     0
  9
$USERI3
 70
     0
  9
$USERI4
 70
     0
  9
$USERI5
 70
     0
  9
$USERR1
 40
0.0
  9
$USERR2
 40
0.0
  9
$USERR3
 40
0.0
  9
$USERR4
 40
0.0
  9
$USERR5
 40
0.0
  9
$WORLDVIEW
 70
     1
  9
$SHADEDGE
 70
     3
  9
$SHADEDIF
 70
    70
  9
$TILEMODE
 70
     1
  9
$MAXACTVP
 70
    16
  9
$PINSBASE
 10
0.0
 20
0.0
 30
0.0
  9
$PLIMCHECK
 70
     0
  9
$PEXTMIN
 10
1.000000000000000E+20
 20
1.000000000000000E+20
 30
1.000000000000000E+20
  9
$PEXTMAX
 10
-1.000000000000000E+20
 20
-1.000000000000000E+20
 30
-1.000000000000000E+20
  9
$PLIMMIN
 10
0.0
 20
0.0
  9
$PLIMMAX
 10
12.0
 20
9.0
  9
$UNITMODE
 70
     0
  9
$VISRETAIN
 70
     0
  9
$PLINEGEN
 70
     0
  9
$PSLTSCALE
 70
     1
  9
$TREEDEPTH
 70
  3020
  9
$PICKSTYLE
 70
     1
  9
$CMLSTYLE
  2
STANDARD
  9
$CMLJUST
 70
     0
  9
$CMLSCALE
 40
1.0
  9
$PROXYGRAPHICS
 70
     1
  9
$MEASUREMENT
 70
     0
  0
ENDSEC
  0
SECTION
  2
CLASSES
  0
CLASS
  1
ACDBDICTIONARYWDFLT
  2
AcDbDictionaryWithDefault
  3
AutoCAD 2000
 90
        0
280
     0
281
     0
  0
CLASS
  1
ACDBPLACEHOLDER
  2
AcDbPlaceHolder
  3
AutoCAD 2000
 90
        0
280
     0
281
     0
  0
CLASS
  1
LAYOUT
  2
AcDbLayout
  3
AutoCAD 2000
 90
        0
280
     0
281
     0
  0
CLASS
  1
LONG_TRANSACTION
  2
AcDbLongTransaction
  3
AutoCAD 2000
 90
        0
280
     0
281
     0
  0
CLASS
  1
LWPOLYLINE
  2
AcDbPolyline
  3
AutoCAD 2000
 90
        0
280
     0
281
     1
  0
CLASS
  1
HATCH
  2
AcDbHatch
  3
AutoCAD 2000
 90
        0
280
     0
281
     1
  0
CLASS
  1
XRECORD
  2
AcDbXrecord
  3
AutoCAD 2000
 90
        0
280
     0
281
     0
  0
ENDSEC
  0
SECTION
  2
TABLES
  0
TABLE
  2
VPORT
  5
8
330
0
100
AcDbSymbolTable
 70
     2
  0
VPORT
  5
EE
330
8
100
AcDbSymbolTableRecord
100
AcDbViewportTableRecord
  2
*ACTIVE
 70
     0
 10
0.0
 20
0.0
 11
1.0
 21
1.0
 12
6.634163716742586
 22
7.835699907351006
 13
0.0
 23
0.0
 14
0.03125
 24
0.03125
 15
0.0
 25
0.0
 16
0.0
 26
0.0
 36
1.0
 17
0.0
 27
0.0
 37
0.0
 40
8.849636530014379
 41
1.647569444444444
 42
50.0
 43
0.0
 44
0.0
 50
0.0
 51
0.0
 71
     0
 72
   100
 73
     1
 74
     1
 75
     1
 76
     0
 77
     0
 78
     0
  0
ENDTAB
  0
TABLE
  2
LTYPE
  5
5
330
0
100
AcDbSymbolTable
 70
     4
  0
LTYPE
  5
13
330
5
100
AcDbSymbolTableRecord
100
AcDbLinetypeTableRecord
  2
BYBLOCK
 70
     0
  3

 72
    65
 73
     0
 40
0.0
  0
LTYPE
  5
14
330
5
100
AcDbSymbolTableRecord
100
AcDbLinetypeTableRecord
  2
BYLAYER
 70
     0
  3

 72
    65
 73
     0
 40
0.0
  0
LTYPE
  5
15
330
5
100
AcDbSymbolTableRecord
100
AcDbLinetypeTableRecord
  2
CONTINUOUS
 70
     0
  3
Solid line
 72
    65
 73
     0
 40
0.0
  0
LTYPE
  5
24
330
5
100
AcDbSymbolTableRecord
100
AcDbLinetypeTableRecord
  2
HIDDEN
 70
     0
  3
_ _ _ _ _ _ _ _ _ _ _ _ _ _ _ _ _ _ _ _ _ _ _
 72
    65
 73
     2
 40
0.375
 49
0.25
 74
     0
 49
-0.125
 74
     0
  0
LTYPE
  5
25
330
5
100
AcDbSymbolTableRecord
100
AcDbLinetypeTableRecord
  2
CENTER
 70
     0
  3
____ _ ____ _ ____ _ ____ _ ____ _ ____ _ ____
 72
    65
 73
     4
 40
2.0
 49
1.25
 74
     0
 49
-0.25
 74
     0
 49
0.25
 74
     0
 49
-0.25
 74
     0
  0
LTYPE
  5
26
330
5
100
AcDbSymbolTableRecord
100
AcDbLinetypeTableRecord
  2
PHANTOM
 70
     0
  3
_____ _ _ _____ _ _ _____ _ _ _____ _ _ ____
 72
    65
 73
     6
 40
2.5
 49
1.25
 74
     0
 49
-0.25
 74
     0
 49
0.25
 74
     0
 49
-0.25
 74
     0
 49
0.25
 74
     0
 49
-0.25
 74
     0
  0
ENDTAB
  0
TABLE
  2
LAYER
  5
2
330
0
100
AcDbSymbolTable
 70
     8
  0
LAYER
  5
10
330
2
100
AcDbSymbolTableRecord
100
AcDbLayerTableRecord
  2
0
 70
     0
 62
     7
  6
CONTINUOUS
  0
LAYER
  5
22
330
2
100
AcDbSymbolTableRecord
100
AcDbLayerTableRecord
  2
DAMAN
 70
     0
 62
     5
  6
CONTINUOUS
  0
LAYER
  5
27
330
2
100
AcDbSymbolTableRecord
100
AcDbLayerTableRecord
  2
BORDER
 70
     0
 62
     7
  6
CONTINUOUS
  0
LAYER
  5
28
330
2
100
AcDbSymbolTableRecord
100
AcDbLayerTableRecord
  2
CSOLID
 70
     0
 62
     3
  6
CONTINUOUS
  0
LAYER
  5
29
330
2
100
AcDbSymbolTableRecord
100
AcDbLayerTableRecord
  2
CHIDDEN
 70
     0
 62
     3
  6
HIDDEN
  0
LAYER
  5
2A
330
2
100
AcDbSymbolTableRecord
100
AcDbLayerTableRecord
  2
CCENTER
 70
     0
 62
     4
  6
CENTER
  0
LAYER
  5
2B
330
2
100
AcDbSymbolTableRecord
100
AcDbLayerTableRecord
  2
CDIM
 70
     0
 62
     2
  6
CONTINUOUS
  0
LAYER
  5
2C
330
2
100
AcDbSymbolTableRecord
100
AcDbLayerTableRecord
  2
PHANTOM
 70
     0
 62
     1
  6
PHANTOM
  0
ENDTAB
  0
TABLE
  2
STYLE
  5
3
330
0
100
AcDbSymbolTable
 70
     2
  0
STYLE
  5
11
330
3
100
AcDbSymbolTableRecord
100
AcDbTextStyleTableRecord
  2
STANDARD
 70
     0
 40
0.0
 41
1.0
 50
0.0
 71
     0
 42
0.188
  3
txt
  4

  0
STYLE
  5
2D
330
3
100
AcDbSymbolTableRecord
100
AcDbTextStyleTableRecord
  2
STR
 70
     0
 40
0.0
 41
1.0
 50
0.0
 71
     0
 42
0.125
  3
ROMANS
  4

  0
ENDTAB
  0
TABLE
  2
VIEW
  5
6
330
0
100
AcDbSymbolTable
 70
     0
  0
ENDTAB
  0
TABLE
  2
UCS
  5
7
330
0
100
AcDbSymbolTable
 70
     0
  0
ENDTAB
  0
TABLE
  2
APPID
  5
9
330
0
100
AcDbSymbolTable
 70
     1
  0
APPID
  5
12
330
9
100
AcDbSymbolTableRecord
100
AcDbRegAppTableRecord
  2
ACAD
 70
     0
  0
ENDTAB
  0
TABLE
  2
DIMSTYLE
  5
A
330
0
100
AcDbSymbolTable
 70
     1
  0
DIMSTYLE
105
EC
330
A
100
AcDbSymbolTableRecord
100
AcDbDimStyleTableRecord
  2
STANDARD
 70
     0
  3

  4

  5

  6

  7

 40
1.0
 41
0.18
 42
0.0625
 43
0.38
 44
0.18
 45
0.0
 46
0.0
 47
0.0
 48
0.0
140
0.18
141
0.09
142
0.0
143
25.4
144
1.0
145
0.0
146
1.0
147
0.09
 71
     0
 72
     0
 73
     1
 74
     1
 75
     0
 76
     0
 77
     0
 78
     0
170
     0
171
     2
172
     0
173
     0
174
     0
175
     0
176
     0
177
     0
178
     0
270
     2
271
     4
272
     4
273
     2
274
     2
340
11
275
     0
280
     0
281
     0
282
     0
283
     1
284
     0
285
     0
286
     0
287
     3
288
     0
  0
ENDTAB
  0
TABLE
  2
BLOCK_RECORD
  5
1
330
0
100
AcDbSymbolTable
 70
     8
  0
BLOCK_RECORD
  5
1E
102
{ACAD_XDICTIONARY
360
111
102
}
330
1
100
AcDbSymbolTableRecord
100
AcDbBlockTableRecord
  2
*MODEL_SPACE
  0
BLOCK_RECORD
  5
1A
102
{ACAD_XDICTIONARY
360
10F
102
}
330
1
100
AcDbSymbolTableRecord
100
AcDbBlockTableRecord
  2
*PAPER_SPACE
  0
BLOCK_RECORD
  5
30
330
1
100
AcDbSymbolTableRecord
100
AcDbBlockTableRecord
  2
D05CPP
  0
BLOCK_RECORD
  5
45
330
1
100
AcDbSymbolTableRecord
100
AcDbBlockTableRecord
  2
100CROSS
  0
BLOCK_RECORD
  5
8D
330
1
100
AcDbSymbolTableRecord
100
AcDbBlockTableRecord
  2
050CROSS
  0
BLOCK_RECORD
  5
98
330
1
100
AcDbSymbolTableRecord
100
AcDbBlockTableRecord
  2
250SHCST
  0
BLOCK_RECORD
  5
A6
330
1
100
AcDbSymbolTableRecord
100
AcDbBlockTableRecord
  2
012NPTFT
  0
BLOCK_RECORD
  5
AD
330
1
100
AcDbSymbolTableRecord
100
AcDbBlockTableRecord
  2
250SHCS
  0
BLOCK_RECORD
  5
B7
330
1
100
AcDbSymbolTableRecord
100
AcDbBlockTableRecord
  2
025NPTFT
  0
BLOCK_RECORD
  5
B9
330
1
100
AcDbSymbolTableRecord
100
AcDbBlockTableRecord
  2
250NPTFT
  0
ENDTAB
  0
ENDSEC
  0
SECTION
  2
BLOCKS
  0
BLOCK
  5
1F
330
1E
100
AcDbEntity
  8
0
100
AcDbBlockBegin
  2
*MODEL_SPACE
 70
     0
 10
0.0
 20
0.0
 30
0.0
  3
*MODEL_SPACE
  1

  0
ENDBLK
  5
20
330
1E
100
AcDbEntity
  8
0
100
AcDbBlockEnd
  0
BLOCK
  5
1B
330
1A
100
AcDbEntity
 67
     1
  8
0
100
AcDbBlockBegin
  2
*PAPER_SPACE
 70
     0
 10
0.0
 20
0.0
 30
0.0
  3
*PAPER_SPACE
  1

  0
ENDBLK
  5
1C
330
1A
100
AcDbEntity
 67
     1
  8
0
100
AcDbBlockEnd
  0
BLOCK
  5
31
330
30
100
AcDbEntity
  8
0
100
AcDbBlockBegin
  2
D05CPP
 70
     0
 10
0.0
 20
0.0
 30
0.0
  3
D05CPP
  1

  0
LWPOLYLINE
  5
32
330
30
100
AcDbEntity
  8
BORDER
100
AcDbPolyline
 90
        4
 70
     1
 43
0.0
 10
7.84375
 20
5.1875
 10
7.84375
 20
7.9375
 10
8.59375
 20
7.9375
 10
8.59375
 20
5.1875
  0
LWPOLYLINE
  5
38
330
30
100
AcDbEntity
  8
BORDER
100
AcDbPolyline
 90
        4
 70
     1
 43
0.0
 10
3.71875
 20
5.1875
 10
3.71875
 20
7.9375
 10
6.21875
 20
7.9375
 10
6.21875
 20
5.1875
  0
LWPOLYLINE
  5
3E
330
30
100
AcDbEntity
  8
BORDER
100
AcDbPolyline
 90
        4
 70
     1
 43
0.0
 10
10.96875
 20
5.1875
 10
10.96875
 20
7.9375
 10
13.46875
 20
7.9375
 10
13.46875
 20
5.1875
  0
CIRCLE
  5
44
330
30
100
AcDbEntity
  8
CSOLID
100
AcDbCircle
 10
5.875
 20
7.625
 30
0.0
 40
0.203125
  0
INSERT
  5
46
330
30
100
AcDbEntity
  8
CCENTER
100
AcDbBlockReference
  2
100CROSS
 10
5.875
 20
7.625
 30
0.0
 41
0.4060000000000001
 42
0.4060000000000001
 43
0.4060000000000001
  0
CIRCLE
  5
47
330
30
100
AcDbEntity
  8
CSOLID
100
AcDbCircle
 10
5.875
 20
5.5
 30
0.0
 40
0.203125
  0
INSERT
  5
48
330
30
100
AcDbEntity
  8
CCENTER
100
AcDbBlockReference
  2
100CROSS
 10
5.875
 20
5.5
 30
0.0
 41
0.4060000000000001
 42
0.4060000000000001
 43
0.4060000000000001
  0
CIRCLE
  5
49
330
30
100
AcDbEntity
  8
CSOLID
100
AcDbCircle
 10
4.0625
 20
7.625
 30
0.0
 40
0.203125
  0
INSERT
  5
4A
330
30
100
AcDbEntity
  8
CCENTER
100
AcDbBlockReference
  2
100CROSS
 10
4.0625
 20
7.625
 30
0.0
 41
0.4060000000000001
 42
0.4060000000000001
 43
0.4060000000000001
  0
INSERT
  5
4B
330
30
100
AcDbEntity
  8
CCENTER
100
AcDbBlockReference
  2
100CROSS
 10
4.0625
 20
5.5
 30
0.0
 41
0.4060000000000001
 42
0.4060000000000001
 43
0.4060000000000001
  0
CIRCLE
  5
4C
330
30
100
AcDbEntity
  8
CSOLID
100
AcDbCircle
 10
4.0625
 20
5.5
 30
0.0
 40
0.203125
  0
CIRCLE
  5
4D
330
30
100
AcDbEntity
  8
CSOLID
100
AcDbCircle
 10
4.0625
 20
7.625
 30
0.0
 40
0.1405
  0
CIRCLE
  5
4E
330
30
100
AcDbEntity
  8
CSOLID
100
AcDbCircle
 10
4.0625
 20
5.5
 30
0.0
 40
0.1405
  0
CIRCLE
  5
4F
330
30
100
AcDbEntity
  8
CSOLID
100
AcDbCircle
 10
5.875
 20
7.625
 30
0.0
 40
0.1405
  0
CIRCLE
  5
50
330
30
100
AcDbEntity
  8
CSOLID
100
AcDbCircle
 10
5.875
 20
5.5
 30
0.0
 40
0.1405
  0
LINE
  5
51
330
30
100
AcDbEntity
  8
CDIM
100
AcDbLine
 10
13.46875
 20
8.049106
 30
0.0
 11
13.46875
 21
8.723213000000001
 31
0.0
  0
LINE
  5
52
330
30
100
AcDbEntity
  8
CDIM
100
AcDbLine
 10
11.5625
 20
6.830356
 30
0.0
 11
11.5625
 21
8.723213000000001
 31
0.0
  0
LINE
  5
53
330
30
100
AcDbEntity
  8
CDIM
100
AcDbLine
 10
13.245538
 20
8.5
 30
0.0
 11
13.066216
 21
8.5
 31
0.0
  0
LINE
  5
54
330
30
100
AcDbEntity
  8
CDIM
100
AcDbLine
 10
11.785713
 20
8.5
 30
0.0
 11
11.96503399999999
 21
8.5
 31
0.0
  0
SOLID
  5
55
330
30
100
AcDbEntity
  8
CDIM
100
AcDbTrace
 10
13.245538
 20
8.462797999999999
 30
0.0
 11
13.245538
 21
8.537202
 31
0.0
 12
13.46875
 22
8.5
 32
0.0
 13
13.46875
 23
8.5
 33
0.0
  0
SOLID
  5
56
330
30
100
AcDbEntity
  8
CDIM
100
AcDbTrace
 10
11.785713
 20
8.462797999999999
 30
0.0
 11
11.785713
 21
8.537202
 31
0.0
 12
11.5625
 22
8.5
 32
0.0
 13
11.5625
 23
8.5
 33
0.0
  0
TEXT
  5
57
330
30
100
AcDbEntity
  8
CDIM
100
AcDbText
 10
12.188247
 20
8.375000999999999
 30
0.0
 40
0.249998
  1
1.91
  7
STR
100
AcDbText
  0
LINE
  5
58
330
30
100
AcDbEntity
  8
CDIM
100
AcDbLine
 10
13.46875
 20
8.049106
 30
0.0
 11
13.46875
 21
9.392849999999999
 31
0.0
  0
LINE
  5
59
330
30
100
AcDbEntity
  8
CDIM
100
AcDbLine
 10
10.96875
 20
8.049106
 30
0.0
 11
10.96875
 21
9.392849999999999
 31
0.0
  0
LINE
  5
5A
330
30
100
AcDbEntity
  8
CDIM
100
AcDbLine
 10
13.245538
 20
9.169638
 30
0.0
 11
12.82291199999999
 21
9.169638
 31
0.0
  0
LINE
  5
5B
330
30
100
AcDbEntity
  8
CDIM
100
AcDbLine
 10
11.191963
 20
9.169638
 30
0.0
 11
11.614588
 21
9.169638
 31
0.0
  0
SOLID
  5
5C
330
30
100
AcDbEntity
  8
CDIM
100
AcDbTrace
 10
13.245538
 20
9.132435
 30
0.0
 11
13.245538
 21
9.206839999999999
 31
0.0
 12
13.46875
 22
9.169638
 32
0.0
 13
13.46875
 23
9.169638
 33
0.0
  0
SOLID
  5
5D
330
30
100
AcDbEntity
  8
CDIM
100
AcDbTrace
 10
11.191963
 20
9.132435
 30
0.0
 11
11.191963
 21
9.206839999999999
 31
0.0
 12
10.96875
 22
9.169638
 32
0.0
 13
10.96875
 23
9.169638
 33
0.0
  0
TEXT
  5
5E
330
30
100
AcDbEntity
  8
CDIM
100
AcDbText
 10
11.83780099999999
 20
9.044639
 30
0.0
 40
0.249998
  1
2.50
  7
STR
100
AcDbText
  0
LINE
  5
5F
330
30
100
AcDbEntity
  8
CDIM
100
AcDbLine
 10
7.84375
 20
8.049106
 30
0.0
 11
7.84375
 21
8.723213000000001
 31
0.0
  0
LINE
  5
60
330
30
100
AcDbEntity
  8
CDIM
100
AcDbLine
 10
8.59375
 20
8.049106
 30
0.0
 11
8.59375
 21
8.723213000000001
 31
0.0
  0
LINE
  5
61
330
30
100
AcDbEntity
  8
CDIM
100
AcDbLine
 10
8.816963000000001
 20
8.5
 30
0.0
 11
9.040174999999999
 21
8.5
 31
0.0
  0
LINE
  5
62
330
30
100
AcDbEntity
  8
CDIM
100
AcDbLine
 10
7.620538
 20
8.5
 30
0.0
 11
7.397325
 21
8.5
 31
0.0
  0
SOLID
  5
63
330
30
100
AcDbEntity
  8
CDIM
100
AcDbTrace
 10
8.816963000000001
 20
8.462797999999999
 30
0.0
 11
8.816963000000001
 21
8.537202
 31
0.0
 12
8.59375
 22
8.5
 32
0.0
 13
8.59375
 23
8.5
 33
0.0
  0
SOLID
  5
64
330
30
100
AcDbEntity
  8
CDIM
100
AcDbTrace
 10
7.620538
 20
8.462797999999999
 30
0.0
 11
7.620538
 21
8.537202
 31
0.0
 12
7.84375
 22
8.5
 32
0.0
 13
7.84375
 23
8.5
 33
0.0
  0
TEXT
  5
65
330
30
100
AcDbEntity
  8
CDIM
100
AcDbText
 10
9.138388
 20
8.375000999999999
 30
0.0
 40
0.249998
  1
0.75
  7
STR
100
AcDbText
  0
LINE
  5
66
330
30
100
AcDbEntity
  8
CDIM
100
AcDbLine
 10
10.857144
 20
7.9375
 30
0.0
 11
10.15178799999999
 21
7.9375
 31
0.0
  0
LINE
  5
67
330
30
100
AcDbEntity
  8
CDIM
100
AcDbLine
 10
11.325894
 20
6.5625
 30
0.0
 11
10.15178799999999
 21
6.5625
 31
0.0
  0
LINE
  5
68
330
30
100
AcDbEntity
  8
CDIM
100
AcDbLine
 10
10.375
 20
7.714288
 30
0.0
 11
10.375
 21
7.598211999999999
 31
0.0
  0
LINE
  5
69
330
30
100
AcDbEntity
  8
CDIM
100
AcDbLine
 10
10.375
 20
6.785713
 30
0.0
 11
10.375
 21
6.901788999999999
 31
0.0
  0
SOLID
  5
6A
330
30
100
AcDbEntity
  8
CDIM
100
AcDbTrace
 10
10.412202
 20
7.714288
 30
0.0
 11
10.337798
 21
7.714288
 31
0.0
 12
10.375
 22
7.9375
 32
0.0
 13
10.375
 23
7.9375
 33
0.0
  0
SOLID
  5
6B
330
30
100
AcDbEntity
  8
CDIM
100
AcDbTrace
 10
10.412202
 20
6.785713
 30
0.0
 11
10.337798
 21
6.785713
 31
0.0
 12
10.375
 22
6.5625
 32
0.0
 13
10.375
 23
6.5625
 33
0.0
  0
TEXT
  5
6C
330
30
100
AcDbEntity
  8
CDIM
100
AcDbText
 10
10.011908
 20
7.125000999999999
 30
0.0
 40
0.249998
  1
1.37
  7
STR
100
AcDbText
  0
LINE
  5
6D
330
30
100
AcDbEntity
  8
CDIM
100
AcDbLine
 10
10.857144
 20
7.9375
 30
0.0
 11
9.48215
 21
7.9375
 31
0.0
  0
LINE
  5
6E
330
30
100
AcDbEntity
  8
CDIM
100
AcDbLine
 10
10.857144
 20
5.1875
 30
0.0
 11
9.48215
 21
5.1875
 31
0.0
  0
LINE
  5
6F
330
30
100
AcDbEntity
  8
CDIM
100
AcDbLine
 10
9.705363
 20
7.714288
 30
0.0
 11
9.705363
 21
6.535712
 31
0.0
  0
LINE
  5
70
330
30
100
AcDbEntity
  8
CDIM
100
AcDbLine
 10
9.705363
 20
5.410712999999999
 30
0.0
 11
9.705363
 21
5.839288999999999
 31
0.0
  0
SOLID
  5
71
330
30
100
AcDbEntity
  8
CDIM
100
AcDbTrace
 10
9.742564999999999
 20
7.714288
 30
0.0
 11
9.66816
 21
7.714288
 31
0.0
 12
9.705363
 22
7.9375
 32
0.0
 13
9.705363
 23
7.9375
 33
0.0
  0
SOLID
  5
72
330
30
100
AcDbEntity
  8
CDIM
100
AcDbTrace
 10
9.742564999999999
 20
5.410712999999999
 30
0.0
 11
9.66816
 21
5.410712999999999
 31
0.0
 12
9.705363
 22
5.1875
 32
0.0
 13
9.705363
 23
5.1875
 33
0.0
  0
TEXT
  5
73
330
30
100
AcDbEntity
  8
CDIM
100
AcDbText
 10
9.324412999999999
 20
6.062501
 30
0.0
 40
0.249998
  1
2.75
  7
STR
100
AcDbText
  0
INSERT
  5
74
330
30
100
AcDbEntity
  8
CCENTER
100
AcDbBlockReference
  2
100CROSS
 10
11.3125
 20
7.625
 30
0.0
 41
-0.3045
 42
0.3045
 43
0.3045
  0
INSERT
  5
75
330
30
100
AcDbEntity
  8
CCENTER
100
AcDbBlockReference
  2
100CROSS
 10
11.3125
 20
5.5
 30
0.0
 41
-0.3045
 42
0.3045
 43
0.3045
  0
INSERT
  5
76
330
30
100
AcDbEntity
  8
CCENTER
100
AcDbBlockReference
  2
100CROSS
 10
13.125
 20
7.625
 30
0.0
 41
-0.3045
 42
0.3045
 43
0.3045
  0
INSERT
  5
77
330
30
100
AcDbEntity
  8
CCENTER
100
AcDbBlockReference
  2
100CROSS
 10
13.125
 20
5.5
 30
0.0
 41
-0.3045
 42
0.3045
 43
0.3045
  0
INSERT
  5
78
330
30
100
AcDbEntity
  8
CCENTER
100
AcDbBlockReference
  2
100CROSS
 10
12.594
 20
5.625
 30
0.0
 41
-0.4379999999999999
 42
0.4379999999999999
  0
INSERT
  5
79
330
30
100
AcDbEntity
  8
CCENTER
100
AcDbBlockReference
  2
100CROSS
 10
12.1565
 20
6.1565
 30
0.0
 41
-0.4379999999999999
 42
0.4379999999999999
  0
INSERT
  5
7A
330
30
100
AcDbEntity
  8
CCENTER
100
AcDbBlockReference
  2
100CROSS
 10
11.5625
 20
6.56275
 30
0.0
 41
-0.4379999999999999
 42
0.4379999999999999
  0
INSERT
  5
7B
330
30
100
AcDbEntity
  8
CCENTER
100
AcDbBlockReference
  2
100CROSS
 10
12.1565
 20
6.968999999999999
 30
0.0
 41
-0.4379999999999999
 42
0.4379999999999999
  0
INSERT
  5
7C
330
30
100
AcDbEntity
  8
CCENTER
100
AcDbBlockReference
  2
100CROSS
 10
12.594
 20
7.5
 30
0.0
 41
-0.4379999999999999
 42
0.4379999999999999
  0
CIRCLE
  5
7D
330
30
100
AcDbEntity
  8
CSOLID
100
AcDbCircle
 10
11.5625
 20
6.56275
 30
0.0
 40
0.21875
  0
CIRCLE
  5
7E
330
30
100
AcDbEntity
  8
CSOLID
100
AcDbCircle
 10
12.1565
 20
6.1565
 30
0.0
 40
0.21875
  0
CIRCLE
  5
7F
330
30
100
AcDbEntity
  8
CSOLID
100
AcDbCircle
 10
12.1565
 20
6.968999999999999
 30
0.0
 40
0.21875
  0
CIRCLE
  5
80
330
30
100
AcDbEntity
  8
CSOLID
100
AcDbCircle
 10
12.594
 20
7.5
 30
0.0
 40
0.21875
  0
CIRCLE
  5
81
330
30
100
AcDbEntity
  8
CSOLID
100
AcDbCircle
 10
13.125
 20
7.625
 30
0.0
 40
0.1405
  0
CIRCLE
  5
82
330
30
100
AcDbEntity
  8
CSOLID
100
AcDbCircle
 10
13.125
 20
5.5
 30
0.0
 40
0.1405
  0
CIRCLE
  5
83
330
30
100
AcDbEntity
  8
CSOLID
100
AcDbCircle
 10
11.3125
 20
7.625
 30
0.0
 40
0.1405
  0
CIRCLE
  5
84
330
30
100
AcDbEntity
  8
CSOLID
100
AcDbCircle
 10
11.3125
 20
5.5
 30
0.0
 40
0.1405
  0
CIRCLE
  5
85
330
30
100
AcDbEntity
  8
CSOLID
100
AcDbCircle
 10
12.59375
 20
7.5
 30
0.0
 40
0.3125
  0
CIRCLE
  5
86
330
30
100
AcDbEntity
  8
CSOLID
100
AcDbCircle
 10
12.15625
 20
6.96875
 30
0.0
 40
0.3125
  0
CIRCLE
  5
87
330
30
100
AcDbEntity
  8
CSOLID
100
AcDbCircle
 10
11.5625
 20
6.5625
 30
0.0
 40
0.3125
  0
CIRCLE
  5
88
330
30
100
AcDbEntity
  8
CSOLID
100
AcDbCircle
 10
12.15625
 20
6.15625
 30
0.0
 40
0.3125
  0
CIRCLE
  5
89
330
30
100
AcDbEntity
  8
CSOLID
100
AcDbCircle
 10
12.59375
 20
5.625
 30
0.0
 40
0.3125
  0
CIRCLE
  5
8A
330
30
100
AcDbEntity
  8
CSOLID
100
AcDbCircle
 10
12.594
 20
5.625
 30
0.0
 40
0.21875
  0
ENDBLK
  5
8B
330
30
100
AcDbEntity
  8
0
100
AcDbBlockEnd
  0
BLOCK
  5
8C
330
45
100
AcDbEntity
  8
0
100
AcDbBlockBegin
  2
100CROSS
 70
     0
 10
5.625
 20
4.59375
 30
0.0
  3
100CROSS
  1

  0
INSERT
  5
8E
330
45
100
AcDbEntity
  8
0
100
AcDbBlockReference
  2
050CROSS
 10
5.625
 20
4.59375
 30
0.0
  0
ENDBLK
  5
8F
330
45
100
AcDbEntity
  8
0
100
AcDbBlockEnd
  0
BLOCK
  5
90
330
8D
100
AcDbEntity
  8
0
100
AcDbBlockBegin
  2
050CROSS
 70
     0
 10
5.0
 20
5.0
 30
0.0
  3
050CROSS
  1

  0
LINE
  5
91
330
8D
100
AcDbEntity
  8
0
100
AcDbLine
 10
5.0
 20
5.28125
 30
0.0
 11
5.0
 21
5.78125
 31
0.0
  0
LINE
  5
92
330
8D
100
AcDbEntity
  8
0
100
AcDbLine
 10
5.0
 20
4.875
 30
0.0
 11
5.0
 21
5.125
 31
0.0
  0
LINE
  5
93
330
8D
100
AcDbEntity
  8
0
100
AcDbLine
 10
5.0
 20
4.15625
 30
0.0
 11
5.0
 21
4.71875
 31
0.0
  0
LINE
  5
94
330
8D
100
AcDbEntity
  8
0
100
AcDbLine
 10
5.25
 20
5.0
 30
0.0
 11
5.8125
 21
5.0
 31
0.0
  0
LINE
  5
95
330
8D
100
AcDbEntity
  8
0
100
AcDbLine
 10
4.90625
 20
5.0
 30
0.0
 11
5.09375
 21
5.0
 31
0.0
  0
LINE
  5
96
330
8D
100
AcDbEntity
  8
0
100
AcDbLine
 10
4.1875
 20
5.0
 30
0.0
 11
4.75
 21
5.0
 31
0.0
  0
ENDBLK
  5
97
330
8D
100
AcDbEntity
  8
0
100
AcDbBlockEnd
  0
BLOCK
  5
99
330
98
100
AcDbEntity
  8
0
100
AcDbBlockBegin
  2
250SHCST
 70
     0
 10
0.0
 20
0.0
 30
0.0
  3
250SHCST
  1

  0
CIRCLE
  5
9A
330
98
100
AcDbEntity
  8
DAMAN
100
AcDbCircle
 10
0.0
 20
0.0
 30
0.0
 40
0.1875
  0
CIRCLE
  5
9B
330
98
100
AcDbEntity
  8
DAMAN
100
AcDbCircle
 10
0.0
 20
0.0
 30
0.0
 40
0.156
  0
CIRCLE
  5
9C
330
98
100
AcDbEntity
  8
DAMAN
100
AcDbCircle
 10
0.0
 20
0.0
 30
0.0
 40
0.1085
  0
LWPOLYLINE
  5
9D
330
98
100
AcDbEntity
  8
DAMAN
100
AcDbPolyline
 90
        6
 70
     1
 43
0.0
 10
-0.054
 20
0.093531
 10
-0.108
 20
0.0
 10
-0.054
 20
-0.093531
 10
0.054
 20
-0.093531
 10
0.108
 20
0.0
 10
0.054
 20
0.093531
  0
ENDBLK
  5
A5
330
98
100
AcDbEntity
  8
0
100
AcDbBlockEnd
  0
BLOCK
  5
A7
330
A6
100
AcDbEntity
  8
0
100
AcDbBlockBegin
  2
012NPTFT
 70
     0
 10
0.0
 20
0.0
 30
0.0
  3
012NPTFT
  1

  0
CIRCLE
  5
A8
330
A6
100
AcDbEntity
  8
DAMAN
  6
HIDDEN
100
AcDbCircle
 10
0.0
 20
0.0
 30
0.0
 40
0.1875
  0
CIRCLE
  5
A9
330
A6
100
AcDbEntity
  8
DAMAN
100
AcDbCircle
 10
0.0
 20
0.0
 30
0.0
 40
0.2105
  0
CIRCLE
  5
AA
330
A6
100
AcDbEntity
  8
DAMAN
100
AcDbCircle
 10
0.0
 20
0.0
 30
0.0
 40
0.1695
  0
INSERT
  5
AB
330
A6
100
AcDbEntity
  8
DAMAN
100
AcDbBlockReference
  2
100CROSS
 10
0.0
 20
0.0
 30
0.0
 41
0.43
 42
0.43
  0
ENDBLK
  5
AC
330
A6
100
AcDbEntity
  8
0
100
AcDbBlockEnd
  0
BLOCK
  5
AE
330
AD
100
AcDbEntity
  8
0
100
AcDbBlockBegin
  2
250SHCS
 70
     0
 10
0.0
 20
0.0
 30
0.0
  3
250SHCS
  1

  0
LINE
  5
AF
330
AD
100
AcDbEntity
  8
DAMAN
100
AcDbLine
 10
-0.1875
 20
0.0
 30
0.0
 11
-0.1875
 21
0.21875
 31
0.0
  0
LINE
  5
B0
330
AD
100
AcDbEntity
  8
DAMAN
100
AcDbLine
 10
-0.15625
 20
0.25
 30
0.0
 11
0.15625
 21
0.25
 31
0.0
  0
LINE
  5
B1
330
AD
100
AcDbEntity
  8
DAMAN
100
AcDbLine
 10
0.1875
 20
0.21875
 30
0.0
 11
0.1875
 21
0.0
 31
0.0
  0
LINE
  5
B2
330
AD
100
AcDbEntity
  8
DAMAN
100
AcDbLine
 10
-0.1875
 20
0.21875
 30
0.0
 11
0.1875
 21
0.21875
 31
0.0
  0
LINE
  5
B3
330
AD
100
AcDbEntity
  8
DAMAN
100
AcDbLine
 10
0.1875
 20
0.0
 30
0.0
 11
-0.1875
 21
0.0
 31
0.0
  0
LINE
  5
B4
330
AD
100
AcDbEntity
  8
DAMAN
100
AcDbLine
 10
0.15625
 20
0.25
 30
0.0
 11
0.1875
 21
0.21875
 31
0.0
  0
LINE
  5
B5
330
AD
100
AcDbEntity
  8
DAMAN
100
AcDbLine
 10
-0.15625
 20
0.25
 30
0.0
 11
-0.1875
 21
0.21875
 31
0.0
  0
ENDBLK
  5
B6
330
AD
100
AcDbEntity
  8
0
100
AcDbBlockEnd
  0
BLOCK
  5
B8
330
B7
100
AcDbEntity
  8
0
100
AcDbBlockBegin
  2
025NPTFT
 70
     0
 10
0.0
 20
0.0
 30
0.0
  3
025NPTFT
  1

  0
INSERT
  5
BA
330
B7
100
AcDbEntity
  8
DAMAN
100
AcDbBlockReference
  2
250NPTFT
 10
0.0
 20
0.0
 30
0.0
  0
ENDBLK
  5
BB
330
B7
100
AcDbEntity
  8
0
100
AcDbBlockEnd
  0
BLOCK
  5
BC
330
B9
100
AcDbEntity
  8
0
100
AcDbBlockBegin
  2
250NPTFT
 70
     0
 10
0.0
 20
0.0
 30
0.0
  3
250NPTFT
  1

  0
CIRCLE
  5
BD
330
B9
100
AcDbEntity
  8
DAMAN
100
AcDbCircle
 10
0.0
 20
0.0
 30
0.0
 40
0.273
  0
CIRCLE
  5
BE
330
B9
100
AcDbEntity
  8
DAMAN
100
AcDbCircle
 10
0.0
 20
0.0
 30
0.0
 40
0.211
  0
INSERT
  5
BF
330
B9
100
AcDbEntity
  8
DAMAN
100
AcDbBlockReference
  2
100CROSS
 10
0.0
 20
0.0
 30
0.0
 41
0.4220000000000001
 42
0.4220000000000001
  0
CIRCLE
  5
C0
330
B9
100
AcDbEntity
  8
DAMAN
100
AcDbCircle
 10
0.0
 20
0.0
 30
0.0
 40
0.242251
  0
POINT
  5
C1
330
B9
100
AcDbEntity
  8
CHIDDEN
100
AcDbPoint
 10
-0.087928
 20
0.191806
 30
0.0
  0
POINT
  5
C2
330
B9
100
AcDbEntity
  8
CHIDDEN
100
AcDbPoint
 10
-0.137717
 20
-0.15986
 30
0.0
  0
POINT
  5
C3
330
B9
100
AcDbEntity
  8
CHIDDEN
100
AcDbPoint
 10
0.202707
 20
-0.058572
 30
0.0
  0
ENDBLK
  5
C4
330
B9
100
AcDbEntity
  8
0
100
AcDbBlockEnd
  0
ENDSEC
  0
SECTION
  2
ENTITIES
  0
LWPOLYLINE
  5
C5
330
1E
100
AcDbEntity
  8
DAMAN
100
AcDbPolyline
 90
        4
 70
     1
 43
0.0
 10
9.5625
 20
5.875
 10
9.5625
 20
9.875
 10
10.3125
 20
9.875
 10
10.3125
 20
5.875
  0
LWPOLYLINE
  5
CB
330
1E
100
AcDbEntity
  8
DAMAN
100
AcDbPolyline
 90
        4
 70
     1
 43
0.0
 10
5.3125
 20
5.875
 10
5.3125
 20
9.875
 10
8.0625
 20
9.875
 10
8.0625
 20
5.875
  0
LWPOLYLINE
  5
D1
330
1E
100
AcDbEntity
  8
DAMAN
100
AcDbPolyline
 90
        4
 70
     1
 43
0.0
 10
3.8125
 20
5.875
 10
3.8125
 20
9.875
 10
3.0625
 20
9.875
 10
3.0625
 20
5.875
  0
LINE
  5
D7
330
1E
100
AcDbEntity
  8
DAMAN
100
AcDbLine
 10
5.3125
 20
4.25
 30
0.0
 11
8.0625
 21
4.25
 31
0.0
  0
LINE
  5
D8
330
1E
100
AcDbEntity
  8
DAMAN
100
AcDbLine
 10
8.0625
 20
4.25
 30
0.0
 11
8.0625
 21
5.0
 31
0.0
  0
LINE
  5
D9
330
1E
100
AcDbEntity
  8
DAMAN
100
AcDbLine
 10
8.0625
 20
5.0
 30
0.0
 11
5.3125
 21
5.0
 31
0.0
  0
LINE
  5
DA
330
1E
100
AcDbEntity
  8
DAMAN
100
AcDbLine
 10
5.3125
 20
5.0
 30
0.0
 11
5.3125
 21
4.25
 31
0.0
  0
INSERT
  5
DB
330
1E
100
AcDbEntity
  8
DAMAN
100
AcDbBlockReference
  2
250SHCST
 10
5.78125
 20
8.8125
 30
0.0
  0
INSERT
  5
DC
330
1E
100
AcDbEntity
  8
DAMAN
100
AcDbBlockReference
  2
250SHCST
 10
7.59375
 20
8.8125
 30
0.0
  0
INSERT
  5
DD
330
1E
100
AcDbEntity
  8
DAMAN
100
AcDbBlockReference
  2
250SHCST
 10
7.59375
 20
6.6875
 30
0.0
  0
INSERT
  5
DE
330
1E
100
AcDbEntity
  8
DAMAN
100
AcDbBlockReference
  2
250SHCST
 10
5.78125
 20
6.6875
 30
0.0
  0
LINE
  5
DF
330
1E
100
AcDbEntity
  8
DAMAN
100
AcDbLine
 10
5.3125
 20
11.5
 30
0.0
 11
8.0625
 21
11.5
 31
0.0
  0
LINE
  5
E0
330
1E
100
AcDbEntity
  8
DAMAN
100
AcDbLine
 10
8.0625
 20
10.74999999999999
 30
0.0
 11
5.3125
 21
10.74999999999999
 31
0.0
  0
LINE
  5
E1
330
1E
100
AcDbEntity
  8
DAMAN
100
AcDbLine
 10
5.3125
 20
10.74999999999999
 30
0.0
 11
5.3125
 21
11.5
 31
0.0
  0
LINE
  5
E2
330
1E
100
AcDbEntity
  8
DAMAN
100
AcDbLine
 10
8.0625
 20
11.5
 30
0.0
 11
8.0625
 21
10.74999999999999
 31
0.0
  0
TEXT
  5
E3
330
1E
100
AcDbEntity
  8
DAMAN
100
AcDbText
 10
5.84375
 20
4.6875
 30
0.0
 40
0.188
  1
DAMAN ****
100
AcDbText
  0
INSERT
  5
E4
330
1E
100
AcDbEntity
  8
DAMAN
100
AcDbBlockReference
  2
250SHCS
 10
9.5625
 20
8.812999999999998
 30
0.0
 50
90.0
  0
INSERT
  5
E5
330
1E
100
AcDbEntity
  8
DAMAN
100
AcDbBlockReference
  2
250SHCS
 10
9.5625
 20
6.6875
 30
0.0
 50
90.0
  0
INSERT
  5
E6
330
1E
100
AcDbEntity
  8
DAMAN
100
AcDbBlockReference
  2
250SHCS
 10
5.780499999999999
 20
5.0
 30
0.0
  0
INSERT
  5
E7
330
1E
100
AcDbEntity
  8
DAMAN
100
AcDbBlockReference
  2
250SHCS
 10
7.593499999999999
 20
5.0
 30
0.0
  0
INSERT
  5
E8
330
1E
100
AcDbEntity
  8
DAMAN
100
AcDbBlockReference
  2
250SHCS
 10
5.780499999999999
 20
10.74999999999999
 30
0.0
 41
-1.0
 50
180.0
  0
INSERT
  5
E9
330
1E
100
AcDbEntity
  8
DAMAN
100
AcDbBlockReference
  2
250SHCS
 10
7.593499999999999
 20
10.74999999999999
 30
0.0
 41
-1.0
 50
180.0
  0
INSERT
  5
EA
330
1E
100
AcDbEntity
  8
DAMAN
100
AcDbBlockReference
  2
250SHCS
 10
3.8125
 20
6.6875
 30
0.0
 41
-1.0
 50
270.0
  0
INSERT
  5
EB
330
1E
100
AcDbEntity
  8
DAMAN
100
AcDbBlockReference
  2
250SHCS
 10
3.8125
 20
8.812999999999998
 30
0.0
 41
-1.0
 50
270.0
  0
ENDSEC
  0
SECTION
  2
OBJECTS
  0
DICTIONARY
  5
C
330
0
100
AcDbDictionary
  3
ACAD_GROUP
350
D
  3
ACAD_LAYOUT
350
19
  3
ACAD_MLINESTYLE
350
16
  3
ACAD_PLOTSETTINGS
350
18
  3
ACAD_PLOTSTYLENAME
350
E
  3
ACDBHEADERROUNDTRIPXREC
350
EF
  0
DICTIONARY
  5
111
330
1E
100
AcDbDictionary
280
     1
  3
ACAD_LAYOUTSELFREF
360
112
  0
DICTIONARY
  5
10F
330
1A
100
AcDbDictionary
280
     1
  3
ACAD_LAYOUTSELFREF
360
110
  0
DICTIONARY
  5
D
102
{ACAD_REACTORS
330
C
102
}
330
C
100
AcDbDictionary
  0
DICTIONARY
  5
19
102
{ACAD_REACTORS
330
C
102
}
330
C
100
AcDbDictionary
  0
DICTIONARY
  5
16
102
{ACAD_REACTORS
330
C
102
}
330
C
100
AcDbDictionary
  3
STANDARD
350
17
  0
DICTIONARY
  5
18
102
{ACAD_REACTORS
330
C
102
}
330
C
100
AcDbDictionary
  0
ACDBDICTIONARYWDFLT
  5
E
102
{ACAD_REACTORS
330
C
102
}
330
C
100
AcDbDictionary
281
     1
  3
Normal
350
F
100
AcDbDictionaryWithDefault
340
F
  0
DICTIONARY
  5
EF
102
{ACAD_REACTORS
330
C
102
}
330
C
100
AcDbDictionary
  3
CEPSNTYPE
350
F9
  3
FINGERPRINTGUID
350
FA
  3
HYPERLINKBASE
350
F2
  3
INSUNITS
350
F8
  3
LAYOUTDICT
350
F4
  3
LWETCUNION
350
F7
  3
PLOTSETDICT
350
F5
  3
PLOTSTYLNAMDICT
350
F6
  3
PSVPSCALE
350
FC
  3
PUCSBASE
350
FF
  3
PUCSORGBACK
350
105
  3
PUCSORGBOTTOM
350
101
  3
PUCSORGFRONT
350
104
  3
PUCSORGLEFT
350
102
  3
PUCSORGRIGHT
350
103
  3
PUCSORGTOP
350
100
  3
PUCSORTHOREF
350
FD
  3
PUCSORTHOVIEW
350
FE
  3
STYLESHEET
350
F3
  3
TSTACKALIGN
350
F0
  3
TSTACKSIZE
350
F1
  3
UCSBASE
350
108
  3
UCSORGBACK
350
10E
  3
UCSORGBOTTOM
350
10A
  3
UCSORGFRONT
350
10D
  3
UCSORGLEFT
350
10B
  3
UCSORGRIGHT
350
10C
  3
UCSORGTOP
350
109
  3
UCSORTHOREF
350
106
  3
UCSORTHOVIEW
350
107
  3
VERSIONGUID
350
FB
  0
XRECORD
  5
112
102
{ACAD_REACTORS
330
111
102
}
330
111
100
AcDbXrecord
340
1E
  0
XRECORD
  5
110
102
{ACAD_REACTORS
330
10F
102
}
330
10F
100
AcDbXrecord
340
1A
  0
MLINESTYLE
  5
17
102
{ACAD_REACTORS
330
16
102
}
330
16
100
AcDbMlineStyle
  2
STANDARD
 70
     0
  3

 62
   256
 51
90.0
 52
90.0
 71
     2
 49
0.5
 62
   256
  6
BYLAYER
 49
-0.5
 62
   256
  6
BYLAYER
  0
ACDBPLACEHOLDER
  5
F
102
{ACAD_REACTORS
330
E
102
}
330
E
100
AcDbPlaceHolder
280
     0
  0
XRECORD
  5
F9
102
{ACAD_REACTORS
330
EF
102
}
330
EF
100
AcDbXrecord
 90
        0
  0
XRECORD
  5
FA
102
{ACAD_REACTORS
330
EF
102
}
330
EF
100
AcDbXrecord
  1
{10A06CB2-7ADC-45FE-97CE-F9C3A2D4C3F8}
  0
XRECORD
  5
F2
102
{ACAD_REACTORS
330
EF
102
}
330
EF
100
AcDbXrecord
  1

  0
XRECORD
  5
F8
102
{ACAD_REACTORS
330
EF
102
}
330
EF
100
AcDbXrecord
 90
        0
  0
XRECORD
  5
F4
102
{ACAD_REACTORS
330
EF
102
}
330
EF
100
AcDbXrecord
340
19
  0
XRECORD
  5
F7
102
{ACAD_REACTORS
330
EF
102
}
330
EF
100
AcDbXrecord
 90
    10781
  0
XRECORD
  5
F5
102
{ACAD_REACTORS
330
EF
102
}
330
EF
100
AcDbXrecord
340
18
  0
XRECORD
  5
F6
102
{ACAD_REACTORS
330
EF
102
}
330
EF
100
AcDbXrecord
340
E
  0
XRECORD
  5
FC
102
{ACAD_REACTORS
330
EF
102
}
330
EF
100
AcDbXrecord
 40
0.0
  0
XRECORD
  5
FF
102
{ACAD_REACTORS
330
EF
102
}
330
EF
100
AcDbXrecord
340
0
  0
XRECORD
  5
105
102
{ACAD_REACTORS
330
EF
102
}
330
EF
100
AcDbXrecord
 10
0.0
 20
0.0
 30
0.0
  0
XRECORD
  5
101
102
{ACAD_REACTORS
330
EF
102
}
330
EF
100
AcDbXrecord
 10
0.0
 20
0.0
 30
0.0
  0
XRECORD
  5
104
102
{ACAD_REACTORS
330
EF
102
}
330
EF
100
AcDbXrecord
 10
0.0
 20
0.0
 30
0.0
  0
XRECORD
  5
102
102
{ACAD_REACTORS
330
EF
102
}
330
EF
100
AcDbXrecord
 10
0.0
 20
0.0
 30
0.0
  0
XRECORD
  5
103
102
{ACAD_REACTORS
330
EF
102
}
330
EF
100
AcDbXrecord
 10
0.0
 20
0.0
 30
0.0
  0
XRECORD
  5
100
102
{ACAD_REACTORS
330
EF
102
}
330
EF
100
AcDbXrecord
 10
0.0
 20
0.0
 30
0.0
  0
XRECORD
  5
FD
102
{ACAD_REACTORS
330
EF
102
}
330
EF
100
AcDbXrecord
340
0
  0
XRECORD
  5
FE
102
{ACAD_REACTORS
330
EF
102
}
330
EF
100
AcDbXrecord
 70
     0
  0
XRECORD
  5
F3
102
{ACAD_REACTORS
330
EF
102
}
330
EF
100
AcDbXrecord
  1

  0
XRECORD
  5
F0
102
{ACAD_REACTORS
330
EF
102
}
330
EF
100
AcDbXrecord
 90
        1
  0
XRECORD
  5
F1
102
{ACAD_REACTORS
330
EF
102
}
330
EF
100
AcDbXrecord
 90
       70
  0
XRECORD
  5
108
102
{ACAD_REACTORS
330
EF
102
}
330
EF
100
AcDbXrecord
340
0
  0
XRECORD
  5
10E
102
{ACAD_REACTORS
330
EF
102
}
330
EF
100
AcDbXrecord
 10
0.0
 20
0.0
 30
0.0
  0
XRECORD
  5
10A
102
{ACAD_REACTORS
330
EF
102
}
330
EF
100
AcDbXrecord
 10
0.0
 20
0.0
 30
0.0
  0
XRECORD
  5
10D
102
{ACAD_REACTORS
330
EF
102
}
330
EF
100
AcDbXrecord
 10
0.0
 20
0.0
 30
0.0
  0
XRECORD
  5
10B
102
{ACAD_REACTORS
330
EF
102
}
330
EF
100
AcDbXrecord
 10
0.0
 20
0.0
 30
0.0
  0
XRECORD
  5
10C
102
{ACAD_REACTORS
330
EF
102
}
330
EF
100
AcDbXrecord
 10
0.0
 20
0.0
 30
0.0
  0
XRECORD
  5
109
102
{ACAD_REACTORS
330
EF
102
}
330
EF
100
AcDbXrecord
 10
0.0
 20
0.0
 30
0.0
  0
XRECORD
  5
106
102
{ACAD_REACTORS
330
EF
102
}
330
EF
100
AcDbXrecord
340
0
  0
XRECORD
  5
107
102
{ACAD_REACTORS
330
EF
102
}
330
EF
100
AcDbXrecord
 70
     0
  0
XRECORD
  5
FB
102
{ACAD_REACTORS
330
EF
102
}
330
EF
100
AcDbXrecord
  1
{942000B6-34C5-4737-9A1D-5B4909EC2DBA}
  0
ENDSEC
  0
EOF
