  0
SECTION
  2
HEADER
  9
$ACADVER
  1
AC1014
  9
$ACADMAINTVER
 70
     9
  9
$DWGCODEPAGE
  3
ANSI_1252
  9
$INSBASE
 10
0.0
 20
0.0
 30
0.0
  9
$EXTMIN
 10
0.4997272866891294
 20
0.4995117472711855
 30
-0.0015258207003583
  9
$EXTMAX
 10
16.37569621979572
 20
12.50024416914703
 30
0.0000000349246037
  9
$LIMMIN
 10
0.0
 20
0.0
  9
$LIMMAX
 10
12.0
 20
9.0
  9
$ORTHOMODE
 70
     1
  9
$REGENMODE
 70
     1
  9
$FILLMODE
 70
     1
  9
$QTEXTMODE
 70
     0
  9
$MIRRTEXT
 70
     1
  9
$DRAGMODE
 70
     2
  9
$LTSCALE
 40
1.0
  9
$OSMODE
 70
    37
  9
$ATTMODE
 70
     1
  9
$TEXTSIZE
 40
0.188
  9
$TRACEWID
 40
0.05
  9
$TEXTSTYLE
  7
STANDARD
  9
$CLAYER
  8
0
  9
$CELTYPE
  6
CONTINUOUS
  9
$CECOLOR
 62
     0
  9
$CELTSCALE
 40
1.0
  9
$DELOBJ
 70
     1
  9
$DISPSILH
 70
     0
  9
$DIMSCALE
 40
1.0
  9
$DIMASZ
 40
0.18
  9
$DIMEXO
 40
0.0625
  9
$DIMDLI
 40
0.38
  9
$DIMRND
 40
0.0
  9
$DIMDLE
 40
0.0
  9
$DIMEXE
 40
0.18
  9
$DIMTP
 40
0.0
  9
$DIMTM
 40
0.0
  9
$DIMTXT
 40
0.18
  9
$DIMCEN
 40
0.09
  9
$DIMTSZ
 40
0.0
  9
$DIMTOL
 70
     0
  9
$DIMLIM
 70
     0
  9
$DIMTIH
 70
     1
  9
$DIMTOH
 70
     1
  9
$DIMSE1
 70
     0
  9
$DIMSE2
 70
     0
  9
$DIMTAD
 70
     0
  9
$DIMZIN
 70
     0
  9
$DIMBLK
  1

  9
$DIMASO
 70
     1
  9
$DIMSHO
 70
     1
  9
$DIMPOST
  1

  9
$DIMAPOST
  1

  9
$DIMALT
 70
     0
  9
$DIMALTD
 70
     2
  9
$DIMALTF
 40
25.4
  9
$DIMLFAC
 40
1.0
  9
$DIMTOFL
 70
     0
  9
$DIMTVP
 40
0.0
  9
$DIMTIX
 70
     0
  9
$DIMSOXD
 70
     0
  9
$DIMSAH
 70
     0
  9
$DIMBLK1
  1

  9
$DIMBLK2
  1

  9
$DIMSTYLE
  2
STANDARD
  9
$DIMCLRD
 70
     0
  9
$DIMCLRE
 70
     0
  9
$DIMCLRT
 70
     0
  9
$DIMTFAC
 40
1.0
  9
$DIMGAP
 40
0.09
  9
$DIMJUST
 70
     0
  9
$DIMSD1
 70
     0
  9
$DIMSD2
 70
     0
  9
$DIMTOLJ
 70
     1
  9
$DIMTZIN
 70
     0
  9
$DIMALTZ
 70
     0
  9
$DIMALTTZ
 70
     0
  9
$DIMFIT
 70
     3
  9
$DIMUPT
 70
     0
  9
$DIMUNIT
 70
     2
  9
$DIMDEC
 70
     4
  9
$DIMTDEC
 70
     4
  9
$DIMALTU
 70
     2
  9
$DIMALTTD
 70
     2
  9
$DIMTXSTY
  7
STANDARD
  9
$DIMAUNIT
 70
     0
  9
$LUNITS
 70
     2
  9
$LUPREC
 70
     4
  9
$SKETCHINC
 40
0.1
  9
$FILLETRAD
 40
0.0
  9
$AUNITS
 70
     0
  9
$AUPREC
 70
     0
  9
$MENU
  1
tom
  9
$ELEVATION
 40
0.0
  9
$PELEVATION
 40
0.0
  9
$THICKNESS
 40
0.0
  9
$LIMCHECK
 70
     0
  9
$BLIPMODE
 70
     0
  9
$CHAMFERA
 40
0.0
  9
$CHAMFERB
 40
0.0
  9
$CHAMFERC
 40
0.0
  9
$CHAMFERD
 40
0.0
  9
$SKPOLY
 70
     0
  9
$TDCREATE
 40
2449738.675811470
  9
$TDUPDATE
 40
2453438.465368437
  9
$TDINDWG
 40
0.0061773843
  9
$TDUSRTIMER
 40
0.0061772106
  9
$USRTIMER
 70
     1
  9
$ANGBASE
 50
0.0
  9
$ANGDIR
 70
     0
  9
$PDMODE
 70
     0
  9
$PDSIZE
 40
0.0
  9
$PLINEWID
 40
0.0
  9
$COORDS
 70
     1
  9
$SPLFRAME
 70
     0
  9
$SPLINETYPE
 70
     6
  9
$SPLINESEGS
 70
     8
  9
$ATTDIA
 70
     0
  9
$ATTREQ
 70
     1
  9
$HANDLING
 70
-16383
  9
$HANDSEED
  5
1AE
  9
$SURFTAB1
 70
     6
  9
$SURFTAB2
 70
     6
  9
$SURFTYPE
 70
     6
  9
$SURFU
 70
     6
  9
$SURFV
 70
     6
  9
$UCSNAME
  2

  9
$UCSORG
 10
0.0
 20
0.0
 30
0.0
  9
$UCSXDIR
 10
1.0
 20
0.0
 30
0.0
  9
$UCSYDIR
 10
0.0
 20
1.0
 30
0.0
  9
$PUCSNAME
  2

  9
$PUCSORG
 10
0.0
 20
0.0
 30
0.0
  9
$PUCSXDIR
 10
1.0
 20
0.0
 30
0.0
  9
$PUCSYDIR
 10
0.0
 20
1.0
 30
0.0
  9
$USERI1
 70
     0
  9
$USERI2
 70
     0
  9
$USERI3
 70
     0
  9
$USERI4
 70
     0
  9
$USERI5
 70
     0
  9
$USERR1
 40
0.0
  9
$USERR2
 40
0.0
  9
$USERR3
 40
0.0
  9
$USERR4
 40
0.0
  9
$USERR5
 40
0.0
  9
$WORLDVIEW
 70
     1
  9
$SHADEDGE
 70
     3
  9
$SHADEDIF
 70
    70
  9
$TILEMODE
 70
     1
  9
$MAXACTVP
 70
    16
  9
$PINSBASE
 10
0.0
 20
0.0
 30
0.0
  9
$PLIMCHECK
 70
     0
  9
$PEXTMIN
 10
1.000000000000000E+20
 20
1.000000000000000E+20
 30
1.000000000000000E+20
  9
$PEXTMAX
 10
-1.000000000000000E+20
 20
-1.000000000000000E+20
 30
-1.000000000000000E+20
  9
$PLIMMIN
 10
0.0
 20
0.0
  9
$PLIMMAX
 10
12.0
 20
9.0
  9
$UNITMODE
 70
     0
  9
$VISRETAIN
 70
     0
  9
$PLINEGEN
 70
     0
  9
$PSLTSCALE
 70
     1
  9
$TREEDEPTH
 70
  3020
  9
$PICKSTYLE
 70
     1
  9
$CMLSTYLE
  2
STANDARD
  9
$CMLJUST
 70
     0
  9
$CMLSCALE
 40
1.0
  9
$PROXYGRAPHICS
 70
     1
  9
$MEASUREMENT
 70
     0
  0
ENDSEC
  0
SECTION
  2
CLASSES
  0
CLASS
  1
ACDBDICTIONARYWDFLT
  2
AcDbDictionaryWithDefault
  3
AutoCAD 2000
 90
        0
280
     0
281
     0
  0
CLASS
  1
ACDBPLACEHOLDER
  2
AcDbPlaceHolder
  3
AutoCAD 2000
 90
        0
280
     0
281
     0
  0
CLASS
  1
LAYOUT
  2
AcDbLayout
  3
AutoCAD 2000
 90
        0
280
     0
281
     0
  0
CLASS
  1
LONG_TRANSACTION
  2
AcDbLongTransaction
  3
AutoCAD 2000
 90
        0
280
     0
281
     0
  0
CLASS
  1
LWPOLYLINE
  2
AcDbPolyline
  3
AutoCAD 2000
 90
        0
280
     0
281
     1
  0
CLASS
  1
HATCH
  2
AcDbHatch
  3
AutoCAD 2000
 90
        0
280
     0
281
     1
  0
CLASS
  1
XRECORD
  2
AcDbXrecord
  3
AutoCAD 2000
 90
        0
280
     0
281
     0
  0
ENDSEC
  0
SECTION
  2
TABLES
  0
TABLE
  2
VPORT
  5
EA
330
0
100
AcDbSymbolTable
 70
     5
  0
VPORT
  5
189
330
EA
100
AcDbSymbolTableRecord
100
AcDbViewportTableRecord
  2
*ACTIVE
 70
     0
 10
0.0
 20
0.0
 11
1.0
 21
1.0
 12
8.479814272689321
 22
6.679379295816739
 13
0.0
 23
0.0
 14
0.03125
 24
0.03125
 15
0.0
 25
0.0
 16
0.0
 26
0.0
 36
1.0
 17
0.0
 27
0.0
 37
0.0
 40
13.32657626855888
 41
1.647569444444444
 42
50.0
 43
0.0
 44
0.0
 50
0.0
 51
0.0
 71
     0
 72
   100
 73
     1
 74
     1
 75
     1
 76
     0
 77
     0
 78
     0
  0
ENDTAB
  0
TABLE
  2
LTYPE
  5
E7
330
0
100
AcDbSymbolTable
 70
     4
  0
LTYPE
  5
F5
330
E7
100
AcDbSymbolTableRecord
100
AcDbLinetypeTableRecord
  2
ByBlock
 70
     0
  3

 72
    65
 73
     0
 40
0.0
  0
LTYPE
  5
F6
330
E7
100
AcDbSymbolTableRecord
100
AcDbLinetypeTableRecord
  2
ByLayer
 70
     0
  3

 72
    65
 73
     0
 40
0.0
  0
LTYPE
  5
F7
330
E7
100
AcDbSymbolTableRecord
100
AcDbLinetypeTableRecord
  2
CONTINUOUS
 70
     0
  3
Solid line
 72
    65
 73
     0
 40
0.0
  0
LTYPE
  5
105
330
E7
100
AcDbSymbolTableRecord
100
AcDbLinetypeTableRecord
  2
HIDDEN
 70
     0
  3
__ __ __ __ __ __ __ __ __ __ __ __ __ __ __ __
 72
    65
 73
     2
 40
0.375
 49
0.25
 74
     0
 49
-0.125
 74
     0
  0
LTYPE
  5
106
330
E7
100
AcDbSymbolTableRecord
100
AcDbLinetypeTableRecord
  2
BYBLOCK
 70
     0
  3

 72
    65
 73
     0
 40
0.0
  0
LTYPE
  5
107
330
E7
100
AcDbSymbolTableRecord
100
AcDbLinetypeTableRecord
  2
BYLAYER
 70
     0
  3

 72
    65
 73
     0
 40
0.0
  0
ENDTAB
  0
TABLE
  2
LAYER
  5
E4
330
0
100
AcDbSymbolTable
 70
     2
  0
LAYER
  5
F2
330
E4
100
AcDbSymbolTableRecord
100
AcDbLayerTableRecord
  2
0
 70
     0
 62
     7
  6
CONTINUOUS
  0
LAYER
  5
108
330
E4
100
AcDbSymbolTableRecord
100
AcDbLayerTableRecord
  2
DAMAN
 70
     0
 62
     5
  6
CONTINUOUS
  0
ENDTAB
  0
TABLE
  2
STYLE
  5
E5
330
0
100
AcDbSymbolTable
 70
     1
  0
STYLE
  5
F3
330
E5
100
AcDbSymbolTableRecord
100
AcDbTextStyleTableRecord
  2
STANDARD
 70
     0
 40
0.0
 41
1.0
 50
0.0
 71
     0
 42
0.188
  3
txt
  4

  0
ENDTAB
  0
TABLE
  2
VIEW
  5
E8
330
0
100
AcDbSymbolTable
 70
     0
  0
ENDTAB
  0
TABLE
  2
UCS
  5
E9
330
0
100
AcDbSymbolTable
 70
     0
  0
ENDTAB
  0
TABLE
  2
APPID
  5
EB
330
0
100
AcDbSymbolTable
 70
     1
  0
APPID
  5
F4
330
EB
100
AcDbSymbolTableRecord
100
AcDbRegAppTableRecord
  2
ACAD
 70
     0
  0
ENDTAB
  0
TABLE
  2
DIMSTYLE
  5
EC
330
0
100
AcDbSymbolTable
 70
     1
  0
DIMSTYLE
105
109
330
EC
100
AcDbSymbolTableRecord
100
AcDbDimStyleTableRecord
  2
STANDARD
 70
     0
  3

  4

  5

  6

  7

 40
1.0
 41
0.18
 42
0.0625
 43
0.38
 44
0.18
 45
0.0
 46
0.0
 47
0.0
 48
0.0
140
0.18
141
0.09
142
0.0
143
25.4
144
1.0
145
0.0
146
1.0
147
0.09
 71
     0
 72
     0
 73
     1
 74
     1
 75
     0
 76
     0
 77
     0
 78
     0
170
     0
171
     2
172
     0
173
     0
174
     0
175
     0
176
     0
177
     0
178
     0
270
     2
271
     4
272
     4
273
     2
274
     2
340
F3
275
     0
280
     0
281
     0
282
     0
283
     1
284
     0
285
     0
286
     0
287
     5
288
     0
  0
ENDTAB
  0
TABLE
  2
BLOCK_RECORD
  5
E3
330
0
100
AcDbSymbolTable
 70
     4
  0
BLOCK_RECORD
  5
100
102
{ACAD_XDICTIONARY
360
1AC
102
}
330
E3
100
AcDbSymbolTableRecord
100
AcDbBlockTableRecord
  2
*MODEL_SPACE
  0
BLOCK_RECORD
  5
FC
102
{ACAD_XDICTIONARY
360
1AA
102
}
330
E3
100
AcDbSymbolTableRecord
100
AcDbBlockTableRecord
  2
*PAPER_SPACE
  0
BLOCK_RECORD
  5
10B
330
E3
100
AcDbSymbolTableRecord
100
AcDbBlockTableRecord
  2
100CROSS
  0
BLOCK_RECORD
  5
10D
330
E3
100
AcDbSymbolTableRecord
100
AcDbBlockTableRecord
  2
050CROSS
  0
BLOCK_RECORD
  5
118
330
E3
100
AcDbSymbolTableRecord
100
AcDbBlockTableRecord
  2
04SAET
  0
BLOCK_RECORD
  5
120
330
E3
100
AcDbSymbolTableRecord
100
AcDbBlockTableRecord
  2
D05
  0
ENDTAB
  0
ENDSEC
  0
SECTION
  2
BLOCKS
  0
BLOCK
  5
101
330
100
100
AcDbEntity
  8
0
100
AcDbBlockBegin
  2
*MODEL_SPACE
 70
     0
 10
0.0
 20
0.0
 30
0.0
  3
*MODEL_SPACE
  1

  0
ENDBLK
  5
102
330
100
100
AcDbEntity
  8
0
100
AcDbBlockEnd
  0
BLOCK
  5
FD
330
FC
100
AcDbEntity
 67
     1
  8
0
100
AcDbBlockBegin
  2
*PAPER_SPACE
 70
     0
 10
0.0
 20
0.0
 30
0.0
  3
*PAPER_SPACE
  1

  0
ENDBLK
  5
FE
330
FC
100
AcDbEntity
 67
     1
  8
0
100
AcDbBlockEnd
  0
BLOCK
  5
10C
330
10B
100
AcDbEntity
  8
0
100
AcDbBlockBegin
  2
100CROSS
 70
     0
 10
5.625
 20
4.59375
 30
0.0
  3
100CROSS
  1

  0
INSERT
  5
10E
330
10B
100
AcDbEntity
  8
0
100
AcDbMInsertBlock
  2
050CROSS
 10
5.625
 20
4.59375
 30
0.0
 70
     1
 71
     1
  0
ENDBLK
  5
10F
330
10B
100
AcDbEntity
  8
0
100
AcDbBlockEnd
  0
BLOCK
  5
110
330
10D
100
AcDbEntity
  8
0
100
AcDbBlockBegin
  2
050CROSS
 70
     0
 10
5.0
 20
5.0
 30
0.0
  3
050CROSS
  1

  0
LINE
  5
111
330
10D
100
AcDbEntity
  8
0
100
AcDbLine
 10
5.0
 20
5.28125
 30
0.0
 11
5.0
 21
5.78125
 31
0.0
  0
LINE
  5
112
330
10D
100
AcDbEntity
  8
0
100
AcDbLine
 10
5.0
 20
4.875
 30
0.0
 11
5.0
 21
5.125
 31
0.0
  0
LINE
  5
113
330
10D
100
AcDbEntity
  8
0
100
AcDbLine
 10
5.0
 20
4.15625
 30
0.0
 11
5.0
 21
4.71875
 31
0.0
  0
LINE
  5
114
330
10D
100
AcDbEntity
  8
0
100
AcDbLine
 10
5.25
 20
5.0
 30
0.0
 11
5.8125
 21
5.0
 31
0.0
  0
LINE
  5
115
330
10D
100
AcDbEntity
  8
0
100
AcDbLine
 10
4.90625
 20
5.0
 30
0.0
 11
5.09375
 21
5.0
 31
0.0
  0
LINE
  5
116
330
10D
100
AcDbEntity
  8
0
100
AcDbLine
 10
4.1875
 20
5.0
 30
0.0
 11
4.75
 21
5.0
 31
0.0
  0
ENDBLK
  5
117
330
10D
100
AcDbEntity
  8
0
100
AcDbBlockEnd
  0
BLOCK
  5
119
330
118
100
AcDbEntity
  8
0
100
AcDbBlockBegin
  2
04SAET
 70
     0
 10
0.0
 20
0.0
 30
0.0
  3
04SAET
  1

  0
CIRCLE
  5
11A
330
118
100
AcDbEntity
  8
DAMAN
100
AcDbCircle
 10
0.0
 20
0.0
 30
0.0
 40
0.4375
  0
INSERT
  5
11B
330
118
100
AcDbEntity
  8
DAMAN
100
AcDbMInsertBlock
  2
100CROSS
 10
0.0
 20
0.0
 30
0.0
 41
0.8
 42
0.8
 70
     1
 71
     1
  0
CIRCLE
  5
11C
330
118
100
AcDbEntity
  8
DAMAN
100
AcDbCircle
 10
0.0
 20
0.0
 30
0.0
 40
0.21875
  0
CIRCLE
  5
11D
330
118
100
AcDbEntity
  8
DAMAN
100
AcDbCircle
 10
0.0
 20
0.0
 30
0.0
 40
0.1875
  0
CIRCLE
  5
11E
330
118
100
AcDbEntity
  8
DAMAN
100
AcDbCircle
 10
0.0
 20
0.0
 30
0.0
 40
0.2435
  0
ENDBLK
  5
11F
330
118
100
AcDbEntity
  8
0
100
AcDbBlockEnd
  0
BLOCK
  5
121
330
120
100
AcDbEntity
  8
DAMAN
100
AcDbBlockBegin
  2
D05
 70
     0
 10
0.0
 20
0.0
 30
0.0
  3
D05
  1

  0
CIRCLE
  5
122
330
120
100
AcDbEntity
  8
DAMAN
100
AcDbCircle
 10
1.8125
 20
0.0
 30
0.0
 40
0.125
  0
CIRCLE
  5
123
330
120
100
AcDbEntity
  8
DAMAN
100
AcDbCircle
 10
1.8125
 20
-2.125
 30
0.0
 40
0.125
  0
CIRCLE
  5
124
330
120
100
AcDbEntity
  8
DAMAN
100
AcDbCircle
 10
0.0
 20
0.0
 30
0.0
 40
0.125
  0
CIRCLE
  5
125
330
120
100
AcDbEntity
  8
DAMAN
100
AcDbCircle
 10
0.0
 20
-2.125
 30
0.0
 40
0.125
  0
INSERT
  5
126
330
120
100
AcDbEntity
  8
DAMAN
100
AcDbMInsertBlock
  2
100CROSS
 10
0.0
 20
0.0
 30
0.0
 41
0.25
 42
0.25
 70
     1
 71
     1
  0
CIRCLE
  5
127
330
120
100
AcDbEntity
  8
DAMAN
100
AcDbCircle
 10
0.0
 20
0.0
 30
0.0
 40
0.1055
  0
CIRCLE
  5
128
330
120
100
AcDbEntity
  8
DAMAN
100
AcDbCircle
 10
0.0
 20
-2.125
 30
0.0
 40
0.1055
  0
INSERT
  5
129
330
120
100
AcDbEntity
  8
DAMAN
100
AcDbMInsertBlock
  2
100CROSS
 10
0.0
 20
-2.125
 30
0.0
 41
0.25
 42
0.25
 70
     1
 71
     1
  0
CIRCLE
  5
12A
330
120
100
AcDbEntity
  8
DAMAN
100
AcDbCircle
 10
1.8125
 20
0.0
 30
0.0
 40
0.1055
  0
INSERT
  5
12B
330
120
100
AcDbEntity
  8
DAMAN
100
AcDbMInsertBlock
  2
100CROSS
 10
1.8125
 20
0.0
 30
0.0
 41
0.25
 42
0.25
 70
     1
 71
     1
  0
CIRCLE
  5
12C
330
120
100
AcDbEntity
  8
DAMAN
100
AcDbCircle
 10
1.8125
 20
-2.125
 30
0.0
 40
0.1055
  0
INSERT
  5
12D
330
120
100
AcDbEntity
  8
DAMAN
100
AcDbMInsertBlock
  2
100CROSS
 10
1.8125
 20
-2.125
 30
0.0
 41
0.25
 42
0.25
 70
     1
 71
     1
  0
INSERT
  5
12E
330
120
100
AcDbEntity
  8
DAMAN
100
AcDbMInsertBlock
  2
100CROSS
 10
0.5310000000000001
 20
-0.125
 30
0.0
 41
0.438
 42
0.438
 70
     1
 71
     1
  0
CIRCLE
  5
12F
330
120
100
AcDbEntity
  8
DAMAN
100
AcDbCircle
 10
0.5310000000000001
 20
-0.125
 30
0.0
 40
0.21875
  0
CIRCLE
  5
130
330
120
100
AcDbEntity
  8
DAMAN
100
AcDbCircle
 10
0.9685
 20
-0.6560000000000001
 30
0.0
 40
0.21875
  0
INSERT
  5
131
330
120
100
AcDbEntity
  8
DAMAN
100
AcDbMInsertBlock
  2
100CROSS
 10
0.9685
 20
-0.6560000000000001
 30
0.0
 41
0.438
 42
0.438
 70
     1
 71
     1
  0
INSERT
  5
132
330
120
100
AcDbEntity
  8
DAMAN
100
AcDbMInsertBlock
  2
100CROSS
 10
0.9685
 20
-1.468499999999999
 30
0.0
 41
0.438
 42
0.438
 70
     1
 71
     1
  0
CIRCLE
  5
133
330
120
100
AcDbEntity
  8
DAMAN
100
AcDbCircle
 10
0.9685
 20
-1.468499999999999
 30
0.0
 40
0.21875
  0
CIRCLE
  5
134
330
120
100
AcDbEntity
  8
DAMAN
100
AcDbCircle
 10
1.5625
 20
-1.062249999999999
 30
0.0
 40
0.21875
  0
INSERT
  5
135
330
120
100
AcDbEntity
  8
DAMAN
100
AcDbMInsertBlock
  2
100CROSS
 10
1.5625
 20
-1.062249999999999
 30
0.0
 41
0.438
 42
0.438
 70
     1
 71
     1
  0
ENDBLK
  5
136
330
120
100
AcDbEntity
  8
DAMAN
100
AcDbBlockEnd
  0
ENDSEC
  0
SECTION
  2
ENTITIES
  0
LINE
  5
137
330
100
100
AcDbEntity
  8
DAMAN
100
AcDbLine
 10
3.5
 20
3.5
 30
0.0
 11
13.375
 21
3.5
 31
0.0
  0
LINE
  5
138
330
100
100
AcDbEntity
  8
DAMAN
100
AcDbLine
 10
13.375
 20
3.5
 30
0.0
 11
13.375
 21
9.5
 31
0.0
  0
LINE
  5
139
330
100
100
AcDbEntity
  8
DAMAN
100
AcDbLine
 10
13.375
 20
9.5
 30
0.0
 11
3.5
 21
9.5
 31
0.0
  0
LINE
  5
13A
330
100
100
AcDbEntity
  8
DAMAN
100
AcDbLine
 10
3.5
 20
9.5
 30
0.0
 11
3.5
 21
3.5
 31
0.0
  0
LINE
  5
13B
330
100
100
AcDbEntity
  8
DAMAN
100
AcDbLine
 10
0.5
 20
3.5
 30
0.0
 11
2.5
 21
3.5
 31
0.0
  0
LINE
  5
13C
330
100
100
AcDbEntity
  8
DAMAN
100
AcDbLine
 10
2.5
 20
3.5
 30
0.0
 11
2.5
 21
9.5
 31
0.0
  0
LINE
  5
13D
330
100
100
AcDbEntity
  8
DAMAN
100
AcDbLine
 10
2.5
 20
9.5
 30
0.0
 11
0.5
 21
9.5
 31
0.0
  0
LINE
  5
13E
330
100
100
AcDbEntity
  8
DAMAN
100
AcDbLine
 10
0.5
 20
9.5
 30
0.0
 11
0.5
 21
3.5
 31
0.0
  0
LINE
  5
13F
330
100
100
AcDbEntity
  8
DAMAN
100
AcDbLine
 10
3.5
 20
0.5
 30
0.0
 11
13.375
 21
0.5
 31
0.0
  0
LINE
  5
140
330
100
100
AcDbEntity
  8
DAMAN
100
AcDbLine
 10
13.375
 20
0.5
 30
0.0
 11
13.375
 21
2.5
 31
0.0
  0
LINE
  5
141
330
100
100
AcDbEntity
  8
DAMAN
100
AcDbLine
 10
13.375
 20
2.5
 30
0.0
 11
3.5
 21
2.5
 31
0.0
  0
LINE
  5
142
330
100
100
AcDbEntity
  8
DAMAN
100
AcDbLine
 10
3.5
 20
2.5
 30
0.0
 11
3.5
 21
0.5
 31
0.0
  0
LINE
  5
143
330
100
100
AcDbEntity
  8
DAMAN
100
AcDbLine
 10
16.375
 20
9.5
 30
0.0
 11
16.375
 21
3.5
 31
0.0
  0
LINE
  5
144
330
100
100
AcDbEntity
  8
DAMAN
100
AcDbLine
 10
14.375
 20
3.5
 30
0.0
 11
14.375
 21
9.5
 31
0.0
  0
LINE
  5
145
330
100
100
AcDbEntity
  8
DAMAN
100
AcDbLine
 10
16.375
 20
3.5
 30
0.0
 11
14.375
 21
3.5
 31
0.0
  0
LINE
  5
146
330
100
100
AcDbEntity
  8
DAMAN
100
AcDbLine
 10
14.375
 20
9.5
 30
0.0
 11
16.375
 21
9.5
 31
0.0
  0
LINE
  5
147
330
100
100
AcDbEntity
  8
DAMAN
100
AcDbLine
 10
13.375
 20
10.5
 30
0.0
 11
3.5
 21
10.5
 31
0.0
  0
LINE
  5
148
330
100
100
AcDbEntity
  8
DAMAN
100
AcDbLine
 10
3.5
 20
12.5
 30
0.0
 11
13.375
 21
12.5
 31
0.0
  0
LINE
  5
149
330
100
100
AcDbEntity
  8
DAMAN
100
AcDbLine
 10
3.5
 20
10.5
 30
0.0
 11
3.5
 21
12.5
 31
0.0
  0
LINE
  5
14A
330
100
100
AcDbEntity
  8
DAMAN
100
AcDbLine
 10
13.375
 20
12.5
 30
0.0
 11
13.375
 21
10.5
 31
0.0
  0
INSERT
  5
14B
330
100
100
AcDbEntity
  8
DAMAN
100
AcDbMInsertBlock
  2
050CROSS
 10
4.0
 20
3.936999999999999
 30
0.0
 41
0.6
 42
0.6
 70
     1
 71
     1
  0
CIRCLE
  5
14C
330
100
100
AcDbEntity
  8
DAMAN
100
AcDbCircle
 10
4.0
 20
3.936999999999999
 30
0.0
 40
0.2655
  0
INSERT
  5
14D
330
100
100
AcDbEntity
  8
DAMAN
100
AcDbMInsertBlock
  2
050CROSS
 10
7.625
 20
3.936999999999999
 30
0.0
 41
0.6
 42
0.6
 70
     1
 71
     1
  0
CIRCLE
  5
14E
330
100
100
AcDbEntity
  8
DAMAN
100
AcDbCircle
 10
7.625
 20
3.936999999999999
 30
0.0
 40
0.2655
  0
INSERT
  5
14F
330
100
100
AcDbEntity
  8
DAMAN
100
AcDbMInsertBlock
  2
050CROSS
 10
4.0
 20
9.061999999999999
 30
0.0
 41
0.6
 42
0.6
 70
     1
 71
     1
  0
INSERT
  5
150
330
100
100
AcDbEntity
  8
DAMAN
100
AcDbMInsertBlock
  2
050CROSS
 10
4.0
 20
6.03075
 30
0.0
 41
0.6
 42
0.6
 70
     1
 71
     1
  0
CIRCLE
  5
151
330
100
100
AcDbEntity
  8
DAMAN
100
AcDbCircle
 10
4.0
 20
6.03075
 30
0.0
 40
0.2655
  0
CIRCLE
  5
152
330
100
100
AcDbEntity
  8
DAMAN
100
AcDbCircle
 10
4.0
 20
9.061999999999999
 30
0.0
 40
0.2655
  0
INSERT
  5
153
330
100
100
AcDbEntity
  8
DAMAN
100
AcDbMInsertBlock
  2
050CROSS
 10
7.625
 20
6.96825
 30
0.0
 41
0.6
 42
0.6
 70
     1
 71
     1
  0
CIRCLE
  5
154
330
100
100
AcDbEntity
  8
DAMAN
100
AcDbCircle
 10
7.625
 20
6.96825
 30
0.0
 40
0.2655
  0
INSERT
  5
155
330
100
100
AcDbEntity
  8
DAMAN
100
AcDbMInsertBlock
  2
050CROSS
 10
7.625
 20
9.061999999999999
 30
0.0
 41
0.6
 42
0.6
 70
     1
 71
     1
  0
CIRCLE
  5
156
330
100
100
AcDbEntity
  8
DAMAN
100
AcDbCircle
 10
7.625
 20
9.061999999999999
 30
0.0
 40
0.2655
  0
CIRCLE
  5
157
330
100
100
AcDbEntity
  8
DAMAN
100
AcDbCircle
 10
4.0
 20
9.061999999999999
 30
0.0
 40
0.40625
  0
CIRCLE
  5
158
330
100
100
AcDbEntity
  8
DAMAN
100
AcDbCircle
 10
7.625
 20
9.061999999999999
 30
0.0
 40
0.40625
  0
CIRCLE
  5
159
330
100
100
AcDbEntity
  8
DAMAN
100
AcDbCircle
 10
7.625
 20
6.96825
 30
0.0
 40
0.40625
  0
CIRCLE
  5
15A
330
100
100
AcDbEntity
  8
DAMAN
100
AcDbCircle
 10
7.625
 20
3.936999999999999
 30
0.0
 40
0.40625
  0
CIRCLE
  5
15B
330
100
100
AcDbEntity
  8
DAMAN
100
AcDbCircle
 10
4.0
 20
3.936999999999999
 30
0.0
 40
0.40625
  0
CIRCLE
  5
15C
330
100
100
AcDbEntity
  8
DAMAN
100
AcDbCircle
 10
4.0
 20
6.03075
 30
0.0
 40
0.40625
  0
TEXT
  5
15E
330
100
100
AcDbEntity
  8
DAMAN
100
AcDbText
 10
9.595766536223633
 20
11.89764353289506
 30
0.0
 40
0.188
  1
DAMAN ****
 50
180.0
100
AcDbText
  0
INSERT
  5
160
330
100
100
AcDbEntity
  8
DAMAN
100
AcDbMInsertBlock
  2
D05
 10
5.125
 20
7.09375
 30
0.0
 70
     1
 71
     1
  0
INSERT
  5
161
330
100
100
AcDbEntity
  8
DAMAN
100
AcDbMInsertBlock
  2
100CROSS
 10
9.9375
 20
5.09325
 30
0.0
 41
0.7725
 42
0.7725
 43
0.75
 70
     1
 71
     1
  0
CIRCLE
  5
162
330
100
100
AcDbEntity
  8
DAMAN
100
AcDbCircle
 10
12.125
 20
4.623999999999999
 30
0.0
 40
0.219
  0
CIRCLE
  5
163
330
100
100
AcDbEntity
  8
DAMAN
100
AcDbCircle
 10
9.938
 20
5.093499999999999
 30
0.0
 40
0.4530000000000001
  0
INSERT
  5
164
330
100
100
AcDbEntity
  8
DAMAN
100
AcDbMInsertBlock
  2
050CROSS
 10
12.125
 20
4.623999999999999
 30
0.0
 41
0.4375
 42
0.4375
 70
     1
 71
     1
  0
CIRCLE
  5
166
330
100
100
AcDbEntity
  8
DAMAN
100
AcDbCircle
 10
9.25
 20
3.936999999999999
 30
0.0
 40
0.2655
  0
CIRCLE
  5
168
330
100
100
AcDbEntity
  8
DAMAN
100
AcDbCircle
 10
12.875
 20
3.936999999999999
 30
0.0
 40
0.2655
  0
CIRCLE
  5
16A
330
100
100
AcDbEntity
  8
DAMAN
100
AcDbCircle
 10
9.938
 20
6.968499999999999
 30
0.0
 40
0.4530000000000001
  0
INSERT
  5
16C
330
100
100
AcDbEntity
  8
DAMAN
100
AcDbMInsertBlock
  2
050CROSS
 10
9.25
 20
6.03075
 30
0.0
 41
0.45
 42
0.45
 43
0.75
 70
     1
 71
     1
  0
CIRCLE
  5
16D
330
100
100
AcDbEntity
  8
DAMAN
100
AcDbCircle
 10
9.25
 20
6.03075
 30
0.0
 40
0.2655
  0
INSERT
  5
16E
330
100
100
AcDbEntity
  8
DAMAN
100
AcDbMInsertBlock
  2
100CROSS
 10
9.25
 20
7.90575
 30
0.0
 41
0.25
 42
0.25
 70
     1
 71
     1
  0
CIRCLE
  5
16F
330
100
100
AcDbEntity
  8
DAMAN
100
AcDbCircle
 10
9.25
 20
7.90575
 30
0.0
 40
0.1405
  0
CIRCLE
  5
170
330
100
100
AcDbEntity
  8
DAMAN
100
AcDbCircle
 10
9.25
 20
9.061999999999999
 30
0.0
 40
0.2655
  0
CIRCLE
  5
174
330
100
100
AcDbEntity
  8
DAMAN
100
AcDbCircle
 10
12.188
 20
6.030999999999999
 30
0.0
 40
0.4530000000000001
  0
INSERT
  5
175
330
100
100
AcDbEntity
  8
DAMAN
100
AcDbMInsertBlock
  2
100CROSS
 10
13.062
 20
5.34375
 30
0.0
 41
0.25
 42
0.25
 70
     1
 71
     1
  0
CIRCLE
  5
176
330
100
100
AcDbEntity
  8
DAMAN
100
AcDbCircle
 10
13.062
 20
5.34375
 30
0.0
 40
0.1405
  0
CIRCLE
  5
177
330
100
100
AcDbEntity
  8
DAMAN
100
AcDbCircle
 10
12.875
 20
6.96825
 30
0.0
 40
0.2655
  0
CIRCLE
  5
178
330
100
100
AcDbEntity
  8
DAMAN
100
AcDbCircle
 10
12.188
 20
7.905999999999999
 30
0.0
 40
0.4530000000000001
  0
CIRCLE
  5
17C
330
100
100
AcDbEntity
  8
DAMAN
100
AcDbCircle
 10
12.875
 20
9.061999999999999
 30
0.0
 40
0.2655
  0
INSERT
  5
17E
330
100
100
AcDbEntity
  8
DAMAN
100
AcDbMInsertBlock
  2
100CROSS
 10
9.938
 20
6.968499999999999
 30
0.0
 41
0.7725
 42
0.7725
 43
0.75
 70
     1
 71
     1
  0
INSERT
  5
17F
330
100
100
AcDbEntity
  8
DAMAN
100
AcDbMInsertBlock
  2
100CROSS
 10
12.188
 20
7.905999999999999
 30
0.0
 41
0.7725
 42
0.7725
 43
0.75
 70
     1
 71
     1
  0
INSERT
  5
180
330
100
100
AcDbEntity
  8
DAMAN
100
AcDbMInsertBlock
  2
100CROSS
 10
12.188
 20
6.030999999999999
 30
0.0
 41
0.7725
 42
0.7725
 43
0.75
 70
     1
 71
     1
  0
INSERT
  5
184
330
100
100
AcDbEntity
  8
DAMAN
100
AcDbMInsertBlock
  2
050CROSS
 10
9.25
 20
9.061999999999999
 30
0.0
 41
0.45
 42
0.45
 43
0.75
 70
     1
 71
     1
  0
INSERT
  5
185
330
100
100
AcDbEntity
  8
DAMAN
100
AcDbMInsertBlock
  2
050CROSS
 10
12.875
 20
9.061999999999999
 30
0.0
 41
0.45
 42
0.45
 43
0.75
 70
     1
 71
     1
  0
INSERT
  5
186
330
100
100
AcDbEntity
  8
DAMAN
100
AcDbMInsertBlock
  2
050CROSS
 10
12.875
 20
6.96825
 30
0.0
 41
0.45
 42
0.45
 43
0.75
 70
     1
 71
     1
  0
INSERT
  5
187
330
100
100
AcDbEntity
  8
DAMAN
100
AcDbMInsertBlock
  2
050CROSS
 10
12.875
 20
3.936999999999999
 30
0.0
 41
0.45
 42
0.45
 43
0.75
 70
     1
 71
     1
  0
INSERT
  5
188
330
100
100
AcDbEntity
  8
DAMAN
100
AcDbMInsertBlock
  2
050CROSS
 10
9.25
 20
3.936999999999999
 30
0.0
 41
0.45
 42
0.45
 43
0.75
 70
     1
 71
     1
  0
ENDSEC
  0
SECTION
  2
OBJECTS
  0
DICTIONARY
  5
EE
330
0
100
AcDbDictionary
  3
ACAD_GROUP
350
EF
  3
ACAD_LAYOUT
350
FB
  3
ACAD_MLINESTYLE
350
F8
  3
ACAD_PLOTSETTINGS
350
FA
  3
ACAD_PLOTSTYLENAME
350
F0
  3
ACDBHEADERROUNDTRIPXREC
350
18A
  0
DICTIONARY
  5
1AC
330
100
100
AcDbDictionary
280
     1
  3
ACAD_LAYOUTSELFREF
360
1AD
  0
DICTIONARY
  5
1AA
330
FC
100
AcDbDictionary
280
     1
  3
ACAD_LAYOUTSELFREF
360
1AB
  0
DICTIONARY
  5
EF
102
{ACAD_REACTORS
330
EE
102
}
330
EE
100
AcDbDictionary
  0
DICTIONARY
  5
FB
102
{ACAD_REACTORS
330
EE
102
}
330
EE
100
AcDbDictionary
  0
DICTIONARY
  5
F8
102
{ACAD_REACTORS
330
EE
102
}
330
EE
100
AcDbDictionary
  3
STANDARD
350
F9
  0
DICTIONARY
  5
FA
102
{ACAD_REACTORS
330
EE
102
}
330
EE
100
AcDbDictionary
  0
ACDBDICTIONARYWDFLT
  5
F0
102
{ACAD_REACTORS
330
EE
102
}
330
EE
100
AcDbDictionary
281
     1
  3
Normal
350
F1
100
AcDbDictionaryWithDefault
340
F1
  0
DICTIONARY
  5
18A
102
{ACAD_REACTORS
330
EE
102
}
330
EE
100
AcDbDictionary
  3
CEPSNTYPE
350
194
  3
FINGERPRINTGUID
350
195
  3
HYPERLINKBASE
350
18D
  3
INSUNITS
350
193
  3
LAYOUTDICT
350
18F
  3
LWETCUNION
350
192
  3
PLOTSETDICT
350
190
  3
PLOTSTYLNAMDICT
350
191
  3
PSVPSCALE
350
197
  3
PUCSBASE
350
19A
  3
PUCSORGBACK
350
1A0
  3
PUCSORGBOTTOM
350
19C
  3
PUCSORGFRONT
350
19F
  3
PUCSORGLEFT
350
19D
  3
PUCSORGRIGHT
350
19E
  3
PUCSORGTOP
350
19B
  3
PUCSORTHOREF
350
198
  3
PUCSORTHOVIEW
350
199
  3
STYLESHEET
350
18E
  3
TSTACKALIGN
350
18B
  3
TSTACKSIZE
350
18C
  3
UCSBASE
350
1A3
  3
UCSORGBACK
350
1A9
  3
UCSORGBOTTOM
350
1A5
  3
UCSORGFRONT
350
1A8
  3
UCSORGLEFT
350
1A6
  3
UCSORGRIGHT
350
1A7
  3
UCSORGTOP
350
1A4
  3
UCSORTHOREF
350
1A1
  3
UCSORTHOVIEW
350
1A2
  3
VERSIONGUID
350
196
  0
XRECORD
  5
1AD
102
{ACAD_REACTORS
330
1AC
102
}
330
1AC
100
AcDbXrecord
340
100
  0
XRECORD
  5
1AB
102
{ACAD_REACTORS
330
1AA
102
}
330
1AA
100
AcDbXrecord
340
FC
  0
MLINESTYLE
  5
F9
102
{ACAD_REACTORS
330
F8
102
}
330
F8
100
AcDbMlineStyle
  2
STANDARD
 70
     0
  3

 62
   256
 51
90.0
 52
90.0
 71
     2
 49
0.5
 62
   256
  6
BYLAYER
 49
-0.5
 62
   256
  6
BYLAYER
  0
ACDBPLACEHOLDER
  5
F1
102
{ACAD_REACTORS
330
F0
102
}
330
F0
100
AcDbPlaceHolder
280
     0
  0
XRECORD
  5
194
102
{ACAD_REACTORS
330
18A
102
}
330
18A
100
AcDbXrecord
 90
        0
  0
XRECORD
  5
195
102
{ACAD_REACTORS
330
18A
102
}
330
18A
100
AcDbXrecord
  1
{4B7D1608-7F97-4726-AF81-E97627DD91CF}
  0
XRECORD
  5
18D
102
{ACAD_REACTORS
330
18A
102
}
330
18A
100
AcDbXrecord
  1

  0
XRECORD
  5
193
102
{ACAD_REACTORS
330
18A
102
}
330
18A
100
AcDbXrecord
 90
        0
  0
XRECORD
  5
18F
102
{ACAD_REACTORS
330
18A
102
}
330
18A
100
AcDbXrecord
340
FB
  0
XRECORD
  5
192
102
{ACAD_REACTORS
330
18A
102
}
330
18A
100
AcDbXrecord
 90
    10781
  0
XRECORD
  5
190
102
{ACAD_REACTORS
330
18A
102
}
330
18A
100
AcDbXrecord
340
FA
  0
XRECORD
  5
191
102
{ACAD_REACTORS
330
18A
102
}
330
18A
100
AcDbXrecord
340
F0
  0
XRECORD
  5
197
102
{ACAD_REACTORS
330
18A
102
}
330
18A
100
AcDbXrecord
 40
0.0
  0
XRECORD
  5
19A
102
{ACAD_REACTORS
330
18A
102
}
330
18A
100
AcDbXrecord
340
0
  0
XRECORD
  5
1A0
102
{ACAD_REACTORS
330
18A
102
}
330
18A
100
AcDbXrecord
 10
0.0
 20
0.0
 30
0.0
  0
XRECORD
  5
19C
102
{ACAD_REACTORS
330
18A
102
}
330
18A
100
AcDbXrecord
 10
0.0
 20
0.0
 30
0.0
  0
XRECORD
  5
19F
102
{ACAD_REACTORS
330
18A
102
}
330
18A
100
AcDbXrecord
 10
0.0
 20
0.0
 30
0.0
  0
XRECORD
  5
19D
102
{ACAD_REACTORS
330
18A
102
}
330
18A
100
AcDbXrecord
 10
0.0
 20
0.0
 30
0.0
  0
XRECORD
  5
19E
102
{ACAD_REACTORS
330
18A
102
}
330
18A
100
AcDbXrecord
 10
0.0
 20
0.0
 30
0.0
  0
XRECORD
  5
19B
102
{ACAD_REACTORS
330
18A
102
}
330
18A
100
AcDbXrecord
 10
0.0
 20
0.0
 30
0.0
  0
XRECORD
  5
198
102
{ACAD_REACTORS
330
18A
102
}
330
18A
100
AcDbXrecord
340
0
  0
XRECORD
  5
199
102
{ACAD_REACTORS
330
18A
102
}
330
18A
100
AcDbXrecord
 70
     0
  0
XRECORD
  5
18E
102
{ACAD_REACTORS
330
18A
102
}
330
18A
100
AcDbXrecord
  1

  0
XRECORD
  5
18B
102
{ACAD_REACTORS
330
18A
102
}
330
18A
100
AcDbXrecord
 90
        1
  0
XRECORD
  5
18C
102
{ACAD_REACTORS
330
18A
102
}
330
18A
100
AcDbXrecord
 90
       70
  0
XRECORD
  5
1A3
102
{ACAD_REACTORS
330
18A
102
}
330
18A
100
AcDbXrecord
340
0
  0
XRECORD
  5
1A9
102
{ACAD_REACTORS
330
18A
102
}
330
18A
100
AcDbXrecord
 10
0.0
 20
0.0
 30
0.0
  0
XRECORD
  5
1A5
102
{ACAD_REACTORS
330
18A
102
}
330
18A
100
AcDbXrecord
 10
0.0
 20
0.0
 30
0.0
  0
XRECORD
  5
1A8
102
{ACAD_REACTORS
330
18A
102
}
330
18A
100
AcDbXrecord
 10
0.0
 20
0.0
 30
0.0
  0
XRECORD
  5
1A6
102
{ACAD_REACTORS
330
18A
102
}
330
18A
100
AcDbXrecord
 10
0.0
 20
0.0
 30
0.0
  0
XRECORD
  5
1A7
102
{ACAD_REACTORS
330
18A
102
}
330
18A
100
AcDbXrecord
 10
0.0
 20
0.0
 30
0.0
  0
XRECORD
  5
1A4
102
{ACAD_REACTORS
330
18A
102
}
330
18A
100
AcDbXrecord
 10
0.0
 20
0.0
 30
0.0
  0
XRECORD
  5
1A1
102
{ACAD_REACTORS
330
18A
102
}
330
18A
100
AcDbXrecord
340
0
  0
XRECORD
  5
1A2
102
{ACAD_REACTORS
330
18A
102
}
330
18A
100
AcDbXrecord
 70
     0
  0
XRECORD
  5
196
102
{ACAD_REACTORS
330
18A
102
}
330
18A
100
AcDbXrecord
  1
{D9797BDA-B78A-400E-85C8-9C4CAC0824A5}
  0
ENDSEC
  0
EOF
