  0
SECTION
  2
HEADER
  9
$ACADVER
  1
AC1009
  9
$INSBASE
 10
0.0
 20
0.0
 30
0.0
  9
$EXTMIN
 10
3.0
 20
1.875
 30
0.0
  9
$EXTMAX
 10
12.625
 20
10.5
 30
0.0
  9
$LIMMIN
 10
0.0
 20
0.0
  9
$LIMMAX
 10
12.0
 20
9.0
  9
$ORTHOMODE
 70
     1
  9
$REGENMODE
 70
     1
  9
$FILLMODE
 70
     1
  9
$QTEXTMODE
 70
     0
  9
$MIRRTEXT
 70
     1
  9
$DRAGMODE
 70
     2
  9
$LTSCALE
 40
1.0
  9
$OSMODE
 70
     0
  9
$ATTMODE
 70
     1
  9
$TEXTSIZE
 40
0.125
  9
$TRACEWID
 40
0.05
  9
$TEXTSTYLE
  7
STANDARD
  9
$CLAYER
  8
DAMAN
  9
$CELTYPE
  6
BYLAYER
  9
$CECOLOR
 62
   256
  9
$DIMSCALE
 40
1.0
  9
$DIMASZ
 40
0.18
  9
$DIMEXO
 40
0.0625
  9
$DIMDLI
 40
0.38
  9
$DIMRND
 40
0.0
  9
$DIMDLE
 40
0.0
  9
$DIMEXE
 40
0.18
  9
$DIMTP
 40
0.0
  9
$DIMTM
 40
0.0
  9
$DIMTXT
 40
0.18
  9
$DIMCEN
 40
0.09
  9
$DIMTSZ
 40
0.0
  9
$DIMTOL
 70
     0
  9
$DIMLIM
 70
     0
  9
$DIMTIH
 70
     1
  9
$DIMTOH
 70
     1
  9
$DIMSE1
 70
     0
  9
$DIMSE2
 70
     0
  9
$DIMTAD
 70
     0
  9
$DIMZIN
 70
     0
  9
$DIMBLK
  1

  9
$DIMASO
 70
     1
  9
$DIMSHO
 70
     1
  9
$DIMPOST
  1

  9
$DIMAPOST
  1

  9
$DIMALT
 70
     0
  9
$DIMALTD
 70
     2
  9
$DIMALTF
 40
25.4
  9
$DIMLFAC
 40
1.0
  9
$DIMTOFL
 70
     0
  9
$DIMTVP
 40
0.0
  9
$DIMTIX
 70
     0
  9
$DIMSOXD
 70
     0
  9
$DIMSAH
 70
     0
  9
$DIMBLK1
  1

  9
$DIMBLK2
  1

  9
$DIMSTYLE
  2
*UNNAMED
  9
$DIMCLRD
 70
     0
  9
$DIMCLRE
 70
     0
  9
$DIMCLRT
 70
     0
  9
$DIMTFAC
 40
1.0
  9
$DIMGAP
 40
0.09
  9
$LUNITS
 70
     2
  9
$LUPREC
 70
     4
  9
$SKETCHINC
 40
0.1
  9
$FILLETRAD
 40
0.0
  9
$AUNITS
 70
     0
  9
$AUPREC
 70
     0
  9
$MENU
  1
tom
  9
$ELEVATION
 40
0.0
  9
$PELEVATION
 40
0.0
  9
$THICKNESS
 40
0.0
  9
$LIMCHECK
 70
     0
  9
$BLIPMODE
 70
     1
  9
$CHAMFERA
 40
0.0
  9
$CHAMFERB
 40
0.0
  9
$SKPOLY
 70
     0
  9
$TDCREATE
 40
2449739.488191666
  9
$TDUPDATE
 40
2449739.488191666
  9
$TDINDWG
 40
0.0000000000
  9
$TDUSRTIMER
 40
0.0000000000
  9
$USRTIMER
 70
     1
  9
$ANGBASE
 50
0.0
  9
$ANGDIR
 70
     0
  9
$PDMODE
 70
     0
  9
$PDSIZE
 40
0.0
  9
$PLINEWID
 40
0.0
  9
$COORDS
 70
     1
  9
$SPLFRAME
 70
     0
  9
$SPLINETYPE
 70
     6
  9
$SPLINESEGS
 70
     8
  9
$ATTDIA
 70
     0
  9
$ATTREQ
 70
     1
  9
$HANDLING
 70
     0
  9
$HANDSEED
  5
0
  9
$SURFTAB1
 70
     6
  9
$SURFTAB2
 70
     6
  9
$SURFTYPE
 70
     6
  9
$SURFU
 70
     6
  9
$SURFV
 70
     6
  9
$UCSNAME
  2

  9
$UCSORG
 10
0.0
 20
0.0
 30
0.0
  9
$UCSXDIR
 10
1.0
 20
0.0
 30
0.0
  9
$UCSYDIR
 10
0.0
 20
1.0
 30
0.0
  9
$PUCSNAME
  2

  9
$PUCSORG
 10
0.0
 20
0.0
 30
0.0
  9
$PUCSXDIR
 10
1.0
 20
0.0
 30
0.0
  9
$PUCSYDIR
 10
0.0
 20
1.0
 30
0.0
  9
$USERI1
 70
     0
  9
$USERI2
 70
     0
  9
$USERI3
 70
     0
  9
$USERI4
 70
     0
  9
$USERI5
 70
     0
  9
$USERR1
 40
0.0
  9
$USERR2
 40
0.0
  9
$USERR3
 40
0.0
  9
$USERR4
 40
0.0
  9
$USERR5
 40
0.0
  9
$WORLDVIEW
 70
     1
  9
$SHADEDGE
 70
     3
  9
$SHADEDIF
 70
    70
  9
$TILEMODE
 70
     1
  9
$MAXACTVP
 70
    16
  9
$PINSBASE
 10
0.0
 20
0.0
 30
0.0
  9
$PLIMCHECK
 70
     0
  9
$PEXTMIN
 10
1.000000E+20
 20
1.000000E+20
 30
1.000000E+20
  9
$PEXTMAX
 10
-1.000000E+20
 20
-1.000000E+20
 30
-1.000000E+20
  9
$PLIMMIN
 10
0.0
 20
0.0
  9
$PLIMMAX
 10
12.0
 20
9.0
  9
$UNITMODE
 70
     0
  9
$VISRETAIN
 70
     0
  9
$PLINEGEN
 70
     0
  9
$PSLTSCALE
 70
     1
  9
$TREEDEPTH
 70
  3020
  9
$DWGCODEPAGE
  3
ascii
  0
ENDSEC
  0
SECTION
  2
TABLES
  0
TABLE
  2
VPORT
 70
     2
  0
VPORT
  2
*ACTIVE
 70
     0
 10
0.0
 20
0.0
 11
1.0
 21
1.0
 12
7.84375
 22
6.15625
 13
0.0
 23
0.0
 14
0.03125
 24
0.03125
 15
0.0
 25
0.0
 16
0.0
 26
0.0
 36
1.0
 17
0.0
 27
0.0
 37
0.0
 40
10.897325
 41
1.365662
 42
50.0
 43
0.0
 44
0.0
 50
0.0
 51
0.0
 71
     0
 72
   100
 73
     1
 74
     1
 75
     1
 76
     0
 77
     0
 78
     0
  0
ENDTAB
  0
TABLE
  2
LTYPE
 70
     4
  0
LTYPE
  2
CONTINUOUS
 70
    64
  3
Solid line
 72
    65
 73
     0
 40
0.0
  0
LTYPE
  2
HIDDEN
 70
    64
  3
_ _ _ _ _ _ _ _ _ _ _ _ _ _ _ _ _ _ _ _ _ _ _
 72
    65
 73
     2
 40
0.375
 49
0.25
 49
-0.125
  0
LTYPE
  2
CENTER
 70
    64
  3
____ _ ____ _ ____ _ ____ _ ____ _ ____ _ ____
 72
    65
 73
     4
 40
2.0
 49
1.25
 49
-0.25
 49
0.25
 49
-0.25
  0
LTYPE
  2
PHANTOM
 70
    64
  3
_____ _ _ _____ _ _ _____ _ _ _____ _ _ ____
 72
    65
 73
     6
 40
2.5
 49
1.25
 49
-0.25
 49
0.25
 49
-0.25
 49
0.25
 49
-0.25
  0
ENDTAB
  0
TABLE
  2
LAYER
 70
     8
  0
LAYER
  2
0
 70
     0
 62
     7
  6
CONTINUOUS
  0
LAYER
  2
DAMAN
 70
     0
 62
     5
  6
CONTINUOUS
  0
LAYER
  2
BORDER
 70
    64
 62
     7
  6
CONTINUOUS
  0
LAYER
  2
CSOLID
 70
    64
 62
     3
  6
CONTINUOUS
  0
LAYER
  2
CHIDDEN
 70
    64
 62
     3
  6
HIDDEN
  0
LAYER
  2
CDIM
 70
    64
 62
     2
  6
CONTINUOUS
  0
LAYER
  2
CCENTER
 70
    64
 62
     4
  6
CENTER
  0
LAYER
  2
PHANTOM
 70
     0
 62
     1
  6
PHANTOM
  0
ENDTAB
  0
TABLE
  2
STYLE
 70
     2
  0
STYLE
  2
STANDARD
 70
    64
 40
0.0
 41
1.0
 50
0.0
 71
     0
 42
0.125
  3
txt
  4

  0
STYLE
  2
STR
 70
    64
 40
0.0
 41
1.0
 50
0.0
 71
     0
 42
0.25
  3
SIMPLEX
  4

  0
ENDTAB
  0
TABLE
  2
VIEW
 70
     0
  0
ENDTAB
  0
TABLE
  2
UCS
 70
     0
  0
ENDTAB
  0
TABLE
  2
APPID
 70
     1
  0
APPID
  2
ACAD
 70
    64
  0
ENDTAB
  0
TABLE
  2
DIMSTYLE
 70
     0
  0
ENDTAB
  0
ENDSEC
  0
SECTION
  2
BLOCKS
  0
BLOCK
  8
0
  2
D03SPS
 70
    64
 10
0.0
 20
0.0
 30
0.0
  3
D03SPS
  0
POLYLINE
  8
BORDER
 66
     1
 10
0.0
 20
0.0
 30
0.0
 70
     1
  0
VERTEX
  8
BORDER
 10
2.75
 20
4.5
 30
0.0
  0
VERTEX
  8
BORDER
 10
2.75
 20
7.0
 30
0.0
  0
VERTEX
  8
BORDER
 10
3.75
 20
7.0
 30
0.0
  0
VERTEX
  8
BORDER
 10
3.75
 20
4.5
 30
0.0
  0
SEQEND
  8
BORDER
  0
POLYLINE
  8
BORDER
 66
     1
 10
0.0
 20
0.0
 30
0.0
 70
     1
  0
VERTEX
  8
BORDER
 10
10.75
 20
4.5
 30
0.0
  0
VERTEX
  8
BORDER
 10
10.75
 20
7.0
 30
0.0
  0
VERTEX
  8
BORDER
 10
11.75
 20
7.0
 30
0.0
  0
VERTEX
  8
BORDER
 10
11.75
 20
4.5
 30
0.0
  0
SEQEND
  8
BORDER
  0
POLYLINE
  8
BORDER
 66
     1
 10
0.0
 20
0.0
 30
0.0
 70
     1
  0
VERTEX
  8
BORDER
 10
6.0
 20
4.5
 30
0.0
  0
VERTEX
  8
BORDER
 10
6.0
 20
7.0
 30
0.0
  0
VERTEX
  8
BORDER
 10
8.5
 20
7.0
 30
0.0
  0
VERTEX
  8
BORDER
 10
8.5
 20
4.5
 30
0.0
  0
SEQEND
  8
BORDER
  0
POLYLINE
  8
BORDER
 66
     1
 10
0.0
 20
0.0
 30
0.0
 70
     1
  0
VERTEX
  8
BORDER
 10
6.0
 20
1.75
 30
0.0
  0
VERTEX
  8
BORDER
 10
6.0
 20
2.75
 30
0.0
  0
VERTEX
  8
BORDER
 10
8.5
 20
2.75
 30
0.0
  0
VERTEX
  8
BORDER
 10
8.5
 20
1.75
 30
0.0
  0
SEQEND
  8
BORDER
  0
POLYLINE
  8
BORDER
 66
     1
 10
0.0
 20
0.0
 30
0.0
 70
     1
  0
VERTEX
  8
BORDER
 10
6.0
 20
8.75
 30
0.0
  0
VERTEX
  8
BORDER
 10
6.0
 20
9.75
 30
0.0
  0
VERTEX
  8
BORDER
 10
8.5
 20
9.75
 30
0.0
  0
VERTEX
  8
BORDER
 10
8.5
 20
8.75
 30
0.0
  0
SEQEND
  8
BORDER
  0
CIRCLE
  8
CSOLID
 10
6.641875
 20
5.2315
 30
0.0
 40
0.0855
  0
INSERT
  8
CCENTER
  2
100CROSS
 10
6.641875
 20
5.2315
 30
0.0
 41
0.171
 42
0.171
 43
0.0
  0
INSERT
  8
CCENTER
  2
100CROSS
 10
7.281875
 20
5.344
 30
0.0
 41
0.25
 42
0.25
 43
0.0
  0
CIRCLE
  8
CSOLID
 10
7.281875
 20
5.344
 30
0.0
 40
0.125
  0
CIRCLE
  8
CSOLID
 10
6.875375
 20
5.6875
 30
0.0
 40
0.125
  0
INSERT
  8
CCENTER
  2
100CROSS
 10
6.875375
 20
5.6875
 30
0.0
 41
0.25
 42
0.25
 43
0.0
  0
INSERT
  8
CCENTER
  2
100CROSS
 10
7.687875
 20
5.6875
 30
0.0
 41
0.25
 42
0.25
 43
0.0
  0
CIRCLE
  8
CSOLID
 10
7.687875
 20
5.6875
 30
0.0
 40
0.125
  0
CIRCLE
  8
CSOLID
 10
7.281875
 20
6.0315
 30
0.0
 40
0.125
  0
INSERT
  8
CCENTER
  2
100CROSS
 10
7.281875
 20
6.0315
 30
0.0
 41
0.25
 42
0.25
 43
0.0
  0
CIRCLE
  8
CSOLID
 10
6.641875
 20
4.93775
 30
0.0
 40
0.078
  0
CIRCLE
  8
CSOLID
 10
7.921875
 20
4.93775
 30
0.0
 40
0.078
  0
CIRCLE
  8
CSOLID
 10
7.891875
 20
6.5315
 30
0.0
 40
0.078
  0
CIRCLE
  8
CSOLID
 10
6.671875
 20
6.5315
 30
0.0
 40
0.078
  0
INSERT
  8
CCENTER
  2
100CROSS
 10
6.641875
 20
4.9375
 30
0.0
 41
0.188
 42
0.188
 43
0.0
  0
INSERT
  8
CCENTER
  2
100CROSS
 10
7.921875
 20
4.9375
 30
0.0
 41
0.188
 42
0.188
 43
0.0
  0
INSERT
  8
CCENTER
  2
100CROSS
 10
7.891875
 20
6.5315
 30
0.0
 41
0.188
 42
0.188
 43
0.0
  0
INSERT
  8
CCENTER
  2
100CROSS
 10
6.671875
 20
6.5315
 30
0.0
 41
0.188
 42
0.188
 43
0.0
  0
CIRCLE
  8
CHIDDEN
 10
6.641875
 20
4.9375
 30
0.0
 40
0.095
  0
CIRCLE
  8
CHIDDEN
 10
7.921875
 20
4.9375
 30
0.0
 40
0.095
  0
CIRCLE
  8
CHIDDEN
 10
6.671875
 20
6.5315
 30
0.0
 40
0.095
  0
CIRCLE
  8
CHIDDEN
 10
7.891875
 20
6.5315
 30
0.0
 40
0.095
  0
INSERT
  8
BORDER
  2
025NPTFT
 10
7.25
 20
2.25
 30
0.0
  0
INSERT
  8
BORDER
  2
025NPTFT
 10
7.25
 20
9.25
 30
0.0
  0
INSERT
  8
BORDER
  2
025NPTFT
 10
11.25
 20
5.6875
 30
0.0
  0
INSERT
  8
BORDER
  2
025NPTFT
 10
3.25
 20
5.6875
 30
0.0
  0
INSERT
  8
CCENTER
  2
100CROSS
 10
8.25
 20
6.75
 30
0.0
 41
0.40625
 42
0.40625
 43
0.40625
  0
INSERT
  8
CCENTER
  2
100CROSS
 10
6.25
 20
4.75
 30
0.0
 41
0.40625
 42
0.40625
 43
0.40625
  0
CIRCLE
  8
CSOLID
 10
6.25
 20
4.75
 30
0.0
 40
0.203125
  0
CIRCLE
  8
CSOLID
 10
6.25
 20
4.75
 30
0.0
 40
0.140625
  0
CIRCLE
  8
CSOLID
 10
8.25
 20
6.75
 30
0.0
 40
0.140625
  0
CIRCLE
  8
CSOLID
 10
8.25
 20
6.75
 30
0.0
 40
0.203125
  0
TEXT
  8
CDIM
 10
7.8125
 20
2.375
 30
0.0
 40
0.25
  1
B
  7
STR
  0
TEXT
  8
CDIM
 10
11.15625
 20
6.28125
 30
0.0
 40
0.25
  1
T
 50
90.0
  7
STR
  0
TEXT
  8
CDIM
 10
6.6875
 20
9.15625
 30
0.0
 40
0.25
  1
A
 50
180.0
  7
STR
  0
TEXT
  8
CDIM
 10
3.34375
 20
5.125
 30
0.0
 40
0.25
  1
P
 50
270.0
  7
STR
  0
LINE
  8
CDIM
 10
2.75
 20
7.089288
 30
0.0
 11
2.75
 21
7.678575
 31
0.0
  0
LINE
  8
CDIM
 10
3.25
 20
6.276788
 30
0.0
 11
3.25
 21
7.678575
 31
0.0
  0
LINE
  8
CDIM
 10
3.428575
 20
7.5
 30
0.0
 11
3.60715
 21
7.5
 31
0.0
  0
LINE
  8
CDIM
 10
2.571425
 20
7.5
 30
0.0
 11
2.39285
 21
7.5
 31
0.0
  0
SOLID
  8
CDIM
 10
3.428575
 20
7.470238
 30
0.0
 11
3.428575
 21
7.529763
 31
0.0
 12
3.25
 22
7.5
 32
0.0
 13
3.25
 23
7.5
 33
0.0
  0
SOLID
  8
CDIM
 10
2.571425
 20
7.470238
 30
0.0
 11
2.571425
 21
7.529763
 31
0.0
 12
2.75
 22
7.5
 32
0.0
 13
2.75
 23
7.5
 33
0.0
  0
TEXT
  8
CDIM
 10
3.785725
 20
7.399998
 30
0.0
 40
0.200004
  1
0.50
  7
STR
  0
LINE
  8
CDIM
 10
2.75
 20
7.089288
 30
0.0
 11
2.75
 21
8.2143
 31
0.0
  0
LINE
  8
CDIM
 10
3.75
 20
7.089288
 30
0.0
 11
3.75
 21
8.2143
 31
0.0
  0
LINE
  8
CDIM
 10
3.928575
 20
8.035725
 30
0.0
 11
4.10715
 21
8.035725
 31
0.0
  0
LINE
  8
CDIM
 10
2.571425
 20
8.035725
 30
0.0
 11
2.39285
 21
8.035725
 31
0.0
  0
SOLID
  8
CDIM
 10
3.928575
 20
8.005962
 30
0.0
 11
3.928575
 21
8.065488
 31
0.0
 12
3.75
 22
8.035725
 32
0.0
 13
3.75
 23
8.035725
 33
0.0
  0
SOLID
  8
CDIM
 10
2.571425
 20
8.005962
 30
0.0
 11
2.571425
 21
8.065488
 31
0.0
 12
2.75
 22
8.035725
 32
0.0
 13
2.75
 23
8.035725
 33
0.0
  0
TEXT
  8
CDIM
 10
3.004475
 20
7.935723
 30
0.0
 40
0.200004
  1
1.00
  7
STR
  0
LINE
  8
CDIM
 10
5.910713
 20
7.0
 30
0.0
 11
5.321425
 21
7.0
 31
0.0
  0
LINE
  8
CDIM
 10
6.786087
 20
5.6875
 30
0.0
 11
5.321425
 21
5.6875
 31
0.0
  0
LINE
  8
CDIM
 10
5.5
 20
6.821425
 30
0.0
 11
5.5
 21
6.622327
 31
0.0
  0
LINE
  8
CDIM
 10
5.5
 20
5.866075
 30
0.0
 11
5.5
 21
6.065173
 31
0.0
  0
SOLID
  8
CDIM
 10
5.529763
 20
6.821425
 30
0.0
 11
5.470238
 21
6.821425
 31
0.0
 12
5.5
 22
7.0
 32
0.0
 13
5.5
 23
7.0
 33
0.0
  0
SOLID
  8
CDIM
 10
5.529763
 20
5.866075
 30
0.0
 11
5.470238
 21
5.866075
 31
0.0
 12
5.5
 22
5.6875
 32
0.0
 13
5.5
 23
5.6875
 33
0.0
  0
TEXT
  8
CDIM
 10
5.257138
 20
6.243748
 30
0.0
 40
0.200004
  1
1.31
  7
STR
  0
LINE
  8
CDIM
 10
5.910713
 20
7.0
 30
0.0
 11
4.7857
 21
7.0
 31
0.0
  0
LINE
  8
CDIM
 10
5.910713
 20
4.5
 30
0.0
 11
4.7857
 21
4.5
 31
0.0
  0
LINE
  8
CDIM
 10
4.964275
 20
6.821425
 30
0.0
 11
4.964275
 21
5.778577
 31
0.0
  0
LINE
  8
CDIM
 10
4.964275
 20
4.678575
 30
0.0
 11
4.964275
 21
5.221423
 31
0.0
  0
SOLID
  8
CDIM
 10
4.994038
 20
6.821425
 30
0.0
 11
4.934513
 21
6.821425
 31
0.0
 12
4.964275
 22
7.0
 32
0.0
 13
4.964275
 23
7.0
 33
0.0
  0
SOLID
  8
CDIM
 10
4.994038
 20
4.678575
 30
0.0
 11
4.934513
 21
4.678575
 31
0.0
 12
4.964275
 22
4.5
 32
0.0
 13
4.964275
 23
4.5
 33
0.0
  0
TEXT
  8
CDIM
 10
4.659507
 20
5.399998
 30
0.0
 40
0.200004
  1
2.50
  7
STR
  0
LINE
  8
CDIM
 10
8.589287
 20
7.0
 30
0.0
 11
9.178575
 21
7.0
 31
0.0
  0
LINE
  8
CDIM
 10
8.339287
 20
6.75
 30
0.0
 11
9.178575
 21
6.75
 31
0.0
  0
LINE
  8
CDIM
 10
9.0
 20
6.571425
 30
0.0
 11
9.0
 21
6.39285
 31
0.0
  0
LINE
  8
CDIM
 10
9.0
 20
7.178575
 30
0.0
 11
9.0
 21
7.35715
 31
0.0
  0
SOLID
  8
CDIM
 10
9.029763
 20
6.571425
 30
0.0
 11
8.970238
 21
6.571425
 31
0.0
 12
9.0
 22
6.75
 32
0.0
 13
9.0
 23
6.75
 33
0.0
  0
SOLID
  8
CDIM
 10
9.029763
 20
7.178575
 30
0.0
 11
8.970238
 21
7.178575
 31
0.0
 12
9.0
 22
7.0
 32
0.0
 13
9.0
 23
7.0
 33
0.0
  0
TEXT
  8
CDIM
 10
8.627064
 20
6.136598
 30
0.0
 40
0.200004
  1
0.25
  7
STR
  0
LINE
  8
CDIM
 10
8.589287
 20
7.0
 30
0.0
 11
9.7143
 21
7.0
 31
0.0
  0
LINE
  8
CDIM
 10
6.339288
 20
4.75
 30
0.0
 11
9.7143
 21
4.75
 31
0.0
  0
LINE
  8
CDIM
 10
9.535725
 20
6.821425
 30
0.0
 11
9.535725
 21
6.153577
 31
0.0
  0
LINE
  8
CDIM
 10
9.535725
 20
4.928575
 30
0.0
 11
9.535725
 21
5.596423
 31
0.0
  0
SOLID
  8
CDIM
 10
9.565488
 20
6.821425
 30
0.0
 11
9.505962
 21
6.821425
 31
0.0
 12
9.535725
 22
7.0
 32
0.0
 13
9.535725
 23
7.0
 33
0.0
  0
SOLID
  8
CDIM
 10
9.565488
 20
4.928575
 30
0.0
 11
9.505962
 21
4.928575
 31
0.0
 12
9.535725
 22
4.75
 32
0.0
 13
9.535725
 23
4.75
 33
0.0
  0
TEXT
  8
CDIM
 10
9.230957
 20
5.774998
 30
0.0
 40
0.200004
  1
2.25
  7
STR
  0
LINE
  8
CDIM
 10
6.0
 20
4.410713
 30
0.0
 11
6.0
 21
3.821425
 31
0.0
  0
LINE
  8
CDIM
 10
6.25
 20
4.660713
 30
0.0
 11
6.25
 21
3.821425
 31
0.0
  0
LINE
  8
CDIM
 10
6.428575
 20
4.0
 30
0.0
 11
6.60715
 21
4.0
 31
0.0
  0
LINE
  8
CDIM
 10
5.821425
 20
4.0
 30
0.0
 11
5.64285
 21
4.0
 31
0.0
  0
SOLID
  8
CDIM
 10
6.428575
 20
3.970238
 30
0.0
 11
6.428575
 21
4.029763
 31
0.0
 12
6.25
 22
4.0
 32
0.0
 13
6.25
 23
4.0
 33
0.0
  0
SOLID
  8
CDIM
 10
5.821425
 20
3.970238
 30
0.0
 11
5.821425
 21
4.029763
 31
0.0
 12
6.0
 22
4.0
 32
0.0
 13
6.0
 23
4.0
 33
0.0
  0
TEXT
  8
CDIM
 10
6.785725
 20
3.899998
 30
0.0
 40
0.200004
  1
0.25
  7
STR
  0
LINE
  8
CDIM
 10
6.0
 20
4.410713
 30
0.0
 11
6.0
 21
3.2857
 31
0.0
  0
LINE
  8
CDIM
 10
8.25
 20
6.660713
 30
0.0
 11
8.25
 21
3.2857
 31
0.0
  0
LINE
  8
CDIM
 10
6.178575
 20
3.464275
 30
0.0
 11
6.641657
 21
3.464275
 31
0.0
  0
LINE
  8
CDIM
 10
8.071425
 20
3.464275
 30
0.0
 11
7.608343
 21
3.464275
 31
0.0
  0
SOLID
  8
CDIM
 10
6.178575
 20
3.434513
 30
0.0
 11
6.178575
 21
3.494038
 31
0.0
 12
6.0
 22
3.464275
 32
0.0
 13
6.0
 23
3.464275
 33
0.0
  0
SOLID
  8
CDIM
 10
8.071425
 20
3.434513
 30
0.0
 11
8.071425
 21
3.494038
 31
0.0
 12
8.25
 22
3.464275
 32
0.0
 13
8.25
 23
3.464275
 33
0.0
  0
TEXT
  8
CDIM
 10
6.820232
 20
3.364273
 30
0.0
 40
0.200004
  1
2.25
  7
STR
  0
LINE
  8
CDIM
 10
6.0
 20
7.089288
 30
0.0
 11
6.0
 21
7.678575
 31
0.0
  0
LINE
  8
CDIM
 10
6.875375
 20
5.776788
 30
0.0
 11
6.875375
 21
7.678575
 31
0.0
  0
LINE
  8
CDIM
 10
7.05395
 20
7.5
 30
0.0
 11
7.232525
 21
7.5
 31
0.0
  0
LINE
  8
CDIM
 10
5.821425
 20
7.5
 30
0.0
 11
5.64285
 21
7.5
 31
0.0
  0
SOLID
  8
CDIM
 10
7.05395
 20
7.470238
 30
0.0
 11
7.05395
 21
7.529763
 31
0.0
 12
6.875375
 22
7.5
 32
0.0
 13
6.875375
 23
7.5
 33
0.0
  0
SOLID
  8
CDIM
 10
5.821425
 20
7.470238
 30
0.0
 11
5.821425
 21
7.529763
 31
0.0
 12
6.0
 22
7.5
 32
0.0
 13
6.0
 23
7.5
 33
0.0
  0
TEXT
  8
CDIM
 10
6.12985
 20
7.399998
 30
0.0
 40
0.200004
  1
0.88
  7
STR
  0
LINE
  8
CDIM
 10
6.0
 20
7.089288
 30
0.0
 11
6.0
 21
8.2143
 31
0.0
  0
LINE
  8
CDIM
 10
8.5
 20
7.089288
 30
0.0
 11
8.5
 21
8.2143
 31
0.0
  0
LINE
  8
CDIM
 10
6.178575
 20
8.035725
 30
0.0
 11
6.766657
 21
8.035725
 31
0.0
  0
LINE
  8
CDIM
 10
8.321425
 20
8.035725
 30
0.0
 11
7.733343
 21
8.035725
 31
0.0
  0
SOLID
  8
CDIM
 10
6.178575
 20
8.005962
 30
0.0
 11
6.178575
 21
8.065488
 31
0.0
 12
6.0
 22
8.035725
 32
0.0
 13
6.0
 23
8.035725
 33
0.0
  0
SOLID
  8
CDIM
 10
8.321425
 20
8.005962
 30
0.0
 11
8.321425
 21
8.065488
 31
0.0
 12
8.5
 22
8.035725
 32
0.0
 13
8.5
 23
8.035725
 33
0.0
  0
TEXT
  8
CDIM
 10
6.945232
 20
7.935723
 30
0.0
 40
0.200004
  1
2.50
  7
STR
  0
LINE
  8
CDIM
 10
2.660713
 20
7.0
 30
0.0
 11
2.071425
 21
7.0
 31
0.0
  0
LINE
  8
CDIM
 10
2.723213
 20
5.6875
 30
0.0
 11
2.071425
 21
5.6875
 31
0.0
  0
LINE
  8
CDIM
 10
2.25
 20
6.821425
 30
0.0
 11
2.25
 21
6.622327
 31
0.0
  0
LINE
  8
CDIM
 10
2.25
 20
5.866075
 30
0.0
 11
2.25
 21
6.065173
 31
0.0
  0
SOLID
  8
CDIM
 10
2.279763
 20
6.821425
 30
0.0
 11
2.220238
 21
6.821425
 31
0.0
 12
2.25
 22
7.0
 32
0.0
 13
2.25
 23
7.0
 33
0.0
  0
SOLID
  8
CDIM
 10
2.279763
 20
5.866075
 30
0.0
 11
2.220238
 21
5.866075
 31
0.0
 12
2.25
 22
5.6875
 32
0.0
 13
2.25
 23
5.6875
 33
0.0
  0
TEXT
  8
CDIM
 10
2.007138
 20
6.243748
 30
0.0
 40
0.200004
  1
1.31
  7
STR
  0
LINE
  8
CDIM
 10
11.839288
 20
7.0
 30
0.0
 11
12.428575
 21
7.0
 31
0.0
  0
LINE
  8
CDIM
 10
11.808038
 20
5.6875
 30
0.0
 11
12.428575
 21
5.6875
 31
0.0
  0
LINE
  8
CDIM
 10
12.25
 20
6.821425
 30
0.0
 11
12.25
 21
6.622327
 31
0.0
  0
LINE
  8
CDIM
 10
12.25
 20
5.866075
 30
0.0
 11
12.25
 21
6.065173
 31
0.0
  0
SOLID
  8
CDIM
 10
12.279763
 20
6.821425
 30
0.0
 11
12.220238
 21
6.821425
 31
0.0
 12
12.25
 22
7.0
 32
0.0
 13
12.25
 23
7.0
 33
0.0
  0
SOLID
  8
CDIM
 10
12.279763
 20
5.866075
 30
0.0
 11
12.220238
 21
5.866075
 31
0.0
 12
12.25
 22
5.6875
 32
0.0
 13
12.25
 23
5.6875
 33
0.0
  0
TEXT
  8
CDIM
 10
12.007138
 20
6.243748
 30
0.0
 40
0.200004
  1
1.31
  7
STR
  0
LINE
  8
CDIM
 10
6.0
 20
1.660713
 30
0.0
 11
6.0
 21
1.071425
 31
0.0
  0
LINE
  8
CDIM
 10
7.25
 20
1.598213
 30
0.0
 11
7.25
 21
1.071425
 31
0.0
  0
LINE
  8
CDIM
 10
7.428575
 20
1.25
 30
0.0
 11
7.60715
 21
1.25
 31
0.0
  0
LINE
  8
CDIM
 10
5.821425
 20
1.25
 30
0.0
 11
5.64285
 21
1.25
 31
0.0
  0
SOLID
  8
CDIM
 10
7.428575
 20
1.220238
 30
0.0
 11
7.428575
 21
1.279763
 31
0.0
 12
7.25
 22
1.25
 32
0.0
 13
7.25
 23
1.25
 33
0.0
  0
SOLID
  8
CDIM
 10
5.821425
 20
1.220238
 30
0.0
 11
5.821425
 21
1.279763
 31
0.0
 12
6.0
 22
1.25
 32
0.0
 13
6.0
 23
1.25
 33
0.0
  0
TEXT
  8
CDIM
 10
6.379475
 20
1.149998
 30
0.0
 40
0.200004
  1
1.25
  7
STR
  0
LINE
  8
CDIM
 10
6.0
 20
9.839287
 30
0.0
 11
6.0
 21
10.428575
 31
0.0
  0
LINE
  8
CDIM
 10
7.25
 20
9.776787
 30
0.0
 11
7.25
 21
10.428575
 31
0.0
  0
LINE
  8
CDIM
 10
7.428575
 20
10.25
 30
0.0
 11
7.60715
 21
10.25
 31
0.0
  0
LINE
  8
CDIM
 10
5.821425
 20
10.25
 30
0.0
 11
5.64285
 21
10.25
 31
0.0
  0
SOLID
  8
CDIM
 10
7.428575
 20
10.220238
 30
0.0
 11
7.428575
 21
10.279763
 31
0.0
 12
7.25
 22
10.25
 32
0.0
 13
7.25
 23
10.25
 33
0.0
  0
SOLID
  8
CDIM
 10
5.821425
 20
10.220238
 30
0.0
 11
5.821425
 21
10.279763
 31
0.0
 12
6.0
 22
10.25
 32
0.0
 13
6.0
 23
10.25
 33
0.0
  0
TEXT
  8
CDIM
 10
6.379475
 20
10.149998
 30
0.0
 40
0.200004
  1
1.25
  7
STR
  0
LINE
  8
CDIM
 10
5.910713
 20
9.75
 30
0.0
 11
5.321425
 21
9.75
 31
0.0
  0
LINE
  8
CDIM
 10
6.598213
 20
9.25
 30
0.0
 11
5.321425
 21
9.25
 31
0.0
  0
LINE
  8
CDIM
 10
5.5
 20
9.071425
 30
0.0
 11
5.5
 21
8.89285
 31
0.0
  0
LINE
  8
CDIM
 10
5.5
 20
9.928575
 30
0.0
 11
5.5
 21
10.10715
 31
0.0
  0
SOLID
  8
CDIM
 10
5.529763
 20
9.071425
 30
0.0
 11
5.470238
 21
9.071425
 31
0.0
 12
5.5
 22
9.25
 32
0.0
 13
5.5
 23
9.25
 33
0.0
  0
SOLID
  8
CDIM
 10
5.529763
 20
9.928575
 30
0.0
 11
5.470238
 21
9.928575
 31
0.0
 12
5.5
 22
9.75
 32
0.0
 13
5.5
 23
9.75
 33
0.0
  0
TEXT
  8
CDIM
 10
5.158314
 20
8.574098
 30
0.0
 40
0.200004
  1
0.50
  7
STR
  0
LINE
  8
CDIM
 10
11.75
 20
7.089288
 30
0.0
 11
11.75
 21
7.678575
 31
0.0
  0
LINE
  8
CDIM
 10
11.25
 20
6.308038
 30
0.0
 11
11.25
 21
7.678575
 31
0.0
  0
LINE
  8
CDIM
 10
11.071425
 20
7.5
 30
0.0
 11
10.89285
 21
7.5
 31
0.0
  0
LINE
  8
CDIM
 10
11.928575
 20
7.5
 30
0.0
 11
12.10715
 21
7.5
 31
0.0
  0
SOLID
  8
CDIM
 10
11.071425
 20
7.470238
 30
0.0
 11
11.071425
 21
7.529763
 31
0.0
 12
11.25
 22
7.5
 32
0.0
 13
11.25
 23
7.5
 33
0.0
  0
SOLID
  8
CDIM
 10
11.928575
 20
7.470238
 30
0.0
 11
11.928575
 21
7.529763
 31
0.0
 12
11.75
 22
7.5
 32
0.0
 13
11.75
 23
7.5
 33
0.0
  0
TEXT
  8
CDIM
 10
10.104739
 20
7.399998
 30
0.0
 40
0.200004
  1
0.50
  7
STR
  0
LINE
  8
CDIM
 10
5.910713
 20
1.75
 30
0.0
 11
5.321425
 21
1.75
 31
0.0
  0
LINE
  8
CDIM
 10
6.629463
 20
2.25
 30
0.0
 11
5.321425
 21
2.25
 31
0.0
  0
LINE
  8
CDIM
 10
5.5
 20
2.428575
 30
0.0
 11
5.5
 21
2.60715
 31
0.0
  0
LINE
  8
CDIM
 10
5.5
 20
1.571425
 30
0.0
 11
5.5
 21
1.39285
 31
0.0
  0
SOLID
  8
CDIM
 10
5.529763
 20
2.428575
 30
0.0
 11
5.470238
 21
2.428575
 31
0.0
 12
5.5
 22
2.25
 32
0.0
 13
5.5
 23
2.25
 33
0.0
  0
SOLID
  8
CDIM
 10
5.529763
 20
1.571425
 30
0.0
 11
5.470238
 21
1.571425
 31
0.0
 12
5.5
 22
1.75
 32
0.0
 13
5.5
 23
1.75
 33
0.0
  0
TEXT
  8
CDIM
 10
5.23215
 20
2.694648
 30
0.0
 40
0.200004
  1
0.50
  7
STR
  0
ENDBLK
  8
0
  0
BLOCK
  8
BORDER
  2
100CROSS
 70
    64
 10
5.625
 20
4.59375
 30
0.0
  0
INSERT
  8
0
  2
050CROSS
 10
5.625
 20
4.59375
 30
0.0
 43
0.0
  0
ENDBLK
  8
0
  0
BLOCK
  8
0
  2
050CROSS
 70
    64
 10
5.0
 20
5.0
 30
0.0
  0
LINE
  8
0
 10
5.0
 20
5.28125
 30
0.0
 11
5.0
 21
5.78125
 31
0.0
  0
LINE
  8
0
 10
5.0
 20
4.875
 30
0.0
 11
5.0
 21
5.125
 31
0.0
  0
LINE
  8
0
 10
5.0
 20
4.15625
 30
0.0
 11
5.0
 21
4.71875
 31
0.0
  0
LINE
  8
0
 10
5.25
 20
5.0
 30
0.0
 11
5.8125
 21
5.0
 31
0.0
  0
LINE
  8
0
 10
4.90625
 20
5.0
 30
0.0
 11
5.09375
 21
5.0
 31
0.0
  0
LINE
  8
0
 10
4.1875
 20
5.0
 30
0.0
 11
4.75
 21
5.0
 31
0.0
  0
ENDBLK
  8
0
  0
BLOCK
  8
0
  2
025NPTFT
 70
    64
 10
0.0
 20
0.0
 30
0.0
  3
025NPTFT
  0
INSERT
  8
DAMAN
  2
250NPTFT
 10
0.0
 20
0.0
 30
0.0
  0
ENDBLK
  8
0
  0
BLOCK
  8
0
  2
250NPTFT
 70
    64
 10
0.0
 20
0.0
 30
0.0
  3
250NPTFT
  0
CIRCLE
  8
DAMAN
 10
0.0
 20
0.0
 30
0.0
 40
0.273
  0
CIRCLE
  8
DAMAN
 10
0.0
 20
0.0
 30
0.0
 40
0.211
  0
INSERT
  8
DAMAN
  2
100CROSS
 10
0.0
 20
0.0
 30
0.0
 41
0.422
 42
0.422
 43
0.0
  0
CIRCLE
  8
DAMAN
 10
0.0
 20
0.0
 30
0.0
 40
0.242251
  0
POINT
  8
CHIDDEN
 10
-0.087928
 20
0.191806
 30
0.0
  0
POINT
  8
CHIDDEN
 10
-0.137717
 20
-0.15986
 30
0.0
  0
POINT
  8
CHIDDEN
 10
0.202707
 20
-0.058572
 30
0.0
  0
ENDBLK
  8
0
  0
BLOCK
  8
0
  2
038NPTFT
 70
    64
 10
0.0
 20
0.0
 30
0.0
  3
038NPTFT
  0
INSERT
  8
DAMAN
  2
375NPTFT
 10
0.0
 20
0.0
 30
0.0
  0
ENDBLK
  8
0
  0
BLOCK
  8
0
  2
375NPTFT
 70
    64
 10
0.0
 20
0.0
 30
0.0
  3
375NPTFT
  0
INSERT
  8
DAMAN
  2
100CROSS
 10
0.0
 20
0.0
 30
0.0
 41
0.68
 42
0.68
 43
0.0
  0
CIRCLE
  8
DAMAN
 10
0.0
 20
0.0
 30
0.0
 40
0.3125
  0
CIRCLE
  8
DAMAN
 10
0.0
 20
0.0
 30
0.0
 40
0.281
  0
CIRCLE
  8
DAMAN
 10
0.0
 20
0.0
 30
0.0
 40
0.344
  0
ENDBLK
  8
0
  0
ENDSEC
  0
SECTION
  2
ENTITIES
  0
POLYLINE
  8
DAMAN
 66
     1
 10
0.0
 20
0.0
 30
0.0
 70
     1
  0
VERTEX
  8
DAMAN
 10
3.3125
 20
4.96875
 30
0.0
  0
VERTEX
  8
DAMAN
 10
3.3125
 20
7.46875
 30
0.0
  0
VERTEX
  8
DAMAN
 10
4.3125
 20
7.46875
 30
0.0
  0
VERTEX
  8
DAMAN
 10
4.3125
 20
4.96875
 30
0.0
  0
SEQEND
  8
DAMAN
  0
POLYLINE
  8
DAMAN
 66
     1
 10
0.0
 20
0.0
 30
0.0
 70
     1
  0
VERTEX
  8
DAMAN
 10
11.3125
 20
4.96875
 30
0.0
  0
VERTEX
  8
DAMAN
 10
11.3125
 20
7.46875
 30
0.0
  0
VERTEX
  8
DAMAN
 10
12.3125
 20
7.46875
 30
0.0
  0
VERTEX
  8
DAMAN
 10
12.3125
 20
4.96875
 30
0.0
  0
SEQEND
  8
DAMAN
  0
POLYLINE
  8
DAMAN
 66
     1
 10
0.0
 20
0.0
 30
0.0
 70
     1
  0
VERTEX
  8
DAMAN
 10
6.5625
 20
4.96875
 30
0.0
  0
VERTEX
  8
DAMAN
 10
6.5625
 20
7.46875
 30
0.0
  0
VERTEX
  8
DAMAN
 10
9.0625
 20
7.46875
 30
0.0
  0
VERTEX
  8
DAMAN
 10
9.0625
 20
4.96875
 30
0.0
  0
SEQEND
  8
DAMAN
  0
POLYLINE
  8
DAMAN
 66
     1
 10
0.0
 20
0.0
 30
0.0
 70
     1
  0
VERTEX
  8
DAMAN
 10
6.5625
 20
2.21875
 30
0.0
  0
VERTEX
  8
DAMAN
 10
6.5625
 20
3.21875
 30
0.0
  0
VERTEX
  8
DAMAN
 10
9.0625
 20
3.21875
 30
0.0
  0
VERTEX
  8
DAMAN
 10
9.0625
 20
2.21875
 30
0.0
  0
SEQEND
  8
DAMAN
  0
POLYLINE
  8
DAMAN
 66
     1
 10
0.0
 20
0.0
 30
0.0
 70
     1
  0
VERTEX
  8
DAMAN
 10
6.5625
 20
9.21875
 30
0.0
  0
VERTEX
  8
DAMAN
 10
6.5625
 20
10.21875
 30
0.0
  0
VERTEX
  8
DAMAN
 10
9.0625
 20
10.21875
 30
0.0
  0
VERTEX
  8
DAMAN
 10
9.0625
 20
9.21875
 30
0.0
  0
SEQEND
  8
DAMAN
  0
CIRCLE
  8
DAMAN
 10
7.204375
 20
5.70025
 30
0.0
 40
0.0855
  0
INSERT
  8
DAMAN
  2
100CROSS
 10
7.204375
 20
5.70025
 30
0.0
 41
0.171
 42
0.171
 43
0.0
  0
INSERT
  8
DAMAN
  2
100CROSS
 10
7.844375
 20
5.81275
 30
0.0
 41
0.25
 42
0.25
 43
0.0
  0
CIRCLE
  8
DAMAN
 10
7.844375
 20
5.81275
 30
0.0
 40
0.125
  0
CIRCLE
  8
DAMAN
 10
7.437875
 20
6.15625
 30
0.0
 40
0.125
  0
INSERT
  8
DAMAN
  2
100CROSS
 10
7.437875
 20
6.15625
 30
0.0
 41
0.25
 42
0.25
 43
0.0
  0
INSERT
  8
DAMAN
  2
100CROSS
 10
8.250375
 20
6.15625
 30
0.0
 41
0.25
 42
0.25
 43
0.0
  0
CIRCLE
  8
DAMAN
 10
8.250375
 20
6.15625
 30
0.0
 40
0.125
  0
CIRCLE
  8
DAMAN
 10
7.844375
 20
6.50025
 30
0.0
 40
0.125
  0
INSERT
  8
DAMAN
  2
100CROSS
 10
7.844375
 20
6.50025
 30
0.0
 41
0.25
 42
0.25
 43
0.0
  0
CIRCLE
  8
DAMAN
 10
7.204375
 20
5.4065
 30
0.0
 40
0.078
  0
CIRCLE
  8
DAMAN
 10
8.484375
 20
5.4065
 30
0.0
 40
0.078
  0
CIRCLE
  8
DAMAN
 10
8.454375
 20
7.00025
 30
0.0
 40
0.078
  0
CIRCLE
  8
DAMAN
 10
7.234375
 20
7.00025
 30
0.0
 40
0.078
  0
INSERT
  8
DAMAN
  2
100CROSS
 10
7.204375
 20
5.40625
 30
0.0
 41
0.188
 42
0.188
 43
0.0
  0
INSERT
  8
DAMAN
  2
100CROSS
 10
8.484375
 20
5.40625
 30
0.0
 41
0.188
 42
0.188
 43
0.0
  0
INSERT
  8
DAMAN
  2
100CROSS
 10
8.454375
 20
7.00025
 30
0.0
 41
0.188
 42
0.188
 43
0.0
  0
INSERT
  8
DAMAN
  2
100CROSS
 10
7.234375
 20
7.00025
 30
0.0
 41
0.188
 42
0.188
 43
0.0
  0
CIRCLE
  8
DAMAN
 10
7.204375
 20
5.40625
 30
0.0
 40
0.095
  0
CIRCLE
  8
DAMAN
 10
8.484375
 20
5.40625
 30
0.0
 40
0.095
  0
CIRCLE
  8
DAMAN
 10
7.234375
 20
7.00025
 30
0.0
 40
0.095
  0
CIRCLE
  8
DAMAN
 10
8.454375
 20
7.00025
 30
0.0
 40
0.095
  0
INSERT
  8
DAMAN
  2
100CROSS
 10
8.8125
 20
7.21875
 30
0.0
 41
0.40625
 42
0.40625
 43
0.40625
  0
INSERT
  8
DAMAN
  2
100CROSS
 10
6.8125
 20
5.21875
 30
0.0
 41
0.40625
 42
0.40625
 43
0.40625
  0
CIRCLE
  8
DAMAN
 10
6.8125
 20
5.21875
 30
0.0
 40
0.203125
  0
CIRCLE
  8
DAMAN
 10
6.8125
 20
5.21875
 30
0.0
 40
0.140625
  0
CIRCLE
  8
DAMAN
 10
8.8125
 20
7.21875
 30
0.0
 40
0.140625
  0
CIRCLE
  8
DAMAN
 10
8.8125
 20
7.21875
 30
0.0
 40
0.203125
  0
TEXT
  8
DAMAN
 10
8.375
 20
2.84375
 30
0.0
 40
0.25
  1
B
  7
STR
  0
TEXT
  8
DAMAN
 10
11.71875
 20
6.75
 30
0.0
 40
0.25
  1
T
 50
90.0
  7
STR
  0
TEXT
  8
DAMAN
 10
7.25
 20
9.625
 30
0.0
 40
0.25
  1
A
 50
180.0
  7
STR
  0
TEXT
  8
DAMAN
 10
3.90625
 20
5.59375
 30
0.0
 40
0.25
  1
P
 50
270.0
  7
STR
  0
TEXT
  8
DAMAN
 10
6.71875
 20
3.0625
 30
0.0
 40
0.125
  1
DAMAN
  0
TEXT
  8
DAMAN
 10
6.75
 20
2.8125
 30
0.0
 40
0.125
  1
****
  0
INSERT
  8
DAMAN
  2
038NPTFT
 10
7.8125
 20
2.71875
 30
0.0
  0
INSERT
  8
DAMAN
  2
038NPTFT
 10
3.8125
 20
6.15625
 30
0.0
  0
INSERT
  8
DAMAN
  2
038NPTFT
 10
7.8125
 20
9.71875
 30
0.0
  0
INSERT
  8
DAMAN
  2
038NPTFT
 10
11.8125
 20
6.15625
 30
0.0
  0
ENDSEC
  0
EOF
