  0
SECTION
  2
HEADER
  9
$ACADVER
  1
AC1014
  9
$ACADMAINTVER
 70
     9
  9
$DWGCODEPAGE
  3
ANSI_1252
  9
$INSBASE
 10
0.0
 20
0.0
 30
0.0
  9
$EXTMIN
 10
4.59375
 20
4.5625
 30
0.0
  9
$EXTMAX
 10
19.6875
 20
15.125
 30
0.0
  9
$LIMMIN
 10
0.0
 20
0.0
  9
$LIMMAX
 10
12.0
 20
9.0
  9
$ORTHOMODE
 70
     1
  9
$REGENMODE
 70
     1
  9
$FILLMODE
 70
     1
  9
$QTEXTMODE
 70
     0
  9
$MIRRTEXT
 70
     1
  9
$DRAGMODE
 70
     2
  9
$LTSCALE
 40
1.0
  9
$OSMODE
 70
    37
  9
$ATTMODE
 70
     1
  9
$TEXTSIZE
 40
0.188
  9
$TRACEWID
 40
0.05
  9
$TEXTSTYLE
  7
STANDARD
  9
$CLAYER
  8
DAMAN
  9
$CELTYPE
  6
BYLAYER
  9
$CECOLOR
 62
   256
  9
$CELTSCALE
 40
1.0
  9
$DELOBJ
 70
     1
  9
$DISPSILH
 70
     0
  9
$DIMSCALE
 40
1.0
  9
$DIMASZ
 40
0.18
  9
$DIMEXO
 40
0.0625
  9
$DIMDLI
 40
0.38
  9
$DIMRND
 40
0.0
  9
$DIMDLE
 40
0.0
  9
$DIMEXE
 40
0.18
  9
$DIMTP
 40
0.0
  9
$DIMTM
 40
0.0
  9
$DIMTXT
 40
0.18
  9
$DIMCEN
 40
0.09
  9
$DIMTSZ
 40
0.0
  9
$DIMTOL
 70
     0
  9
$DIMLIM
 70
     0
  9
$DIMTIH
 70
     1
  9
$DIMTOH
 70
     1
  9
$DIMSE1
 70
     0
  9
$DIMSE2
 70
     0
  9
$DIMTAD
 70
     0
  9
$DIMZIN
 70
     0
  9
$DIMBLK
  1

  9
$DIMASO
 70
     1
  9
$DIMSHO
 70
     1
  9
$DIMPOST
  1

  9
$DIMAPOST
  1

  9
$DIMALT
 70
     0
  9
$DIMALTD
 70
     2
  9
$DIMALTF
 40
25.4
  9
$DIMLFAC
 40
1.0
  9
$DIMTOFL
 70
     0
  9
$DIMTVP
 40
0.0
  9
$DIMTIX
 70
     0
  9
$DIMSOXD
 70
     0
  9
$DIMSAH
 70
     0
  9
$DIMBLK1
  1

  9
$DIMBLK2
  1

  9
$DIMSTYLE
  2
STANDARD
  9
$DIMCLRD
 70
     0
  9
$DIMCLRE
 70
     0
  9
$DIMCLRT
 70
     0
  9
$DIMTFAC
 40
1.0
  9
$DIMGAP
 40
0.09
  9
$DIMJUST
 70
     0
  9
$DIMSD1
 70
     0
  9
$DIMSD2
 70
     0
  9
$DIMTOLJ
 70
     1
  9
$DIMTZIN
 70
     0
  9
$DIMALTZ
 70
     0
  9
$DIMALTTZ
 70
     0
  9
$DIMFIT
 70
     3
  9
$DIMUPT
 70
     0
  9
$DIMUNIT
 70
     2
  9
$DIMDEC
 70
     4
  9
$DIMTDEC
 70
     4
  9
$DIMALTU
 70
     2
  9
$DIMALTTD
 70
     2
  9
$DIMTXSTY
  7
STANDARD
  9
$DIMAUNIT
 70
     0
  9
$LUNITS
 70
     2
  9
$LUPREC
 70
     4
  9
$SKETCHINC
 40
0.1
  9
$FILLETRAD
 40
0.0
  9
$AUNITS
 70
     0
  9
$AUPREC
 70
     0
  9
$MENU
  1
tom
  9
$ELEVATION
 40
0.0
  9
$PELEVATION
 40
0.0
  9
$THICKNESS
 40
0.0
  9
$LIMCHECK
 70
     0
  9
$BLIPMODE
 70
     0
  9
$CHAMFERA
 40
0.0
  9
$CHAMFERB
 40
0.0
  9
$CHAMFERC
 40
0.0
  9
$CHAMFERD
 40
0.0
  9
$SKPOLY
 70
     0
  9
$TDCREATE
 40
2449739.573333726
  9
$TDUPDATE
 40
2453425.410495497
  9
$TDINDWG
 40
0.0684832523
  9
$TDUSRTIMER
 40
0.0684818056
  9
$USRTIMER
 70
     1
  9
$ANGBASE
 50
0.0
  9
$ANGDIR
 70
     0
  9
$PDMODE
 70
     0
  9
$PDSIZE
 40
0.0
  9
$PLINEWID
 40
0.0
  9
$COORDS
 70
     1
  9
$SPLFRAME
 70
     0
  9
$SPLINETYPE
 70
     6
  9
$SPLINESEGS
 70
     8
  9
$ATTDIA
 70
     0
  9
$ATTREQ
 70
     1
  9
$HANDLING
 70
-16383
  9
$HANDSEED
  5
2AE
  9
$SURFTAB1
 70
     6
  9
$SURFTAB2
 70
     6
  9
$SURFTYPE
 70
     6
  9
$SURFU
 70
     6
  9
$SURFV
 70
     6
  9
$UCSNAME
  2

  9
$UCSORG
 10
0.0
 20
0.0
 30
0.0
  9
$UCSXDIR
 10
1.0
 20
0.0
 30
0.0
  9
$UCSYDIR
 10
0.0
 20
1.0
 30
0.0
  9
$PUCSNAME
  2

  9
$PUCSORG
 10
0.0
 20
0.0
 30
0.0
  9
$PUCSXDIR
 10
1.0
 20
0.0
 30
0.0
  9
$PUCSYDIR
 10
0.0
 20
1.0
 30
0.0
  9
$USERI1
 70
     0
  9
$USERI2
 70
     0
  9
$USERI3
 70
     0
  9
$USERI4
 70
     0
  9
$USERI5
 70
     0
  9
$USERR1
 40
0.0
  9
$USERR2
 40
0.0
  9
$USERR3
 40
0.0
  9
$USERR4
 40
0.0
  9
$USERR5
 40
0.0
  9
$WORLDVIEW
 70
     1
  9
$SHADEDGE
 70
     3
  9
$SHADEDIF
 70
    70
  9
$TILEMODE
 70
     1
  9
$MAXACTVP
 70
    16
  9
$PINSBASE
 10
0.0
 20
0.0
 30
0.0
  9
$PLIMCHECK
 70
     0
  9
$PEXTMIN
 10
1.000000000000000E+20
 20
1.000000000000000E+20
 30
1.000000000000000E+20
  9
$PEXTMAX
 10
-1.000000000000000E+20
 20
-1.000000000000000E+20
 30
-1.000000000000000E+20
  9
$PLIMMIN
 10
0.0
 20
0.0
  9
$PLIMMAX
 10
12.0
 20
9.0
  9
$UNITMODE
 70
     0
  9
$VISRETAIN
 70
     0
  9
$PLINEGEN
 70
     0
  9
$PSLTSCALE
 70
     1
  9
$TREEDEPTH
 70
  3020
  9
$PICKSTYLE
 70
     1
  9
$CMLSTYLE
  2
STANDARD
  9
$CMLJUST
 70
     0
  9
$CMLSCALE
 40
1.0
  9
$PROXYGRAPHICS
 70
     1
  9
$MEASUREMENT
 70
     0
  0
ENDSEC
  0
SECTION
  2
CLASSES
  0
CLASS
  1
ACDBDICTIONARYWDFLT
  2
AcDbDictionaryWithDefault
  3
AutoCAD 2000
 90
        0
280
     0
281
     0
  0
CLASS
  1
ACDBPLACEHOLDER
  2
AcDbPlaceHolder
  3
AutoCAD 2000
 90
        0
280
     0
281
     0
  0
CLASS
  1
LAYOUT
  2
AcDbLayout
  3
AutoCAD 2000
 90
        0
280
     0
281
     0
  0
CLASS
  1
LONG_TRANSACTION
  2
AcDbLongTransaction
  3
AutoCAD 2000
 90
        0
280
     0
281
     0
  0
CLASS
  1
LWPOLYLINE
  2
AcDbPolyline
  3
AutoCAD 2000
 90
        0
280
     0
281
     1
  0
CLASS
  1
HATCH
  2
AcDbHatch
  3
AutoCAD 2000
 90
        0
280
     0
281
     1
  0
CLASS
  1
XRECORD
  2
AcDbXrecord
  3
AutoCAD 2000
 90
        0
280
     0
281
     0
  0
CLASS
  1
LONG_TRANSACTION
  2
AcDbLongTransaction
  3
AutoCAD 2000
 90
        0
280
     0
281
     0
  0
CLASS
  1
LWPOLYLINE
  2
AcDbPolyline
  3
AutoCAD 2000
 90
        0
280
     0
281
     1
  0
CLASS
  1
HATCH
  2
AcDbHatch
  3
AutoCAD 2000
 90
        0
280
     0
281
     1
  0
CLASS
  1
XRECORD
  2
AcDbXrecord
  3
AutoCAD 2000
 90
        0
280
     0
281
     0
  0
CLASS
  1
LONG_TRANSACTION
  2
AcDbLongTransaction
  3
AutoCAD 2000
 90
        0
280
     0
281
     0
  0
CLASS
  1
LWPOLYLINE
  2
AcDbPolyline
  3
AutoCAD 2000
 90
        0
280
     0
281
     1
  0
CLASS
  1
HATCH
  2
AcDbHatch
  3
AutoCAD 2000
 90
        0
280
     0
281
     1
  0
CLASS
  1
XRECORD
  2
AcDbXrecord
  3
AutoCAD 2000
 90
        0
280
     0
281
     0
  0
ENDSEC
  0
SECTION
  2
TABLES
  0
TABLE
  2
VPORT
  5
8
330
0
100
AcDbSymbolTable
 70
     2
  0
VPORT
  5
28B
330
8
100
AcDbSymbolTableRecord
100
AcDbViewportTableRecord
  2
*ACTIVE
 70
     0
 10
0.0
 20
0.0
 11
1.0
 21
1.0
 12
12.17789598833206
 22
9.964303073546238
 13
0.0
 23
0.0
 14
0.03125
 24
0.03125
 15
0.0
 25
0.0
 16
0.0
 26
0.0
 36
1.0
 17
0.0
 27
0.0
 37
0.0
 40
11.73103160819376
 41
1.647569444444444
 42
50.0
 43
0.0
 44
0.0
 50
0.0
 51
0.0
 71
     0
 72
   100
 73
     1
 74
     1
 75
     1
 76
     0
 77
     0
 78
     0
  0
ENDTAB
  0
TABLE
  2
LTYPE
  5
5
330
0
100
AcDbSymbolTable
 70
     4
  0
LTYPE
  5
13
330
5
100
AcDbSymbolTableRecord
100
AcDbLinetypeTableRecord
  2
BYBLOCK
 70
     0
  3

 72
    65
 73
     0
 40
0.0
  0
LTYPE
  5
14
330
5
100
AcDbSymbolTableRecord
100
AcDbLinetypeTableRecord
  2
BYLAYER
 70
     0
  3

 72
    65
 73
     0
 40
0.0
  0
LTYPE
  5
15
330
5
100
AcDbSymbolTableRecord
100
AcDbLinetypeTableRecord
  2
CONTINUOUS
 70
     0
  3
Solid line
 72
    65
 73
     0
 40
0.0
  0
LTYPE
  5
24
330
5
100
AcDbSymbolTableRecord
100
AcDbLinetypeTableRecord
  2
HIDDEN
 70
     0
  3
_ _ _ _ _ _ _ _ _ _ _ _ _ _ _ _ _ _ _ _ _ _ _
 72
    65
 73
     2
 40
0.375
 49
0.25
 74
     0
 49
-0.125
 74
     0
  0
LTYPE
  5
25
330
5
100
AcDbSymbolTableRecord
100
AcDbLinetypeTableRecord
  2
CENTER
 70
     0
  3
____ _ ____ _ ____ _ ____ _ ____ _ ____ _ ____
 72
    65
 73
     4
 40
2.0
 49
1.25
 74
     0
 49
-0.25
 74
     0
 49
0.25
 74
     0
 49
-0.25
 74
     0
  0
LTYPE
  5
26
330
5
100
AcDbSymbolTableRecord
100
AcDbLinetypeTableRecord
  2
PHANTOM
 70
     0
  3
_____ _ _ _____ _ _ _____ _ _ _____ _ _ ____
 72
    65
 73
     6
 40
2.5
 49
1.25
 74
     0
 49
-0.25
 74
     0
 49
0.25
 74
     0
 49
-0.25
 74
     0
 49
0.25
 74
     0
 49
-0.25
 74
     0
  0
ENDTAB
  0
TABLE
  2
LAYER
  5
2
330
0
100
AcDbSymbolTable
 70
    10
  0
LAYER
  5
10
330
2
100
AcDbSymbolTableRecord
100
AcDbLayerTableRecord
  2
0
 70
     0
 62
     7
  6
CONTINUOUS
  0
LAYER
  5
22
330
2
100
AcDbSymbolTableRecord
100
AcDbLayerTableRecord
  2
DAMAN
 70
     0
 62
     5
  6
CONTINUOUS
  0
LAYER
  5
27
330
2
100
AcDbSymbolTableRecord
100
AcDbLayerTableRecord
  2
BORDER
 70
     0
 62
     7
  6
CONTINUOUS
  0
LAYER
  5
28
330
2
100
AcDbSymbolTableRecord
100
AcDbLayerTableRecord
  2
SOLID
 70
     0
 62
     4
  6
CONTINUOUS
  0
LAYER
  5
29
330
2
100
AcDbSymbolTableRecord
100
AcDbLayerTableRecord
  2
CSOLID
 70
     0
 62
     3
  6
CONTINUOUS
  0
LAYER
  5
2A
330
2
100
AcDbSymbolTableRecord
100
AcDbLayerTableRecord
  2
CDIM
 70
     0
 62
     2
  6
CONTINUOUS
  0
LAYER
  5
2B
330
2
100
AcDbSymbolTableRecord
100
AcDbLayerTableRecord
  2
DIM
 70
     0
 62
     5
  6
CONTINUOUS
  0
LAYER
  5
2C
330
2
100
AcDbSymbolTableRecord
100
AcDbLayerTableRecord
  2
CHIDDEN
 70
     0
 62
     3
  6
HIDDEN
  0
LAYER
  5
2D
330
2
100
AcDbSymbolTableRecord
100
AcDbLayerTableRecord
  2
CCENTER
 70
     0
 62
     4
  6
CENTER
  0
LAYER
  5
2E
330
2
100
AcDbSymbolTableRecord
100
AcDbLayerTableRecord
  2
PHANTOM
 70
     0
 62
     1
  6
PHANTOM
  0
ENDTAB
  0
TABLE
  2
STYLE
  5
3
330
0
100
AcDbSymbolTable
 70
     2
  0
STYLE
  5
11
330
3
100
AcDbSymbolTableRecord
100
AcDbTextStyleTableRecord
  2
STANDARD
 70
     0
 40
0.0
 41
1.0
 50
0.0
 71
     0
 42
0.188
  3
txt
  4

  0
STYLE
  5
2F
330
3
100
AcDbSymbolTableRecord
100
AcDbTextStyleTableRecord
  2
STR
 70
     0
 40
0.0
 41
1.0
 50
0.0
 71
     0
 42
0.25
  3
SIMPLEX
  4

  0
ENDTAB
  0
TABLE
  2
VIEW
  5
6
330
0
100
AcDbSymbolTable
 70
     0
  0
ENDTAB
  0
TABLE
  2
UCS
  5
7
330
0
100
AcDbSymbolTable
 70
     0
  0
ENDTAB
  0
TABLE
  2
APPID
  5
9
330
0
100
AcDbSymbolTable
 70
     1
  0
APPID
  5
12
330
9
100
AcDbSymbolTableRecord
100
AcDbRegAppTableRecord
  2
ACAD
 70
     0
  0
ENDTAB
  0
TABLE
  2
DIMSTYLE
  5
A
330
0
100
AcDbSymbolTable
 70
     1
  0
DIMSTYLE
105
183
330
A
100
AcDbSymbolTableRecord
100
AcDbDimStyleTableRecord
  2
STANDARD
 70
     0
  3

  4

  5

  6

  7

 40
1.0
 41
0.18
 42
0.0625
 43
0.38
 44
0.18
 45
0.0
 46
0.0
 47
0.0
 48
0.0
140
0.18
141
0.09
142
0.0
143
25.4
144
1.0
145
0.0
146
1.0
147
0.09
 71
     0
 72
     0
 73
     1
 74
     1
 75
     0
 76
     0
 77
     0
 78
     0
170
     0
171
     2
172
     0
173
     0
174
     0
175
     0
176
     0
177
     0
178
     0
270
     2
271
     4
272
     4
273
     2
274
     2
340
11
275
     0
280
     0
281
     0
282
     0
283
     1
284
     0
285
     0
286
     0
287
     3
288
     0
  0
ENDTAB
  0
TABLE
  2
BLOCK_RECORD
  5
1
330
0
100
AcDbSymbolTable
 70
    13
  0
BLOCK_RECORD
  5
1E
102
{ACAD_XDICTIONARY
360
1B7
102
}
330
1
100
AcDbSymbolTableRecord
100
AcDbBlockTableRecord
  2
*MODEL_SPACE
  0
BLOCK_RECORD
  5
1A
102
{ACAD_XDICTIONARY
360
1B5
102
}
330
1
100
AcDbSymbolTableRecord
100
AcDbBlockTableRecord
  2
*PAPER_SPACE
  0
BLOCK_RECORD
  5
32
330
1
100
AcDbSymbolTableRecord
100
AcDbBlockTableRecord
  2
D03SPRV
  0
BLOCK_RECORD
  5
34
330
1
100
AcDbSymbolTableRecord
100
AcDbBlockTableRecord
  2
056SAET
  0
BLOCK_RECORD
  5
3A
330
1
100
AcDbSymbolTableRecord
100
AcDbBlockTableRecord
  2
100CROSS
  0
BLOCK_RECORD
  5
45
330
1
100
AcDbSymbolTableRecord
100
AcDbBlockTableRecord
  2
BOX
  0
BLOCK_RECORD
  5
11A
330
1
100
AcDbSymbolTableRecord
100
AcDbBlockTableRecord
  2
050CROSS
  0
BLOCK_RECORD
  5
12B
330
1
100
AcDbSymbolTableRecord
100
AcDbBlockTableRecord
  2
038NPTFT
  0
BLOCK_RECORD
  5
12D
330
1
100
AcDbSymbolTableRecord
100
AcDbBlockTableRecord
  2
375NPTFT
  0
BLOCK_RECORD
  5
136
330
1
100
AcDbSymbolTableRecord
100
AcDbBlockTableRecord
  2
C102T
  0
BLOCK_RECORD
  5
13F
330
1
100
AcDbSymbolTableRecord
100
AcDbBlockTableRecord
  2
06SAET
  0
BLOCK_RECORD
  5
146
330
1
100
AcDbSymbolTableRecord
100
AcDbBlockTableRecord
  2
025NPTFT
  0
BLOCK_RECORD
  5
1BF
330
1
100
AcDbSymbolTableRecord
100
AcDbBlockTableRecord
  2
M14T
  0
BLOCK_RECORD
  5
27B
330
1
100
AcDbSymbolTableRecord
100
AcDbBlockTableRecord
  2
T10AT
  0
ENDTAB
  0
ENDSEC
  0
SECTION
  2
BLOCKS
  0
BLOCK
  5
1F
330
1E
100
AcDbEntity
  8
0
100
AcDbBlockBegin
  2
*MODEL_SPACE
 70
     0
 10
0.0
 20
0.0
 30
0.0
  3
*MODEL_SPACE
  1

  0
ENDBLK
  5
20
330
1E
100
AcDbEntity
  8
0
100
AcDbBlockEnd
  0
BLOCK
  5
1B
330
1A
100
AcDbEntity
 67
     1
  8
0
100
AcDbBlockBegin
  2
*PAPER_SPACE
 70
     0
 10
0.0
 20
0.0
 30
0.0
  3
*PAPER_SPACE
  1

  0
ENDBLK
  5
1C
330
1A
100
AcDbEntity
 67
     1
  8
0
100
AcDbBlockEnd
  0
BLOCK
  5
33
330
32
100
AcDbEntity
  8
0
100
AcDbBlockBegin
  2
D03SPRV
 70
     0
 10
0.0
 20
0.0
 30
0.0
  3
D03SPRV
  1

  0
INSERT
  5
35
330
32
100
AcDbEntity
  8
SOLID
100
AcDbBlockReference
  2
056SAET
 10
3.90625
 20
9.3125
 30
0.0
  0
INSERT
  5
36
330
32
100
AcDbEntity
  8
DIM
100
AcDbBlockReference
  2
056SAET
 10
13.875
 20
7.625
 30
0.0
  0
INSERT
  5
37
330
32
100
AcDbEntity
  8
DIM
100
AcDbBlockReference
  2
056SAET
 10
13.125
 20
8.46875
 30
0.0
  0
INSERT
  5
38
330
32
100
AcDbEntity
  8
DIM
100
AcDbBlockReference
  2
056SAET
 10
18.3125
 20
9.3125
 30
0.0
  0
INSERT
  5
39
330
32
100
AcDbEntity
  8
DIM
100
AcDbBlockReference
  2
056SAET
 10
19.03125
 20
8.0
 30
0.0
  0
INSERT
  5
3B
330
32
100
AcDbEntity
  8
CCENTER
100
AcDbBlockReference
  2
100CROSS
 10
19.6875
 20
7.3125
 30
0.0
 41
0.5
 42
0.5
  0
CIRCLE
  5
3C
330
32
100
AcDbEntity
  8
CSOLID
100
AcDbCircle
 10
19.6875
 20
7.3125
 30
0.0
 40
0.172
  0
CIRCLE
  5
3D
330
32
100
AcDbEntity
  8
CSOLID
100
AcDbCircle
 10
17.3125
 20
9.6875
 30
0.0
 40
0.172
  0
INSERT
  5
3E
330
32
100
AcDbEntity
  8
CCENTER
100
AcDbBlockReference
  2
100CROSS
 10
17.3125
 20
9.6875
 30
0.0
 41
0.5
 42
0.5
  0
CIRCLE
  5
3F
330
32
100
AcDbEntity
  8
CSOLID
100
AcDbCircle
 10
9.6875
 20
9.6875
 30
0.0
 40
0.172
  0
INSERT
  5
40
330
32
100
AcDbEntity
  8
CCENTER
100
AcDbBlockReference
  2
100CROSS
 10
9.6875
 20
9.6875
 30
0.0
 41
0.5
 42
0.5
  0
CIRCLE
  5
41
330
32
100
AcDbEntity
  8
CSOLID
100
AcDbCircle
 10
9.6875
 20
9.6875
 30
0.0
 40
0.25
  0
CIRCLE
  5
42
330
32
100
AcDbEntity
  8
CSOLID
100
AcDbCircle
 10
7.3125
 20
7.3125
 30
0.0
 40
0.25
  0
CIRCLE
  5
43
330
32
100
AcDbEntity
  8
CSOLID
100
AcDbCircle
 10
7.3125
 20
7.3125
 30
0.0
 40
0.172
  0
INSERT
  5
44
330
32
100
AcDbEntity
  8
CCENTER
100
AcDbBlockReference
  2
100CROSS
 10
7.3125
 20
7.3125
 30
0.0
 41
0.5
 42
0.5
  0
INSERT
  5
46
330
32
100
AcDbEntity
  8
BORDER
100
AcDbBlockReference
  2
BOX
 10
12.5
 20
7.0
 30
0.0
 41
2.0
 42
3.0
  0
INSERT
  5
47
330
32
100
AcDbEntity
  8
BORDER
100
AcDbBlockReference
  2
BOX
 10
17.0
 20
7.0
 30
0.0
 41
3.0
 42
3.0
  0
INSERT
  5
48
330
32
100
AcDbEntity
  8
BORDER
100
AcDbBlockReference
  2
BOX
 10
7.0
 20
12.5
 30
0.0
 41
3.0
 42
2.0
  0
INSERT
  5
49
330
32
100
AcDbEntity
  8
BORDER
100
AcDbBlockReference
  2
BOX
 10
7.0
 20
7.0
 30
0.0
 41
3.0
 42
3.0
  0
INSERT
  5
4A
330
32
100
AcDbEntity
  8
BORDER
100
AcDbBlockReference
  2
BOX
 10
2.5
 20
7.0
 30
0.0
 41
2.0
 42
3.0
  0
INSERT
  5
4B
330
32
100
AcDbEntity
  8
CCENTER
100
AcDbBlockReference
  2
100CROSS
 10
3.90625
 20
8.0
 30
0.0
  0
CIRCLE
  5
4C
330
32
100
AcDbEntity
  8
CHIDDEN
100
AcDbCircle
 10
3.90625
 20
8.0
 30
0.0
 40
0.28125
  0
CIRCLE
  5
4D
330
32
100
AcDbEntity
  8
CSOLID
100
AcDbCircle
 10
3.90625
 20
8.0
 30
0.0
 40
0.5
  0
CIRCLE
  5
4E
330
32
100
AcDbEntity
  8
CSOLID
100
AcDbCircle
 10
3.90625
 20
8.0
 30
0.0
 40
0.25
  0
CIRCLE
  5
4F
330
32
100
AcDbEntity
  8
CSOLID
100
AcDbCircle
 10
7.735624999999997
 20
7.54375
 30
0.0
 40
0.0855
  0
INSERT
  5
50
330
32
100
AcDbEntity
  8
CCENTER
100
AcDbBlockReference
  2
100CROSS
 10
7.735624999999997
 20
7.54375
 30
0.0
 41
0.171
 42
0.171
  0
INSERT
  5
51
330
32
100
AcDbEntity
  8
CCENTER
100
AcDbBlockReference
  2
100CROSS
 10
8.375624999999999
 20
7.65625
 30
0.0
 41
0.25
 42
0.25
  0
CIRCLE
  5
52
330
32
100
AcDbEntity
  8
CSOLID
100
AcDbCircle
 10
8.375624999999999
 20
7.65625
 30
0.0
 40
0.125
  0
CIRCLE
  5
53
330
32
100
AcDbEntity
  8
CSOLID
100
AcDbCircle
 10
7.969125
 20
7.999749999999997
 30
0.0
 40
0.125
  0
INSERT
  5
54
330
32
100
AcDbEntity
  8
CCENTER
100
AcDbBlockReference
  2
100CROSS
 10
7.969125
 20
7.999749999999997
 30
0.0
 41
0.25
 42
0.25
  0
INSERT
  5
55
330
32
100
AcDbEntity
  8
CCENTER
100
AcDbBlockReference
  2
100CROSS
 10
8.781625
 20
7.999749999999997
 30
0.0
 41
0.25
 42
0.25
  0
CIRCLE
  5
56
330
32
100
AcDbEntity
  8
CSOLID
100
AcDbCircle
 10
8.781625
 20
7.999749999999997
 30
0.0
 40
0.125
  0
CIRCLE
  5
57
330
32
100
AcDbEntity
  8
CSOLID
100
AcDbCircle
 10
8.375624999999999
 20
8.34375
 30
0.0
 40
0.125
  0
INSERT
  5
58
330
32
100
AcDbEntity
  8
CCENTER
100
AcDbBlockReference
  2
100CROSS
 10
8.375624999999999
 20
8.34375
 30
0.0
 41
0.25
 42
0.25
  0
CIRCLE
  5
59
330
32
100
AcDbEntity
  8
CSOLID
100
AcDbCircle
 10
7.735624999999997
 20
7.25
 30
0.0
 40
0.078
  0
CIRCLE
  5
5A
330
32
100
AcDbEntity
  8
CSOLID
100
AcDbCircle
 10
9.015625
 20
7.25
 30
0.0
 40
0.078
  0
CIRCLE
  5
5B
330
32
100
AcDbEntity
  8
CSOLID
100
AcDbCircle
 10
8.985625
 20
8.84375
 30
0.0
 40
0.078
  0
CIRCLE
  5
5C
330
32
100
AcDbEntity
  8
CSOLID
100
AcDbCircle
 10
7.765625
 20
8.84375
 30
0.0
 40
0.078
  0
INSERT
  5
5D
330
32
100
AcDbEntity
  8
CCENTER
100
AcDbBlockReference
  2
100CROSS
 10
7.735624999999997
 20
7.249749999999997
 30
0.0
 41
0.188
 42
0.188
  0
INSERT
  5
5E
330
32
100
AcDbEntity
  8
CCENTER
100
AcDbBlockReference
  2
100CROSS
 10
9.015625
 20
7.249749999999997
 30
0.0
 41
0.188
 42
0.188
  0
INSERT
  5
5F
330
32
100
AcDbEntity
  8
CCENTER
100
AcDbBlockReference
  2
100CROSS
 10
8.985625
 20
8.84375
 30
0.0
 41
0.188
 42
0.188
  0
INSERT
  5
60
330
32
100
AcDbEntity
  8
CCENTER
100
AcDbBlockReference
  2
100CROSS
 10
7.765625
 20
8.84375
 30
0.0
 41
0.188
 42
0.188
  0
CIRCLE
  5
61
330
32
100
AcDbEntity
  8
CHIDDEN
100
AcDbCircle
 10
7.735624999999997
 20
7.249749999999997
 30
0.0
 40
0.095
  0
CIRCLE
  5
62
330
32
100
AcDbEntity
  8
CHIDDEN
100
AcDbCircle
 10
9.015625
 20
7.249749999999997
 30
0.0
 40
0.095
  0
CIRCLE
  5
63
330
32
100
AcDbEntity
  8
CHIDDEN
100
AcDbCircle
 10
7.765625
 20
8.84375
 30
0.0
 40
0.095
  0
CIRCLE
  5
64
330
32
100
AcDbEntity
  8
CHIDDEN
100
AcDbCircle
 10
8.985625
 20
8.84375
 30
0.0
 40
0.095
  0
CIRCLE
  5
65
330
32
100
AcDbEntity
  8
CHIDDEN
100
AcDbCircle
 10
7.84375
 20
13.875
 30
0.0
 40
0.3935
  0
CIRCLE
  5
66
330
32
100
AcDbEntity
  8
CSOLID
100
AcDbCircle
 10
7.84375
 20
13.875
 30
0.0
 40
0.4295
  0
CIRCLE
  5
67
330
32
100
AcDbEntity
  8
CSOLID
100
AcDbCircle
 10
7.84375
 20
13.875
 30
0.0
 40
0.4060000000000001
  0
CIRCLE
  5
68
330
32
100
AcDbEntity
  8
CSOLID
100
AcDbCircle
 10
7.84375
 20
13.875
 30
0.0
 40
0.367
  0
CIRCLE
  5
69
330
32
100
AcDbEntity
  8
CSOLID
100
AcDbCircle
 10
7.84375
 20
13.875
 30
0.0
 40
0.3435
  0
CIRCLE
  5
6A
330
32
100
AcDbEntity
  8
CSOLID
100
AcDbCircle
 10
7.84375
 20
13.875
 30
0.0
 40
0.281
  0
INSERT
  5
6B
330
32
100
AcDbEntity
  8
CCENTER
100
AcDbBlockReference
  2
100CROSS
 10
7.84375
 20
13.875
 30
0.0
 41
0.8609999999999999
 42
0.8609999999999999
  0
TEXT
  5
6C
330
32
100
AcDbEntity
  8
CDIM
100
AcDbText
 10
4.1875
 20
8.875
 30
0.0
 40
0.25
  1
T
 50
270.0
  7
STR
100
AcDbText
  0
TEXT
  5
6D
330
32
100
AcDbEntity
  8
CDIM
100
AcDbText
 10
4.1875
 20
7.5
 30
0.0
 40
0.25
  1
P
 50
270.0
  7
STR
100
AcDbText
  0
TEXT
  5
6E
330
32
100
AcDbEntity
  8
CDIM
100
AcDbText
 10
12.875
 20
8.96875
 30
0.0
 40
0.25
  1
A
 50
90.0
  7
STR
100
AcDbText
  0
TEXT
  5
6F
330
32
100
AcDbEntity
  8
CDIM
100
AcDbText
 10
13.5
 20
7.0625
 30
0.0
 40
0.25
  1
B
 50
90.0
  7
STR
100
AcDbText
  0
TEXT
  5
70
330
32
100
AcDbEntity
  8
CDIM
100
AcDbText
 10
17.8125
 20
8.59375
 30
0.0
 40
0.25
  1
T
  7
STR
100
AcDbText
  0
TEXT
  5
71
330
32
100
AcDbEntity
  8
CDIM
100
AcDbText
 10
18.21875
 20
8.09375
 30
0.0
 40
0.25
  1
P
  7
STR
100
AcDbText
  0
LINE
  5
72
330
32
100
AcDbEntity
  8
CDIM
100
AcDbLine
 10
2.5
 20
10.139506
 30
0.0
 11
2.5
 21
10.830352
 31
0.0
  0
LINE
  5
73
330
32
100
AcDbEntity
  8
CDIM
100
AcDbLine
 10
3.90625
 20
9.733255999999999
 30
0.0
 11
3.90625
 21
10.830352
 31
0.0
  0
LINE
  5
74
330
32
100
AcDbEntity
  8
CDIM
100
AcDbLine
 10
4.174101999999998
 20
10.5625
 30
0.0
 11
4.441953999999999
 21
10.5625
 31
0.0
  0
LINE
  5
75
330
32
100
AcDbEntity
  8
CDIM
100
AcDbLine
 10
2.232148
 20
10.5625
 30
0.0
 11
1.964295999999999
 21
10.5625
 31
0.0
  0
SOLID
  5
76
330
32
100
AcDbEntity
  8
CDIM
100
AcDbTrace
 10
4.174101999999998
 20
10.51785799999999
 30
0.0
 11
4.174101999999998
 21
10.607142
 31
0.0
 12
3.90625
 22
10.5625
 32
0.0
 13
3.90625
 23
10.5625
 33
0.0
  0
SOLID
  5
77
330
32
100
AcDbEntity
  8
CDIM
100
AcDbTrace
 10
2.232148
 20
10.51785799999999
 30
0.0
 11
2.232148
 21
10.607142
 31
0.0
 12
2.5
 22
10.5625
 32
0.0
 13
2.5
 23
10.5625
 33
0.0
  0
TEXT
  5
78
330
32
100
AcDbEntity
  8
CDIM
100
AcDbText
 10
2.834806
 20
10.406253
 30
0.0
 40
0.312494
  1
1.41
  7
STR
100
AcDbText
  0
LINE
  5
79
330
32
100
AcDbEntity
  8
CDIM
100
AcDbLine
 10
2.5
 20
10.139506
 30
0.0
 11
2.5
 21
11.67855
 31
0.0
  0
LINE
  5
7A
330
32
100
AcDbEntity
  8
CDIM
100
AcDbLine
 10
4.5
 20
10.139506
 30
0.0
 11
4.5
 21
11.67855
 31
0.0
  0
LINE
  5
7B
330
32
100
AcDbEntity
  8
CDIM
100
AcDbLine
 10
4.767851999999998
 20
11.410698
 30
0.0
 11
5.035703999999999
 21
11.410698
 31
0.0
  0
LINE
  5
7C
330
32
100
AcDbEntity
  8
CDIM
100
AcDbLine
 10
2.232148
 20
11.410698
 30
0.0
 11
1.964295999999999
 21
11.410698
 31
0.0
  0
SOLID
  5
7D
330
32
100
AcDbEntity
  8
CDIM
100
AcDbTrace
 10
4.767851999999998
 20
11.36605599999999
 30
0.0
 11
4.767851999999998
 21
11.45534
 31
0.0
 12
4.5
 22
11.410698
 32
0.0
 13
4.5
 23
11.410698
 33
0.0
  0
SOLID
  5
7E
330
32
100
AcDbEntity
  8
CDIM
100
AcDbTrace
 10
2.232148
 20
11.36605599999999
 30
0.0
 11
2.232148
 21
11.45534
 31
0.0
 12
2.5
 22
11.410698
 32
0.0
 13
2.5
 23
11.410698
 33
0.0
  0
TEXT
  5
7F
330
32
100
AcDbEntity
  8
CDIM
100
AcDbText
 10
3.022305999999998
 20
11.254451
 30
0.0
 40
0.312494
  1
2.00
  7
STR
100
AcDbText
  0
LINE
  5
80
330
32
100
AcDbEntity
  8
CDIM
100
AcDbLine
 10
2.360493999999999
 20
10.0
 30
0.0
 11
1.669648
 21
10.0
 31
0.0
  0
LINE
  5
81
330
32
100
AcDbEntity
  8
CDIM
100
AcDbLine
 10
3.266743999999998
 20
9.3125
 30
0.0
 11
1.669648
 21
9.3125
 31
0.0
  0
LINE
  5
82
330
32
100
AcDbEntity
  8
CDIM
100
AcDbLine
 10
1.9375
 20
9.044648
 30
0.0
 11
1.9375
 21
8.776796
 31
0.0
  0
LINE
  5
83
330
32
100
AcDbEntity
  8
CDIM
100
AcDbLine
 10
1.9375
 20
10.26785199999999
 30
0.0
 11
1.9375
 21
10.53570399999999
 31
0.0
  0
SOLID
  5
84
330
32
100
AcDbEntity
  8
CDIM
100
AcDbTrace
 10
1.982141999999999
 20
9.044648
 30
0.0
 11
1.892858
 21
9.044648
 31
0.0
 12
1.9375
 22
9.3125
 32
0.0
 13
1.9375
 23
9.3125
 33
0.0
  0
SOLID
  5
85
330
32
100
AcDbEntity
  8
CDIM
100
AcDbTrace
 10
1.982141999999999
 20
10.26785199999999
 30
0.0
 11
1.892858
 21
10.26785199999999
 31
0.0
 12
1.9375
 22
10.0
 32
0.0
 13
1.9375
 23
10.0
 33
0.0
  0
TEXT
  5
86
330
32
100
AcDbEntity
  8
CDIM
100
AcDbText
 10
1.464313999999999
 20
9.495549
 30
0.0
 40
0.312494
  1
0.69
  7
STR
100
AcDbText
  0
LINE
  5
87
330
32
100
AcDbEntity
  8
CDIM
100
AcDbLine
 10
2.360493999999999
 20
10.0
 30
0.0
 11
0.8214500000000001
 21
10.0
 31
0.0
  0
LINE
  5
88
330
32
100
AcDbEntity
  8
CDIM
100
AcDbLine
 10
3.516744
 20
8.0
 30
0.0
 11
0.8214500000000001
 21
8.0
 31
0.0
  0
LINE
  5
89
330
32
100
AcDbEntity
  8
CDIM
100
AcDbLine
 10
1.089301999999998
 20
9.732148
 30
0.0
 11
1.089301999999998
 21
9.424099
 31
0.0
  0
LINE
  5
8A
330
32
100
AcDbEntity
  8
CDIM
100
AcDbLine
 10
1.089301999999998
 20
8.267851999999999
 30
0.0
 11
1.089301999999998
 21
8.575900999999998
 31
0.0
  0
SOLID
  5
8B
330
32
100
AcDbEntity
  8
CDIM
100
AcDbTrace
 10
1.133944
 20
9.732148
 30
0.0
 11
1.04466
 21
9.732148
 31
0.0
 12
1.089301999999998
 22
10.0
 32
0.0
 13
1.089301999999998
 23
10.0
 33
0.0
  0
SOLID
  5
8C
330
32
100
AcDbEntity
  8
CDIM
100
AcDbTrace
 10
1.133944
 20
8.267851999999999
 30
0.0
 11
1.04466
 21
8.267851999999999
 31
0.0
 12
1.089301999999998
 22
8.0
 32
0.0
 13
1.089301999999998
 23
8.0
 33
0.0
  0
TEXT
  5
8D
330
32
100
AcDbEntity
  8
CDIM
100
AcDbText
 10
0.6131210000000003
 20
8.843752999999997
 30
0.0
 40
0.312494
  1
2.00
  7
STR
100
AcDbText
  0
LINE
  5
8E
330
32
100
AcDbEntity
  8
CDIM
100
AcDbLine
 10
6.860494
 20
10.0
 30
0.0
 11
6.169648
 21
10.0
 31
0.0
  0
LINE
  5
8F
330
32
100
AcDbEntity
  8
CDIM
100
AcDbLine
 10
7.829619
 20
7.999749999999997
 30
0.0
 11
6.169648
 21
7.999749999999997
 31
0.0
  0
LINE
  5
90
330
32
100
AcDbEntity
  8
CDIM
100
AcDbLine
 10
6.4375
 20
9.732148
 30
0.0
 11
6.4375
 21
9.423973999999999
 31
0.0
  0
LINE
  5
91
330
32
100
AcDbEntity
  8
CDIM
100
AcDbLine
 10
6.4375
 20
8.267602
 30
0.0
 11
6.4375
 21
8.575775999999999
 31
0.0
  0
SOLID
  5
92
330
32
100
AcDbEntity
  8
CDIM
100
AcDbTrace
 10
6.482141999999997
 20
9.732148
 30
0.0
 11
6.392858
 21
9.732148
 31
0.0
 12
6.4375
 22
10.0
 32
0.0
 13
6.4375
 23
10.0
 33
0.0
  0
SOLID
  5
93
330
32
100
AcDbEntity
  8
CDIM
100
AcDbTrace
 10
6.482141999999997
 20
8.267602
 30
0.0
 11
6.392858
 21
8.267602
 31
0.0
 12
6.4375
 22
7.999749999999997
 32
0.0
 13
6.4375
 23
7.999749999999997
 33
0.0
  0
TEXT
  5
94
330
32
100
AcDbEntity
  8
CDIM
100
AcDbText
 10
5.898819
 20
8.843628
 30
0.0
 40
0.312494
  1
2.00
  7
STR
100
AcDbText
  0
LINE
  5
95
330
32
100
AcDbEntity
  8
CDIM
100
AcDbLine
 10
6.860494
 20
10.0
 30
0.0
 11
5.321449999999997
 21
10.0
 31
0.0
  0
LINE
  5
96
330
32
100
AcDbEntity
  8
CDIM
100
AcDbLine
 10
6.860494
 20
7.0
 30
0.0
 11
5.321449999999997
 21
7.0
 31
0.0
  0
LINE
  5
97
330
32
100
AcDbEntity
  8
CDIM
100
AcDbLine
 10
5.589301999999999
 20
9.732148
 30
0.0
 11
5.589301999999999
 21
8.799099
 31
0.0
  0
LINE
  5
98
330
32
100
AcDbEntity
  8
CDIM
100
AcDbLine
 10
5.589301999999999
 20
7.267852
 30
0.0
 11
5.589301999999999
 21
7.950900999999999
 31
0.0
  0
SOLID
  5
99
330
32
100
AcDbEntity
  8
CDIM
100
AcDbTrace
 10
5.633944
 20
9.732148
 30
0.0
 11
5.544659999999997
 21
9.732148
 31
0.0
 12
5.589301999999999
 22
10.0
 32
0.0
 13
5.589301999999999
 23
10.0
 33
0.0
  0
SOLID
  5
9A
330
32
100
AcDbEntity
  8
CDIM
100
AcDbTrace
 10
5.633944
 20
7.267852
 30
0.0
 11
5.544659999999997
 21
7.267852
 31
0.0
 12
5.589301999999999
 22
7.0
 32
0.0
 13
5.589301999999999
 23
7.0
 33
0.0
  0
TEXT
  5
9B
330
32
100
AcDbEntity
  8
CDIM
100
AcDbText
 10
5.113120999999997
 20
8.218752999999999
 30
0.0
 40
0.312494
  1
3.00
  7
STR
100
AcDbText
  0
LINE
  5
9C
330
32
100
AcDbEntity
  8
CDIM
100
AcDbLine
 10
7.0
 20
10.139506
 30
0.0
 11
7.0
 21
10.830352
 31
0.0
  0
LINE
  5
9D
330
32
100
AcDbEntity
  8
CDIM
100
AcDbLine
 10
7.969125
 20
8.139255999999999
 30
0.0
 11
7.969125
 21
10.830352
 31
0.0
  0
LINE
  5
9E
330
32
100
AcDbEntity
  8
CDIM
100
AcDbLine
 10
8.236976999999999
 20
10.5625
 30
0.0
 11
8.504828999999999
 21
10.5625
 31
0.0
  0
LINE
  5
9F
330
32
100
AcDbEntity
  8
CDIM
100
AcDbLine
 10
6.732147999999997
 20
10.5625
 30
0.0
 11
6.464296
 21
10.5625
 31
0.0
  0
SOLID
  5
A0
330
32
100
AcDbEntity
  8
CDIM
100
AcDbTrace
 10
8.236976999999999
 20
10.51785799999999
 30
0.0
 11
8.236976999999999
 21
10.607142
 31
0.0
 12
7.969125
 22
10.5625
 32
0.0
 13
7.969125
 23
10.5625
 33
0.0
  0
SOLID
  5
A1
330
32
100
AcDbEntity
  8
CDIM
100
AcDbTrace
 10
6.732147999999997
 20
10.51785799999999
 30
0.0
 11
6.732147999999997
 21
10.607142
 31
0.0
 12
7.0
 22
10.5625
 32
0.0
 13
7.0
 23
10.5625
 33
0.0
  0
TEXT
  5
A2
330
32
100
AcDbEntity
  8
CDIM
100
AcDbText
 10
8.678931
 20
10.406253
 30
0.0
 40
0.312494
  1
0.97
  7
STR
100
AcDbText
  0
LINE
  5
A3
330
32
100
AcDbEntity
  8
CDIM
100
AcDbLine
 10
7.0
 20
10.139506
 30
0.0
 11
7.0
 21
11.67855
 31
0.0
  0
LINE
  5
A4
330
32
100
AcDbEntity
  8
CDIM
100
AcDbLine
 10
10.0
 20
10.139506
 30
0.0
 11
10.0
 21
11.67855
 31
0.0
  0
LINE
  5
A5
330
32
100
AcDbEntity
  8
CDIM
100
AcDbLine
 10
7.267852
 20
11.410698
 30
0.0
 11
7.755967
 21
11.410698
 31
0.0
  0
LINE
  5
A6
330
32
100
AcDbEntity
  8
CDIM
100
AcDbLine
 10
9.732148
 20
11.410698
 30
0.0
 11
9.244032999999999
 21
11.410698
 31
0.0
  0
SOLID
  5
A7
330
32
100
AcDbEntity
  8
CDIM
100
AcDbTrace
 10
7.267852
 20
11.36605599999999
 30
0.0
 11
7.267852
 21
11.45534
 31
0.0
 12
7.0
 22
11.410698
 32
0.0
 13
7.0
 23
11.410698
 33
0.0
  0
SOLID
  5
A8
330
32
100
AcDbEntity
  8
CDIM
100
AcDbTrace
 10
9.732148
 20
11.36605599999999
 30
0.0
 11
9.732148
 21
11.45534
 31
0.0
 12
10.0
 22
11.410698
 32
0.0
 13
10.0
 23
11.410698
 33
0.0
  0
TEXT
  5
A9
330
32
100
AcDbEntity
  8
CDIM
100
AcDbText
 10
8.023818999999999
 20
11.254451
 30
0.0
 40
0.312494
  1
3.00
  7
STR
100
AcDbText
  0
LINE
  5
AA
330
32
100
AcDbEntity
  8
CDIM
100
AcDbLine
 10
7.0
 20
6.860494
 30
0.0
 11
7.0
 21
6.169648
 31
0.0
  0
LINE
  5
AB
330
32
100
AcDbEntity
  8
CDIM
100
AcDbLine
 10
7.3125
 20
7.172994
 30
0.0
 11
7.3125
 21
6.169648
 31
0.0
  0
LINE
  5
AC
330
32
100
AcDbEntity
  8
CDIM
100
AcDbLine
 10
7.580352
 20
6.4375
 30
0.0
 11
7.848203999999999
 21
6.4375
 31
0.0
  0
LINE
  5
AD
330
32
100
AcDbEntity
  8
CDIM
100
AcDbLine
 10
6.732147999999997
 20
6.4375
 30
0.0
 11
6.464296
 21
6.4375
 31
0.0
  0
SOLID
  5
AE
330
32
100
AcDbEntity
  8
CDIM
100
AcDbTrace
 10
7.580352
 20
6.392858
 30
0.0
 11
7.580352
 21
6.482141999999997
 31
0.0
 12
7.3125
 22
6.4375
 32
0.0
 13
7.3125
 23
6.4375
 33
0.0
  0
SOLID
  5
AF
330
32
100
AcDbEntity
  8
CDIM
100
AcDbTrace
 10
6.732147999999997
 20
6.392858
 30
0.0
 11
6.732147999999997
 21
6.482141999999997
 31
0.0
 12
7.0
 22
6.4375
 32
0.0
 13
7.0
 23
6.4375
 33
0.0
  0
TEXT
  5
B0
330
32
100
AcDbEntity
  8
CDIM
100
AcDbText
 10
8.116056
 20
6.281252999999997
 30
0.0
 40
0.312494
  1
0.31
  7
STR
100
AcDbText
  0
LINE
  5
B1
330
32
100
AcDbEntity
  8
CDIM
100
AcDbLine
 10
7.0
 20
6.860494
 30
0.0
 11
7.0
 21
5.446449999999997
 31
0.0
  0
LINE
  5
B2
330
32
100
AcDbEntity
  8
CDIM
100
AcDbLine
 10
9.6875
 20
9.547994
 30
0.0
 11
9.6875
 21
5.446449999999997
 31
0.0
  0
LINE
  5
B3
330
32
100
AcDbEntity
  8
CDIM
100
AcDbLine
 10
7.267852
 20
5.714301999999999
 30
0.0
 11
7.607157
 21
5.714301999999999
 31
0.0
  0
LINE
  5
B4
330
32
100
AcDbEntity
  8
CDIM
100
AcDbLine
 10
9.419648
 20
5.714301999999999
 30
0.0
 11
9.080342999999999
 21
5.714301999999999
 31
0.0
  0
SOLID
  5
B5
330
32
100
AcDbEntity
  8
CDIM
100
AcDbTrace
 10
7.267852
 20
5.669659999999997
 30
0.0
 11
7.267852
 21
5.758944
 31
0.0
 12
7.0
 22
5.714301999999999
 32
0.0
 13
7.0
 23
5.714301999999999
 33
0.0
  0
SOLID
  5
B6
330
32
100
AcDbEntity
  8
CDIM
100
AcDbTrace
 10
9.419648
 20
5.669659999999997
 30
0.0
 11
9.419648
 21
5.758944
 31
0.0
 12
9.6875
 22
5.714301999999999
 32
0.0
 13
9.6875
 23
5.714301999999999
 33
0.0
  0
TEXT
  5
B7
330
32
100
AcDbEntity
  8
CDIM
100
AcDbText
 10
7.875008999999997
 20
5.558055
 30
0.0
 40
0.312494
  1
2.69
  7
STR
100
AcDbText
  0
LINE
  5
B8
330
32
100
AcDbEntity
  8
CDIM
100
AcDbLine
 10
10.139506
 20
10.0
 30
0.0
 11
10.86160199999999
 21
10.0
 31
0.0
  0
LINE
  5
B9
330
32
100
AcDbEntity
  8
CDIM
100
AcDbLine
 10
9.827005999999999
 20
9.6875
 30
0.0
 11
10.86160199999999
 21
9.6875
 31
0.0
  0
LINE
  5
BA
330
32
100
AcDbEntity
  8
CDIM
100
AcDbLine
 10
10.59374999999999
 20
9.419648
 30
0.0
 11
10.59374999999999
 21
9.151796
 31
0.0
  0
LINE
  5
BB
330
32
100
AcDbEntity
  8
CDIM
100
AcDbLine
 10
10.59374999999999
 20
10.26785199999999
 30
0.0
 11
10.59374999999999
 21
10.53570399999999
 31
0.0
  0
SOLID
  5
BC
330
32
100
AcDbEntity
  8
CDIM
100
AcDbTrace
 10
10.638392
 20
9.419648
 30
0.0
 11
10.549108
 21
9.419648
 31
0.0
 12
10.59374999999999
 22
9.6875
 32
0.0
 13
10.59374999999999
 23
9.6875
 33
0.0
  0
SOLID
  5
BD
330
32
100
AcDbEntity
  8
CDIM
100
AcDbTrace
 10
10.638392
 20
10.26785199999999
 30
0.0
 11
10.549108
 21
10.26785199999999
 31
0.0
 12
10.59374999999999
 22
10.0
 32
0.0
 13
10.59374999999999
 23
10.0
 33
0.0
  0
TEXT
  5
BE
330
32
100
AcDbEntity
  8
CDIM
100
AcDbText
 10
10.14585899999999
 20
8.745549
 30
0.0
 40
0.312494
  1
0.31
  7
STR
100
AcDbText
  0
LINE
  5
BF
330
32
100
AcDbEntity
  8
CDIM
100
AcDbLine
 10
10.139506
 20
10.0
 30
0.0
 11
11.70979999999999
 21
10.0
 31
0.0
  0
LINE
  5
C0
330
32
100
AcDbEntity
  8
CDIM
100
AcDbLine
 10
7.452005999999999
 20
7.3125
 30
0.0
 11
11.70979999999999
 21
7.3125
 31
0.0
  0
LINE
  5
C1
330
32
100
AcDbEntity
  8
CDIM
100
AcDbLine
 10
11.44194799999999
 20
9.732148
 30
0.0
 11
11.44194799999999
 21
8.799099
 31
0.0
  0
LINE
  5
C2
330
32
100
AcDbEntity
  8
CDIM
100
AcDbLine
 10
11.44194799999999
 20
7.580352
 30
0.0
 11
11.44194799999999
 21
7.950900999999999
 31
0.0
  0
SOLID
  5
C3
330
32
100
AcDbEntity
  8
CDIM
100
AcDbTrace
 10
11.48659
 20
9.732148
 30
0.0
 11
11.397306
 21
9.732148
 31
0.0
 12
11.44194799999999
 22
10.0
 32
0.0
 13
11.44194799999999
 23
10.0
 33
0.0
  0
SOLID
  5
C4
330
32
100
AcDbEntity
  8
CDIM
100
AcDbTrace
 10
11.48659
 20
7.580352
 30
0.0
 11
11.397306
 21
7.580352
 31
0.0
 12
11.44194799999999
 22
7.3125
 32
0.0
 13
11.44194799999999
 23
7.3125
 33
0.0
  0
TEXT
  5
C5
330
32
100
AcDbEntity
  8
CDIM
100
AcDbText
 10
10.973207
 20
8.218752999999999
 30
0.0
 40
0.312494
  1
2.69
  7
STR
100
AcDbText
  0
LINE
  5
C6
330
32
100
AcDbEntity
  8
CDIM
100
AcDbLine
 10
14.63950599999999
 20
10.0
 30
0.0
 11
15.361602
 21
10.0
 31
0.0
  0
LINE
  5
C7
330
32
100
AcDbEntity
  8
CDIM
100
AcDbLine
 10
13.51450599999999
 20
8.46875
 30
0.0
 11
15.361602
 21
8.46875
 31
0.0
  0
LINE
  5
C8
330
32
100
AcDbEntity
  8
CDIM
100
AcDbLine
 10
15.09375
 20
9.732148
 30
0.0
 11
15.09375
 21
9.658474
 31
0.0
  0
LINE
  5
C9
330
32
100
AcDbEntity
  8
CDIM
100
AcDbLine
 10
15.09375
 20
8.736601999999999
 30
0.0
 11
15.09375
 21
8.810275999999998
 31
0.0
  0
SOLID
  5
CA
330
32
100
AcDbEntity
  8
CDIM
100
AcDbTrace
 10
15.138392
 20
9.732148
 30
0.0
 11
15.049108
 21
9.732148
 31
0.0
 12
15.09375
 22
10.0
 32
0.0
 13
15.09375
 23
10.0
 33
0.0
  0
SOLID
  5
CB
330
32
100
AcDbEntity
  8
CDIM
100
AcDbTrace
 10
15.138392
 20
8.736601999999999
 30
0.0
 11
15.049108
 21
8.736601999999999
 31
0.0
 12
15.09375
 22
8.46875
 32
0.0
 13
15.09375
 23
8.46875
 33
0.0
  0
TEXT
  5
CC
330
32
100
AcDbEntity
  8
CDIM
100
AcDbText
 10
14.64732999999999
 20
9.078127999999999
 30
0.0
 40
0.312494
  1
1.53
  7
STR
100
AcDbText
  0
LINE
  5
CD
330
32
100
AcDbEntity
  8
CDIM
100
AcDbLine
 10
14.63950599999999
 20
10.0
 30
0.0
 11
16.2098
 21
10.0
 31
0.0
  0
LINE
  5
CE
330
32
100
AcDbEntity
  8
CDIM
100
AcDbLine
 10
14.26450599999999
 20
7.625
 30
0.0
 11
16.2098
 21
7.625
 31
0.0
  0
LINE
  5
CF
330
32
100
AcDbEntity
  8
CDIM
100
AcDbLine
 10
15.941948
 20
9.732148
 30
0.0
 11
15.941948
 21
9.236599
 31
0.0
  0
LINE
  5
D0
330
32
100
AcDbEntity
  8
CDIM
100
AcDbLine
 10
15.941948
 20
7.892852
 30
0.0
 11
15.941948
 21
8.388400999999998
 31
0.0
  0
SOLID
  5
D1
330
32
100
AcDbEntity
  8
CDIM
100
AcDbTrace
 10
15.98659
 20
9.732148
 30
0.0
 11
15.897306
 21
9.732148
 31
0.0
 12
15.941948
 22
10.0
 32
0.0
 13
15.941948
 23
10.0
 33
0.0
  0
SOLID
  5
D2
330
32
100
AcDbEntity
  8
CDIM
100
AcDbTrace
 10
15.98659
 20
7.892852
 30
0.0
 11
15.897306
 21
7.892852
 31
0.0
 12
15.941948
 22
7.625
 32
0.0
 13
15.941948
 23
7.625
 33
0.0
  0
TEXT
  5
D3
330
32
100
AcDbEntity
  8
CDIM
100
AcDbText
 10
15.465767
 20
8.656252999999999
 30
0.0
 40
0.312494
  1
2.37
  7
STR
100
AcDbText
  0
LINE
  5
D4
330
32
100
AcDbEntity
  8
CDIM
100
AcDbLine
 10
20.139506
 20
10.0
 30
0.0
 11
20.86160199999997
 21
10.0
 31
0.0
  0
LINE
  5
D5
330
32
100
AcDbEntity
  8
CDIM
100
AcDbLine
 10
18.702006
 20
9.3125
 30
0.0
 11
20.86160199999997
 21
9.3125
 31
0.0
  0
LINE
  5
D6
330
32
100
AcDbEntity
  8
CDIM
100
AcDbLine
 10
20.59375
 20
9.044648
 30
0.0
 11
20.59375
 21
8.776796
 31
0.0
  0
LINE
  5
D7
330
32
100
AcDbEntity
  8
CDIM
100
AcDbLine
 10
20.59375
 20
10.26785199999999
 30
0.0
 11
20.59375
 21
10.53570399999999
 31
0.0
  0
SOLID
  5
D8
330
32
100
AcDbEntity
  8
CDIM
100
AcDbTrace
 10
20.63839199999998
 20
9.044648
 30
0.0
 11
20.549108
 21
9.044648
 31
0.0
 12
20.59375
 22
9.3125
 32
0.0
 13
20.59375
 23
9.3125
 33
0.0
  0
SOLID
  5
D9
330
32
100
AcDbEntity
  8
CDIM
100
AcDbTrace
 10
20.63839199999998
 20
10.26785199999999
 30
0.0
 11
20.549108
 21
10.26785199999999
 31
0.0
 12
20.59375
 22
10.0
 32
0.0
 13
20.59375
 23
10.0
 33
0.0
  0
TEXT
  5
DA
330
32
100
AcDbEntity
  8
CDIM
100
AcDbText
 10
20.151814
 20
9.495549
 30
0.0
 40
0.312494
  1
0.69
  7
STR
100
AcDbText
  0
LINE
  5
DB
330
32
100
AcDbEntity
  8
CDIM
100
AcDbLine
 10
20.139506
 20
10.0
 30
0.0
 11
21.7098
 21
10.0
 31
0.0
  0
LINE
  5
DC
330
32
100
AcDbEntity
  8
CDIM
100
AcDbLine
 10
19.452006
 20
8.0
 30
0.0
 11
21.7098
 21
8.0
 31
0.0
  0
LINE
  5
DD
330
32
100
AcDbEntity
  8
CDIM
100
AcDbLine
 10
21.441948
 20
9.732148
 30
0.0
 11
21.441948
 21
9.424099
 31
0.0
  0
LINE
  5
DE
330
32
100
AcDbEntity
  8
CDIM
100
AcDbLine
 10
21.441948
 20
8.267851999999999
 30
0.0
 11
21.441948
 21
8.575900999999998
 31
0.0
  0
SOLID
  5
DF
330
32
100
AcDbEntity
  8
CDIM
100
AcDbTrace
 10
21.48658999999998
 20
9.732148
 30
0.0
 11
21.397306
 21
9.732148
 31
0.0
 12
21.441948
 22
10.0
 32
0.0
 13
21.441948
 23
10.0
 33
0.0
  0
SOLID
  5
E0
330
32
100
AcDbEntity
  8
CDIM
100
AcDbTrace
 10
21.48658999999998
 20
8.267851999999999
 30
0.0
 11
21.397306
 21
8.267851999999999
 31
0.0
 12
21.441948
 22
8.0
 32
0.0
 13
21.441948
 23
8.0
 33
0.0
  0
TEXT
  5
E1
330
32
100
AcDbEntity
  8
CDIM
100
AcDbText
 10
20.96576699999999
 20
8.843752999999997
 30
0.0
 40
0.312494
  1
2.00
  7
STR
100
AcDbText
  0
LINE
  5
E2
330
32
100
AcDbEntity
  8
CDIM
100
AcDbLine
 10
20.0
 20
10.139506
 30
0.0
 11
20.0
 21
10.830352
 31
0.0
  0
LINE
  5
E3
330
32
100
AcDbEntity
  8
CDIM
100
AcDbLine
 10
19.03125
 20
8.420755999999999
 30
0.0
 11
19.03125
 21
10.830352
 31
0.0
  0
LINE
  5
E4
330
32
100
AcDbEntity
  8
CDIM
100
AcDbLine
 10
18.763398
 20
10.5625
 30
0.0
 11
18.495546
 21
10.5625
 31
0.0
  0
LINE
  5
E5
330
32
100
AcDbEntity
  8
CDIM
100
AcDbLine
 10
20.26785199999998
 20
10.5625
 30
0.0
 11
20.53570399999999
 21
10.5625
 31
0.0
  0
SOLID
  5
E6
330
32
100
AcDbEntity
  8
CDIM
100
AcDbTrace
 10
18.763398
 20
10.51785799999999
 30
0.0
 11
18.763398
 21
10.607142
 31
0.0
 12
19.03125
 22
10.5625
 32
0.0
 13
19.03125
 23
10.5625
 33
0.0
  0
SOLID
  5
E7
330
32
100
AcDbEntity
  8
CDIM
100
AcDbTrace
 10
20.26785199999998
 20
10.51785799999999
 30
0.0
 11
20.26785199999998
 21
10.607142
 31
0.0
 12
20.0
 22
10.5625
 32
0.0
 13
20.0
 23
10.5625
 33
0.0
  0
TEXT
  5
E8
330
32
100
AcDbEntity
  8
CDIM
100
AcDbText
 10
17.369081
 20
10.406253
 30
0.0
 40
0.312494
  1
0.97
  7
STR
100
AcDbText
  0
LINE
  5
E9
330
32
100
AcDbEntity
  8
CDIM
100
AcDbLine
 10
20.0
 20
10.139506
 30
0.0
 11
20.0
 21
11.67855
 31
0.0
  0
LINE
  5
EA
330
32
100
AcDbEntity
  8
CDIM
100
AcDbLine
 10
18.3125
 20
9.733255999999999
 30
0.0
 11
18.3125
 21
10.25
 31
0.0
  0
LINE
  5
EB
330
32
100
AcDbEntity
  8
CDIM
100
AcDbLine
 10
18.044648
 20
11.410698
 30
0.0
 11
17.776796
 21
11.410698
 31
0.0
  0
LINE
  5
EC
330
32
100
AcDbEntity
  8
CDIM
100
AcDbLine
 10
20.26785199999998
 20
11.410698
 30
0.0
 11
20.53570399999999
 21
11.410698
 31
0.0
  0
SOLID
  5
ED
330
32
100
AcDbEntity
  8
CDIM
100
AcDbTrace
 10
18.044648
 20
11.36605599999999
 30
0.0
 11
18.044648
 21
11.45534
 31
0.0
 12
18.3125
 22
11.410698
 32
0.0
 13
18.3125
 23
11.410698
 33
0.0
  0
SOLID
  5
EE
330
32
100
AcDbEntity
  8
CDIM
100
AcDbTrace
 10
20.26785199999998
 20
11.36605599999999
 30
0.0
 11
20.26785199999998
 21
11.45534
 31
0.0
 12
20.0
 22
11.410698
 32
0.0
 13
20.0
 23
11.410698
 33
0.0
  0
TEXT
  5
EF
330
32
100
AcDbEntity
  8
CDIM
100
AcDbText
 10
18.72473499999999
 20
11.254451
 30
0.0
 40
0.312494
  1
1.69
  7
STR
100
AcDbText
  0
LINE
  5
F0
330
32
100
AcDbEntity
  8
CDIM
100
AcDbLine
 10
14.5
 20
10.139506
 30
0.0
 11
14.5
 21
10.830352
 31
0.0
  0
LINE
  5
F1
330
32
100
AcDbEntity
  8
CDIM
100
AcDbLine
 10
13.875
 20
8.014505999999999
 30
0.0
 11
13.875
 21
10.830352
 31
0.0
  0
LINE
  5
F2
330
32
100
AcDbEntity
  8
CDIM
100
AcDbLine
 10
13.607148
 20
10.5625
 30
0.0
 11
13.339296
 21
10.5625
 31
0.0
  0
LINE
  5
F3
330
32
100
AcDbEntity
  8
CDIM
100
AcDbLine
 10
14.767852
 20
10.5625
 30
0.0
 11
15.035704
 21
10.5625
 31
0.0
  0
SOLID
  5
F4
330
32
100
AcDbEntity
  8
CDIM
100
AcDbTrace
 10
13.607148
 20
10.51785799999999
 30
0.0
 11
13.607148
 21
10.607142
 31
0.0
 12
13.875
 22
10.5625
 32
0.0
 13
13.875
 23
10.5625
 33
0.0
  0
SOLID
  5
F5
330
32
100
AcDbEntity
  8
CDIM
100
AcDbTrace
 10
14.767852
 20
10.51785799999999
 30
0.0
 11
14.767852
 21
10.607142
 31
0.0
 12
14.5
 22
10.5625
 32
0.0
 13
14.5
 23
10.5625
 33
0.0
  0
TEXT
  5
F6
330
32
100
AcDbEntity
  8
CDIM
100
AcDbText
 10
12.119081
 20
10.406253
 30
0.0
 40
0.312494
  1
0.62
  7
STR
100
AcDbText
  0
LINE
  5
F7
330
32
100
AcDbEntity
  8
CDIM
100
AcDbLine
 10
14.5
 20
10.139506
 30
0.0
 11
14.5
 21
11.67855
 31
0.0
  0
LINE
  5
F8
330
32
100
AcDbEntity
  8
CDIM
100
AcDbLine
 10
13.125
 20
8.858255999999997
 30
0.0
 11
13.125
 21
10.25
 31
0.0
  0
LINE
  5
F9
330
32
100
AcDbEntity
  8
CDIM
100
AcDbLine
 10
12.857148
 20
11.410698
 30
0.0
 11
12.589296
 21
11.410698
 31
0.0
  0
LINE
  5
FA
330
32
100
AcDbEntity
  8
CDIM
100
AcDbLine
 10
14.767852
 20
11.410698
 30
0.0
 11
15.035704
 21
11.410698
 31
0.0
  0
SOLID
  5
FB
330
32
100
AcDbEntity
  8
CDIM
100
AcDbTrace
 10
12.857148
 20
11.36605599999999
 30
0.0
 11
12.857148
 21
11.45534
 31
0.0
 12
13.125
 22
11.410698
 32
0.0
 13
13.125
 23
11.410698
 33
0.0
  0
SOLID
  5
FC
330
32
100
AcDbEntity
  8
CDIM
100
AcDbTrace
 10
14.767852
 20
11.36605599999999
 30
0.0
 11
14.767852
 21
11.45534
 31
0.0
 12
14.5
 22
11.410698
 32
0.0
 13
14.5
 23
11.410698
 33
0.0
  0
TEXT
  5
FD
330
32
100
AcDbEntity
  8
CDIM
100
AcDbText
 10
13.397354
 20
11.254451
 30
0.0
 40
0.312494
  1
1.37
  7
STR
100
AcDbText
  0
LINE
  5
FE
330
32
100
AcDbEntity
  8
CDIM
100
AcDbLine
 10
6.860494
 20
14.5
 30
0.0
 11
6.138398
 21
14.5
 31
0.0
  0
LINE
  5
FF
330
32
100
AcDbEntity
  8
CDIM
100
AcDbLine
 10
7.298244
 20
13.875
 30
0.0
 11
6.138398
 21
13.875
 31
0.0
  0
LINE
  5
100
330
32
100
AcDbEntity
  8
CDIM
100
AcDbLine
 10
6.40625
 20
13.607148
 30
0.0
 11
6.40625
 21
13.339296
 31
0.0
  0
LINE
  5
101
330
32
100
AcDbEntity
  8
CDIM
100
AcDbLine
 10
6.40625
 20
14.767852
 30
0.0
 11
6.40625
 21
15.035704
 31
0.0
  0
SOLID
  5
102
330
32
100
AcDbEntity
  8
CDIM
100
AcDbTrace
 10
6.450891999999997
 20
13.607148
 30
0.0
 11
6.361608
 21
13.607148
 31
0.0
 12
6.40625
 22
13.875
 32
0.0
 13
6.40625
 23
13.875
 33
0.0
  0
SOLID
  5
103
330
32
100
AcDbEntity
  8
CDIM
100
AcDbTrace
 10
6.450891999999997
 20
14.767852
 30
0.0
 11
6.361608
 21
14.767852
 31
0.0
 12
6.40625
 22
14.5
 32
0.0
 13
6.40625
 23
14.5
 33
0.0
  0
TEXT
  5
104
330
32
100
AcDbEntity
  8
CDIM
100
AcDbText
 10
5.886932999999999
 20
14.02679899999998
 30
0.0
 40
0.312494
  1
0.62
  7
STR
100
AcDbText
  0
LINE
  5
105
330
32
100
AcDbEntity
  8
CDIM
100
AcDbLine
 10
7.0
 20
14.63950599999999
 30
0.0
 11
7.0
 21
15.330352
 31
0.0
  0
LINE
  5
106
330
32
100
AcDbEntity
  8
CDIM
100
AcDbLine
 10
7.84375
 20
14.45200599999999
 30
0.0
 11
7.84375
 21
15.330352
 31
0.0
  0
LINE
  5
107
330
32
100
AcDbEntity
  8
CDIM
100
AcDbLine
 10
8.111601999999999
 20
15.0625
 30
0.0
 11
8.379453999999999
 21
15.0625
 31
0.0
  0
LINE
  5
108
330
32
100
AcDbEntity
  8
CDIM
100
AcDbLine
 10
6.732147999999997
 20
15.0625
 30
0.0
 11
6.464296
 21
15.0625
 31
0.0
  0
SOLID
  5
109
330
32
100
AcDbEntity
  8
CDIM
100
AcDbTrace
 10
8.111601999999999
 20
15.01785799999999
 30
0.0
 11
8.111601999999999
 21
15.107142
 31
0.0
 12
7.84375
 22
15.0625
 32
0.0
 13
7.84375
 23
15.0625
 33
0.0
  0
SOLID
  5
10A
330
32
100
AcDbEntity
  8
CDIM
100
AcDbTrace
 10
6.732147999999997
 20
15.01785799999999
 30
0.0
 11
6.732147999999997
 21
15.107142
 31
0.0
 12
7.0
 22
15.0625
 32
0.0
 13
7.0
 23
15.0625
 33
0.0
  0
TEXT
  5
10B
330
32
100
AcDbEntity
  8
CDIM
100
AcDbText
 10
8.647306
 20
14.906253
 30
0.0
 40
0.312494
  1
0.84
  7
STR
100
AcDbText
  0
SOLID
  5
10C
330
32
100
AcDbEntity
  8
CDIM
100
AcDbTrace
 10
8.510246
 20
13.73497999999999
 30
0.0
 11
8.521321
 21
13.823574
 31
0.0
 12
8.25
 22
13.8125
 32
0.0
 13
8.25
 23
13.8125
 33
0.0
  0
LINE
  5
10D
330
32
100
AcDbEntity
  8
CDIM
100
AcDbLine
 10
8.515784
 20
13.77927699999998
 30
0.0
 11
10.5
 21
13.53125
 31
0.0
  0
LINE
  5
10E
330
32
100
AcDbEntity
  8
CDIM
100
AcDbLine
 10
10.5
 20
13.53125
 30
0.0
 11
10.8125
 21
13.53125
 31
0.0
  0
TEXT
  5
10F
330
32
100
AcDbEntity
  8
CDIM
100
AcDbText
 10
11.08035199999999
 20
13.375003
 30
0.0
 40
0.312494
  1
Relief valve cavity
  7
STR
100
AcDbText
  0
LINE
  5
110
330
32
100
AcDbEntity
  8
CDIM
100
AcDbLine
 10
13.125
 20
10.90624999999999
 30
0.0
 11
13.125
 21
11.67855
 31
0.0
  0
LINE
  5
111
330
32
100
AcDbEntity
  8
CDIM
100
AcDbLine
 10
18.3125
 20
10.90624999999999
 30
0.0
 11
18.3125
 21
11.67855
 31
0.0
  0
ENDBLK
  5
112
330
32
100
AcDbEntity
  8
0
100
AcDbBlockEnd
  0
BLOCK
  5
113
330
34
100
AcDbEntity
  8
CSOLID
100
AcDbBlockBegin
  2
056SAET
 70
     0
 10
11.75
 20
9.75
 30
0.0
  3
056SAET
  1

  0
INSERT
  5
114
330
34
100
AcDbEntity
  8
CCENTER
100
AcDbBlockReference
  2
100CROSS
 10
11.75
 20
9.75
 30
0.0
  0
CIRCLE
  5
115
330
34
100
AcDbEntity
  8
CHIDDEN
100
AcDbCircle
 10
11.75
 20
9.75
 30
0.0
 40
0.28125
  0
CIRCLE
  5
116
330
34
100
AcDbEntity
  8
CSOLID
100
AcDbCircle
 10
11.75
 20
9.75
 30
0.0
 40
0.5
  0
CIRCLE
  5
117
330
34
100
AcDbEntity
  8
CSOLID
100
AcDbCircle
 10
11.75
 20
9.75
 30
0.0
 40
0.25
  0
ENDBLK
  5
118
330
34
100
AcDbEntity
  8
CSOLID
100
AcDbBlockEnd
  0
BLOCK
  5
119
330
3A
100
AcDbEntity
  8
CCENTER
100
AcDbBlockBegin
  2
100CROSS
 70
     0
 10
5.6875
 20
7.71875
 30
0.0
  3
100CROSS
  1

  0
INSERT
  5
11B
330
3A
100
AcDbEntity
  8
0
100
AcDbBlockReference
  2
050CROSS
 10
5.6875
 20
7.71875
 30
0.0
  0
ENDBLK
  5
11C
330
3A
100
AcDbEntity
  8
CCENTER
100
AcDbBlockEnd
  0
BLOCK
  5
125
330
45
100
AcDbEntity
  8
SOLID
100
AcDbBlockBegin
  2
BOX
 70
     0
 10
0.0
 20
0.0
 30
0.0
  3
BOX
  1

  0
LINE
  5
126
330
45
100
AcDbEntity
  8
0
100
AcDbLine
 10
0.0
 20
1.0
 30
0.0
 11
1.0
 21
1.0
 31
0.0
  0
LINE
  5
127
330
45
100
AcDbEntity
  8
0
100
AcDbLine
 10
1.0
 20
1.0
 30
0.0
 11
1.0
 21
0.0
 31
0.0
  0
LINE
  5
128
330
45
100
AcDbEntity
  8
0
100
AcDbLine
 10
1.0
 20
0.0
 30
0.0
 11
0.0
 21
0.0
 31
0.0
  0
LINE
  5
129
330
45
100
AcDbEntity
  8
0
100
AcDbLine
 10
0.0
 20
0.0
 30
0.0
 11
0.0
 21
1.0
 31
0.0
  0
ENDBLK
  5
12A
330
45
100
AcDbEntity
  8
0
100
AcDbBlockEnd
  0
BLOCK
  5
11D
330
11A
100
AcDbEntity
  8
0
100
AcDbBlockBegin
  2
050CROSS
 70
     0
 10
5.0
 20
5.0
 30
0.0
  3
050CROSS
  1

  0
LINE
  5
11E
330
11A
100
AcDbEntity
  8
0
100
AcDbLine
 10
5.0
 20
5.28125
 30
0.0
 11
5.0
 21
5.78125
 31
0.0
  0
LINE
  5
11F
330
11A
100
AcDbEntity
  8
0
100
AcDbLine
 10
5.0
 20
4.875
 30
0.0
 11
5.0
 21
5.125
 31
0.0
  0
LINE
  5
120
330
11A
100
AcDbEntity
  8
0
100
AcDbLine
 10
5.0
 20
4.15625
 30
0.0
 11
5.0
 21
4.71875
 31
0.0
  0
LINE
  5
121
330
11A
100
AcDbEntity
  8
0
100
AcDbLine
 10
5.25
 20
5.0
 30
0.0
 11
5.8125
 21
5.0
 31
0.0
  0
LINE
  5
122
330
11A
100
AcDbEntity
  8
0
100
AcDbLine
 10
4.90625
 20
5.0
 30
0.0
 11
5.09375
 21
5.0
 31
0.0
  0
LINE
  5
123
330
11A
100
AcDbEntity
  8
0
100
AcDbLine
 10
4.1875
 20
5.0
 30
0.0
 11
4.75
 21
5.0
 31
0.0
  0
ENDBLK
  5
124
330
11A
100
AcDbEntity
  8
0
100
AcDbBlockEnd
  0
BLOCK
  5
12C
330
12B
100
AcDbEntity
  8
0
100
AcDbBlockBegin
  2
038NPTFT
 70
     0
 10
0.0
 20
0.0
 30
0.0
  3
038NPTFT
  1

  0
INSERT
  5
12E
330
12B
100
AcDbEntity
  8
DAMAN
100
AcDbBlockReference
  2
375NPTFT
 10
0.0
 20
0.0
 30
0.0
  0
ENDBLK
  5
12F
330
12B
100
AcDbEntity
  8
0
100
AcDbBlockEnd
  0
BLOCK
  5
130
330
12D
100
AcDbEntity
  8
0
100
AcDbBlockBegin
  2
375NPTFT
 70
     0
 10
0.0
 20
0.0
 30
0.0
  3
375NPTFT
  1

  0
INSERT
  5
131
330
12D
100
AcDbEntity
  8
DAMAN
100
AcDbBlockReference
  2
100CROSS
 10
0.0
 20
0.0
 30
0.0
 41
0.6800000000000001
 42
0.6800000000000001
  0
CIRCLE
  5
132
330
12D
100
AcDbEntity
  8
DAMAN
100
AcDbCircle
 10
0.0
 20
0.0
 30
0.0
 40
0.3125
  0
CIRCLE
  5
133
330
12D
100
AcDbEntity
  8
DAMAN
100
AcDbCircle
 10
0.0
 20
0.0
 30
0.0
 40
0.281
  0
CIRCLE
  5
134
330
12D
100
AcDbEntity
  8
DAMAN
100
AcDbCircle
 10
0.0
 20
0.0
 30
0.0
 40
0.3439999999999999
  0
ENDBLK
  5
135
330
12D
100
AcDbEntity
  8
0
100
AcDbBlockEnd
  0
BLOCK
  5
137
330
136
100
AcDbEntity
  8
0
100
AcDbBlockBegin
  2
C102T
 70
     0
 10
0.0
 20
0.0
 30
0.0
  3
C102T
  1

  0
CIRCLE
  5
138
330
136
100
AcDbEntity
  8
DAMAN
100
AcDbCircle
 10
0.0
 20
0.0
 30
0.0
 40
0.4060000000000001
  0
INSERT
  5
139
330
136
100
AcDbEntity
  8
DAMAN
100
AcDbBlockReference
  2
100CROSS
 10
0.0
 20
0.0
 30
0.0
 41
1.199999999999999
 42
1.199999999999999
  0
CIRCLE
  5
13A
330
136
100
AcDbEntity
  8
DAMAN
100
AcDbCircle
 10
0.0
 20
0.0
 30
0.0
 40
0.594
  0
CIRCLE
  5
13B
330
136
100
AcDbEntity
  8
DAMAN
  6
HIDDEN
100
AcDbCircle
 10
0.0
 20
0.0
 30
0.0
 40
0.4375
  0
CIRCLE
  5
13C
330
136
100
AcDbEntity
  8
DAMAN
100
AcDbCircle
 10
0.0
 20
0.0
 30
0.0
 40
0.4725
  0
CIRCLE
  5
13D
330
136
100
AcDbEntity
  8
DAMAN
100
AcDbCircle
 10
0.0
 20
0.0
 30
0.0
 40
0.3125
  0
ENDBLK
  5
13E
330
136
100
AcDbEntity
  8
0
100
AcDbBlockEnd
  0
BLOCK
  5
140
330
13F
100
AcDbEntity
  8
0
100
AcDbBlockBegin
  2
06SAET
 70
     0
 10
0.0
 20
0.0
 30
0.0
  3
06SAET
  1

  0
INSERT
  5
141
330
13F
100
AcDbEntity
  8
DAMAN
100
AcDbBlockReference
  2
100CROSS
 10
0.0
 20
0.0
 30
0.0
  0
CIRCLE
  5
142
330
13F
100
AcDbEntity
  8
DAMAN
100
AcDbCircle
 10
0.0
 20
0.0
 30
0.0
 40
0.28125
  0
CIRCLE
  5
143
330
13F
100
AcDbEntity
  8
DAMAN
100
AcDbCircle
 10
0.0
 20
0.0
 30
0.0
 40
0.5
  0
CIRCLE
  5
144
330
13F
100
AcDbEntity
  8
DAMAN
100
AcDbCircle
 10
0.0
 20
0.0
 30
0.0
 40
0.25
  0
ENDBLK
  5
145
330
13F
100
AcDbEntity
  8
0
100
AcDbBlockEnd
  0
BLOCK
  5
147
330
146
100
AcDbEntity
  8
CDIM
100
AcDbBlockBegin
  2
025NPTFT
 70
     0
 10
11.75
 20
9.75
 30
0.0
  3
025NPTFT
  1

  0
INSERT
  5
148
330
146
100
AcDbEntity
  8
CCENTER
100
AcDbBlockReference
  2
100CROSS
 10
11.75
 20
9.75
 30
0.0
  0
CIRCLE
  5
149
330
146
100
AcDbEntity
  8
CHIDDEN
100
AcDbCircle
 10
11.75
 20
9.75
 30
0.0
 40
0.28125
  0
CIRCLE
  5
14A
330
146
100
AcDbEntity
  8
CSOLID
100
AcDbCircle
 10
11.75
 20
9.75
 30
0.0
 40
0.5
  0
CIRCLE
  5
14B
330
146
100
AcDbEntity
  8
CSOLID
100
AcDbCircle
 10
11.75
 20
9.75
 30
0.0
 40
0.25
  0
ENDBLK
  5
14C
330
146
100
AcDbEntity
  8
CDIM
100
AcDbBlockEnd
  0
BLOCK
  5
1C6
330
1BF
100
AcDbEntity
  8
0
100
AcDbBlockBegin
  2
M14T
 70
     0
 10
0.0
 20
0.0
 30
0.0
  3
M14T
  1

  0
CIRCLE
  5
1C0
330
1BF
100
AcDbEntity
  8
DAMAN
  6
HIDDEN
100
AcDbCircle
 10
0.0
 20
0.0
 30
0.0
 40
0.2755
  0
CIRCLE
  5
1C1
330
1BF
100
AcDbEntity
  8
DAMAN
100
AcDbCircle
 10
0.0
 20
0.0
 30
0.0
 40
0.4920000000000001
  0
CIRCLE
  5
1C2
330
1BF
100
AcDbEntity
  8
DAMAN
100
AcDbCircle
 10
0.0
 20
0.0
 30
0.0
 40
0.413
  0
CIRCLE
  5
1C3
330
1BF
100
AcDbEntity
  8
DAMAN
100
AcDbCircle
 10
0.0
 20
0.0
 30
0.0
 40
0.311
  0
CIRCLE
  5
1C4
330
1BF
100
AcDbEntity
  8
DAMAN
100
AcDbCircle
 10
0.0
 20
0.0
 30
0.0
 40
0.25
  0
INSERT
  5
1C5
330
1BF
100
AcDbEntity
  8
DAMAN
100
AcDbBlockReference
  2
100CROSS
 10
0.0
 20
0.0
 30
0.0
 41
0.8259999999999998
 42
0.8259999999999998
  0
ENDBLK
  5
1C7
330
1BF
100
AcDbEntity
  8
0
100
AcDbBlockEnd
  0
BLOCK
  5
283
330
27B
100
AcDbEntity
  8
0
100
AcDbBlockBegin
  2
T10AT
 70
     0
 10
0.0
 20
0.0
 30
0.0
  3
T10AT
  1

  0
CIRCLE
  5
27C
330
27B
100
AcDbEntity
  8
DAMAN
100
AcDbCircle
 10
0.0
 20
0.0
 30
0.0
 40
0.365
  0
CIRCLE
  5
27D
330
27B
100
AcDbEntity
  8
DAMAN
100
AcDbCircle
 10
0.0
 20
0.0
 30
0.0
 40
0.3435
  0
CIRCLE
  5
27E
330
27B
100
AcDbEntity
  8
DAMAN
  6
HIDDEN
100
AcDbCircle
 10
0.0
 20
0.0
 30
0.0
 40
0.3937
  0
INSERT
  5
27F
330
27B
100
AcDbEntity
  8
DAMAN
100
AcDbBlockReference
  2
100CROSS
 10
0.0
 20
0.0
 30
0.0
 41
0.88
 42
0.88
  0
CIRCLE
  5
280
330
27B
100
AcDbEntity
  8
DAMAN
100
AcDbCircle
 10
0.0
 20
0.0
 30
0.0
 40
0.4060000000000001
  0
CIRCLE
  5
281
330
27B
100
AcDbEntity
  8
DAMAN
100
AcDbCircle
 10
0.0
 20
0.0
 30
0.0
 40
0.4295
  0
CIRCLE
  5
282
330
27B
100
AcDbEntity
  8
DAMAN
100
AcDbCircle
 10
0.0
 20
0.0
 30
0.0
 40
0.281
  0
ENDBLK
  5
284
330
27B
100
AcDbEntity
  8
0
100
AcDbBlockEnd
  0
ENDSEC
  0
SECTION
  2
ENTITIES
  0
INSERT
  5
14D
330
1E
100
AcDbEntity
  8
DAMAN
100
AcDbBlockReference
  2
100CROSS
 10
19.28125
 20
8.625
 30
0.0
 41
0.5
 42
0.5
  0
CIRCLE
  5
14E
330
1E
100
AcDbEntity
  8
DAMAN
100
AcDbCircle
 10
19.28125
 20
8.625
 30
0.0
 40
0.172
  0
CIRCLE
  5
14F
330
1E
100
AcDbEntity
  8
DAMAN
100
AcDbCircle
 10
16.90625
 20
11.0
 30
0.0
 40
0.172
  0
INSERT
  5
150
330
1E
100
AcDbEntity
  8
DAMAN
100
AcDbBlockReference
  2
100CROSS
 10
16.90625
 20
11.0
 30
0.0
 41
0.5
 42
0.5
  0
CIRCLE
  5
151
330
1E
100
AcDbEntity
  8
DAMAN
100
AcDbCircle
 10
11.03125
 20
11.0
 30
0.0
 40
0.172
  0
INSERT
  5
152
330
1E
100
AcDbEntity
  8
DAMAN
100
AcDbBlockReference
  2
100CROSS
 10
11.03125
 20
11.0
 30
0.0
 41
0.5
 42
0.5
  0
CIRCLE
  5
153
330
1E
100
AcDbEntity
  8
DAMAN
100
AcDbCircle
 10
11.03125
 20
11.0
 30
0.0
 40
0.25
  0
CIRCLE
  5
154
330
1E
100
AcDbEntity
  8
DAMAN
100
AcDbCircle
 10
8.65625
 20
8.625
 30
0.0
 40
0.25
  0
CIRCLE
  5
155
330
1E
100
AcDbEntity
  8
DAMAN
100
AcDbCircle
 10
8.65625
 20
8.625
 30
0.0
 40
0.172
  0
INSERT
  5
156
330
1E
100
AcDbEntity
  8
DAMAN
100
AcDbBlockReference
  2
100CROSS
 10
8.65625
 20
8.625
 30
0.0
 41
0.5
 42
0.5
  0
INSERT
  5
158
330
1E
100
AcDbEntity
  8
DAMAN
100
AcDbBlockReference
  2
BOX
 10
16.59375
 20
8.3125
 30
0.0
 41
3.0
 42
3.0
  0
INSERT
  5
15A
330
1E
100
AcDbEntity
  8
DAMAN
100
AcDbBlockReference
  2
BOX
 10
8.34375
 20
8.3125
 30
0.0
 41
3.0
 42
3.0
  0
CIRCLE
  5
15D
330
1E
100
AcDbEntity
  8
DAMAN
100
AcDbCircle
 10
9.079375
 20
8.856249999999997
 30
0.0
 40
0.0855
  0
INSERT
  5
15E
330
1E
100
AcDbEntity
  8
DAMAN
100
AcDbBlockReference
  2
100CROSS
 10
9.079375
 20
8.856249999999997
 30
0.0
 41
0.171
 42
0.171
  0
INSERT
  5
15F
330
1E
100
AcDbEntity
  8
DAMAN
100
AcDbBlockReference
  2
100CROSS
 10
9.719374999999999
 20
8.96875
 30
0.0
 41
0.25
 42
0.25
  0
CIRCLE
  5
160
330
1E
100
AcDbEntity
  8
DAMAN
100
AcDbCircle
 10
9.719374999999999
 20
8.96875
 30
0.0
 40
0.125
  0
CIRCLE
  5
161
330
1E
100
AcDbEntity
  8
DAMAN
100
AcDbCircle
 10
9.312875
 20
9.31225
 30
0.0
 40
0.125
  0
INSERT
  5
162
330
1E
100
AcDbEntity
  8
DAMAN
100
AcDbBlockReference
  2
100CROSS
 10
9.312875
 20
9.31225
 30
0.0
 41
0.25
 42
0.25
  0
INSERT
  5
163
330
1E
100
AcDbEntity
  8
DAMAN
100
AcDbBlockReference
  2
100CROSS
 10
10.125375
 20
9.31225
 30
0.0
 41
0.25
 42
0.25
  0
CIRCLE
  5
164
330
1E
100
AcDbEntity
  8
DAMAN
100
AcDbCircle
 10
10.125375
 20
9.31225
 30
0.0
 40
0.125
  0
CIRCLE
  5
165
330
1E
100
AcDbEntity
  8
DAMAN
100
AcDbCircle
 10
9.719374999999999
 20
9.65625
 30
0.0
 40
0.125
  0
INSERT
  5
166
330
1E
100
AcDbEntity
  8
DAMAN
100
AcDbBlockReference
  2
100CROSS
 10
9.719374999999999
 20
9.65625
 30
0.0
 41
0.25
 42
0.25
  0
CIRCLE
  5
167
330
1E
100
AcDbEntity
  8
DAMAN
100
AcDbCircle
 10
9.079375
 20
8.5625
 30
0.0
 40
0.078
  0
CIRCLE
  5
168
330
1E
100
AcDbEntity
  8
DAMAN
100
AcDbCircle
 10
10.35937499999999
 20
8.5625
 30
0.0
 40
0.078
  0
CIRCLE
  5
169
330
1E
100
AcDbEntity
  8
DAMAN
100
AcDbCircle
 10
10.329375
 20
10.15625
 30
0.0
 40
0.078
  0
CIRCLE
  5
16A
330
1E
100
AcDbEntity
  8
DAMAN
100
AcDbCircle
 10
9.109375
 20
10.15625
 30
0.0
 40
0.078
  0
INSERT
  5
16B
330
1E
100
AcDbEntity
  8
DAMAN
100
AcDbBlockReference
  2
100CROSS
 10
9.079375
 20
8.56225
 30
0.0
 41
0.188
 42
0.188
  0
INSERT
  5
16C
330
1E
100
AcDbEntity
  8
DAMAN
100
AcDbBlockReference
  2
100CROSS
 10
10.35937499999999
 20
8.56225
 30
0.0
 41
0.188
 42
0.188
  0
INSERT
  5
16D
330
1E
100
AcDbEntity
  8
DAMAN
100
AcDbBlockReference
  2
100CROSS
 10
10.329375
 20
10.15625
 30
0.0
 41
0.188
 42
0.188
  0
INSERT
  5
16E
330
1E
100
AcDbEntity
  8
DAMAN
100
AcDbBlockReference
  2
100CROSS
 10
9.109375
 20
10.15625
 30
0.0
 41
0.188
 42
0.188
  0
CIRCLE
  5
16F
330
1E
100
AcDbEntity
  8
DAMAN
100
AcDbCircle
 10
9.079375
 20
8.56225
 30
0.0
 40
0.095
  0
CIRCLE
  5
170
330
1E
100
AcDbEntity
  8
DAMAN
100
AcDbCircle
 10
10.35937499999999
 20
8.56225
 30
0.0
 40
0.095
  0
CIRCLE
  5
171
330
1E
100
AcDbEntity
  8
DAMAN
100
AcDbCircle
 10
9.109375
 20
10.15625
 30
0.0
 40
0.095
  0
CIRCLE
  5
172
330
1E
100
AcDbEntity
  8
DAMAN
100
AcDbCircle
 10
10.329375
 20
10.15625
 30
0.0
 40
0.095
  0
TEXT
  5
173
330
1E
100
AcDbEntity
  8
DAMAN
100
AcDbText
 10
6.53125
 20
10.1875
 30
0.0
 40
0.25
  1
T
 50
270.0
  7
STR
100
AcDbText
  0
TEXT
  5
174
330
1E
100
AcDbEntity
  8
DAMAN
100
AcDbText
 10
6.53125
 20
8.8125
 30
0.0
 40
0.25
  1
P
 50
270.0
  7
STR
100
AcDbText
  0
TEXT
  5
175
330
1E
100
AcDbEntity
  8
DAMAN
100
AcDbText
 10
13.21875
 20
10.28124999999999
 30
0.0
 40
0.25
  1
A
 50
90.0
  7
STR
100
AcDbText
  0
TEXT
  5
176
330
1E
100
AcDbEntity
  8
DAMAN
100
AcDbText
 10
13.84375
 20
8.375
 30
0.0
 40
0.25
  1
B
 50
90.0
  7
STR
100
AcDbText
  0
TEXT
  5
177
330
1E
100
AcDbEntity
  8
DAMAN
100
AcDbText
 10
17.40625
 20
9.90625
 30
0.0
 40
0.25
  1
T
  7
STR
100
AcDbText
  0
TEXT
  5
178
330
1E
100
AcDbEntity
  8
DAMAN
100
AcDbText
 10
17.8125
 20
9.40625
 30
0.0
 40
0.25
  1
P
  7
STR
100
AcDbText
  0
TEXT
  5
17B
330
1E
100
AcDbEntity
  8
DAMAN
100
AcDbText
 10
8.71875
 20
6.21875
 30
0.0
 40
0.188
  1
DAMAN ****
100
AcDbText
  0
LINE
  5
184
330
1E
100
AcDbEntity
  8
DAMAN
100
AcDbLine
 10
8.34375
 20
4.5625
 30
0.0
 11
11.34375
 21
4.5625
 31
0.0
  0
LINE
  5
185
330
1E
100
AcDbEntity
  8
DAMAN
100
AcDbLine
 10
11.34375
 20
4.5625
 30
0.0
 11
11.34375
 21
6.8125
 31
0.0
  0
LINE
  5
186
330
1E
100
AcDbEntity
  8
DAMAN
100
AcDbLine
 10
11.34375
 20
6.8125
 30
0.0
 11
8.34375
 21
6.8125
 31
0.0
  0
LINE
  5
187
330
1E
100
AcDbEntity
  8
DAMAN
100
AcDbLine
 10
8.34375
 20
6.8125
 30
0.0
 11
8.34375
 21
4.5625
 31
0.0
  0
LINE
  5
188
330
1E
100
AcDbEntity
  8
DAMAN
100
AcDbLine
 10
4.59375
 20
11.3125
 30
0.0
 11
6.84375
 21
11.3125
 31
0.0
  0
LINE
  5
189
330
1E
100
AcDbEntity
  8
DAMAN
100
AcDbLine
 10
6.84375
 20
11.3125
 30
0.0
 11
6.84375
 21
8.3125
 31
0.0
  0
LINE
  5
18A
330
1E
100
AcDbEntity
  8
DAMAN
100
AcDbLine
 10
6.84375
 20
8.3125
 30
0.0
 11
4.59375
 21
8.3125
 31
0.0
  0
LINE
  5
18B
330
1E
100
AcDbEntity
  8
DAMAN
100
AcDbLine
 10
4.59375
 20
8.3125
 30
0.0
 11
4.59375
 21
11.3125
 31
0.0
  0
LINE
  5
18C
330
1E
100
AcDbEntity
  8
DAMAN
100
AcDbLine
 10
8.34375
 20
15.0625
 30
0.0
 11
11.34375
 21
15.0625
 31
0.0
  0
LINE
  5
18D
330
1E
100
AcDbEntity
  8
DAMAN
100
AcDbLine
 10
11.34375
 20
15.0625
 30
0.0
 11
11.34375
 21
12.8125
 31
0.0
  0
LINE
  5
18E
330
1E
100
AcDbEntity
  8
DAMAN
100
AcDbLine
 10
11.34375
 20
12.8125
 30
0.0
 11
8.34375
 21
12.8125
 31
0.0
  0
LINE
  5
18F
330
1E
100
AcDbEntity
  8
DAMAN
100
AcDbLine
 10
8.34375
 20
12.8125
 30
0.0
 11
8.34375
 21
15.0625
 31
0.0
  0
LINE
  5
190
330
1E
100
AcDbEntity
  8
DAMAN
100
AcDbLine
 10
12.84375
 20
11.3125
 30
0.0
 11
15.09375
 21
11.3125
 31
0.0
  0
LINE
  5
191
330
1E
100
AcDbEntity
  8
DAMAN
100
AcDbLine
 10
15.09375
 20
11.3125
 30
0.0
 11
15.09375
 21
8.3125
 31
0.0
  0
LINE
  5
192
330
1E
100
AcDbEntity
  8
DAMAN
100
AcDbLine
 10
15.09375
 20
8.3125
 30
0.0
 11
12.84375
 21
8.3125
 31
0.0
  0
LINE
  5
193
330
1E
100
AcDbEntity
  8
DAMAN
100
AcDbLine
 10
12.84375
 20
8.3125
 30
0.0
 11
12.84375
 21
11.3125
 31
0.0
  0
INSERT
  5
24C
330
1E
100
AcDbEntity
  8
DAMAN
100
AcDbBlockReference
  2
06SAET
 10
6.25
 20
10.625
 30
0.0
  0
INSERT
  5
24D
330
1E
100
AcDbEntity
  8
DAMAN
100
AcDbBlockReference
  2
06SAET
 10
6.25
 20
9.3125
 30
0.0
  0
INSERT
  5
24E
330
1E
100
AcDbEntity
  8
DAMAN
100
AcDbBlockReference
  2
06SAET
 10
18.6251
 20
9.3125
 30
0.0
  0
INSERT
  5
24F
330
1E
100
AcDbEntity
  8
DAMAN
100
AcDbBlockReference
  2
06SAET
 10
17.90619999999998
 20
10.625
 30
0.0
  0
INSERT
  5
250
330
1E
100
AcDbEntity
  8
DAMAN
100
AcDbBlockReference
  2
06SAET
 10
13.4687
 20
9.7812
 30
0.0
  0
INSERT
  5
251
330
1E
100
AcDbEntity
  8
DAMAN
100
AcDbBlockReference
  2
06SAET
 10
14.2187
 20
8.9374
 30
0.0
  0
INSERT
  5
28A
330
1E
100
AcDbEntity
  8
DAMAN
100
AcDbBlockReference
  2
T10AT
 10
9.1875
 20
14.1875
 30
0.0
  0
ENDSEC
  0
SECTION
  2
OBJECTS
  0
DICTIONARY
  5
C
330
0
100
AcDbDictionary
  3
ACAD_GROUP
350
D
  3
ACAD_LAYOUT
350
19
  3
ACAD_MLINESTYLE
350
16
  3
ACAD_PLOTSETTINGS
350
18
  3
ACAD_PLOTSTYLENAME
350
E
  3
ACDBHEADERROUNDTRIPXREC
350
28C
  0
DICTIONARY
  5
1B7
330
1E
100
AcDbDictionary
280
     1
  3
ACAD_LAYOUTSELFREF
360
2AD
  0
DICTIONARY
  5
1B5
330
1A
100
AcDbDictionary
280
     1
  3
ACAD_LAYOUTSELFREF
360
2AC
  0
DICTIONARY
  5
D
102
{ACAD_REACTORS
330
C
102
}
330
C
100
AcDbDictionary
  0
DICTIONARY
  5
19
102
{ACAD_REACTORS
330
C
102
}
330
C
100
AcDbDictionary
  0
DICTIONARY
  5
16
102
{ACAD_REACTORS
330
C
102
}
330
C
100
AcDbDictionary
  3
STANDARD
350
17
  0
DICTIONARY
  5
18
102
{ACAD_REACTORS
330
C
102
}
330
C
100
AcDbDictionary
  0
ACDBDICTIONARYWDFLT
  5
E
102
{ACAD_REACTORS
330
C
102
}
330
C
100
AcDbDictionary
281
     1
  3
Normal
350
F
100
AcDbDictionaryWithDefault
340
F
  0
DICTIONARY
  5
28C
102
{ACAD_REACTORS
330
C
102
}
330
C
100
AcDbDictionary
  3
CEPSNTYPE
350
296
  3
FINGERPRINTGUID
350
297
  3
HYPERLINKBASE
350
28F
  3
INSUNITS
350
295
  3
LAYOUTDICT
350
291
  3
LWETCUNION
350
294
  3
PLOTSETDICT
350
292
  3
PLOTSTYLNAMDICT
350
293
  3
PSVPSCALE
350
299
  3
PUCSBASE
350
29C
  3
PUCSORGBACK
350
2A2
  3
PUCSORGBOTTOM
350
29E
  3
PUCSORGFRONT
350
2A1
  3
PUCSORGLEFT
350
29F
  3
PUCSORGRIGHT
350
2A0
  3
PUCSORGTOP
350
29D
  3
PUCSORTHOREF
350
29A
  3
PUCSORTHOVIEW
350
29B
  3
STYLESHEET
350
290
  3
TSTACKALIGN
350
28D
  3
TSTACKSIZE
350
28E
  3
UCSBASE
350
2A5
  3
UCSORGBACK
350
2AB
  3
UCSORGBOTTOM
350
2A7
  3
UCSORGFRONT
350
2AA
  3
UCSORGLEFT
350
2A8
  3
UCSORGRIGHT
350
2A9
  3
UCSORGTOP
350
2A6
  3
UCSORTHOREF
350
2A3
  3
UCSORTHOVIEW
350
2A4
  3
VERSIONGUID
350
298
  0
XRECORD
  5
2AD
102
{ACAD_REACTORS
330
1B7
102
}
330
1B7
100
AcDbXrecord
340
1E
  0
XRECORD
  5
2AC
102
{ACAD_REACTORS
330
1B5
102
}
330
1B5
100
AcDbXrecord
340
1A
  0
MLINESTYLE
  5
17
102
{ACAD_REACTORS
330
16
102
}
330
16
100
AcDbMlineStyle
  2
STANDARD
 70
     0
  3

 62
   256
 51
90.0
 52
90.0
 71
     2
 49
0.5
 62
   256
  6
BYLAYER
 49
-0.5
 62
   256
  6
BYLAYER
  0
ACDBPLACEHOLDER
  5
F
102
{ACAD_REACTORS
330
E
102
}
330
E
100
AcDbPlaceHolder
280
     0
  0
XRECORD
  5
296
102
{ACAD_REACTORS
330
28C
102
}
330
28C
100
AcDbXrecord
 90
        0
  0
XRECORD
  5
297
102
{ACAD_REACTORS
330
28C
102
}
330
28C
100
AcDbXrecord
  1
{AD1E00D6-28DC-412A-9AFB-87E09C92BFE6}
  0
XRECORD
  5
28F
102
{ACAD_REACTORS
330
28C
102
}
330
28C
100
AcDbXrecord
  1

  0
XRECORD
  5
295
102
{ACAD_REACTORS
330
28C
102
}
330
28C
100
AcDbXrecord
 90
        0
  0
XRECORD
  5
291
102
{ACAD_REACTORS
330
28C
102
}
330
28C
100
AcDbXrecord
340
19
  0
XRECORD
  5
294
102
{ACAD_REACTORS
330
28C
102
}
330
28C
100
AcDbXrecord
 90
    10781
  0
XRECORD
  5
292
102
{ACAD_REACTORS
330
28C
102
}
330
28C
100
AcDbXrecord
340
18
  0
XRECORD
  5
293
102
{ACAD_REACTORS
330
28C
102
}
330
28C
100
AcDbXrecord
340
E
  0
XRECORD
  5
299
102
{ACAD_REACTORS
330
28C
102
}
330
28C
100
AcDbXrecord
 40
0.0
  0
XRECORD
  5
29C
102
{ACAD_REACTORS
330
28C
102
}
330
28C
100
AcDbXrecord
340
0
  0
XRECORD
  5
2A2
102
{ACAD_REACTORS
330
28C
102
}
330
28C
100
AcDbXrecord
 10
0.0
 20
0.0
 30
0.0
  0
XRECORD
  5
29E
102
{ACAD_REACTORS
330
28C
102
}
330
28C
100
AcDbXrecord
 10
0.0
 20
0.0
 30
0.0
  0
XRECORD
  5
2A1
102
{ACAD_REACTORS
330
28C
102
}
330
28C
100
AcDbXrecord
 10
0.0
 20
0.0
 30
0.0
  0
XRECORD
  5
29F
102
{ACAD_REACTORS
330
28C
102
}
330
28C
100
AcDbXrecord
 10
0.0
 20
0.0
 30
0.0
  0
XRECORD
  5
2A0
102
{ACAD_REACTORS
330
28C
102
}
330
28C
100
AcDbXrecord
 10
0.0
 20
0.0
 30
0.0
  0
XRECORD
  5
29D
102
{ACAD_REACTORS
330
28C
102
}
330
28C
100
AcDbXrecord
 10
0.0
 20
0.0
 30
0.0
  0
XRECORD
  5
29A
102
{ACAD_REACTORS
330
28C
102
}
330
28C
100
AcDbXrecord
340
0
  0
XRECORD
  5
29B
102
{ACAD_REACTORS
330
28C
102
}
330
28C
100
AcDbXrecord
 70
     0
  0
XRECORD
  5
290
102
{ACAD_REACTORS
330
28C
102
}
330
28C
100
AcDbXrecord
  1

  0
XRECORD
  5
28D
102
{ACAD_REACTORS
330
28C
102
}
330
28C
100
AcDbXrecord
 90
        1
  0
XRECORD
  5
28E
102
{ACAD_REACTORS
330
28C
102
}
330
28C
100
AcDbXrecord
 90
       70
  0
XRECORD
  5
2A5
102
{ACAD_REACTORS
330
28C
102
}
330
28C
100
AcDbXrecord
340
0
  0
XRECORD
  5
2AB
102
{ACAD_REACTORS
330
28C
102
}
330
28C
100
AcDbXrecord
 10
0.0
 20
0.0
 30
0.0
  0
XRECORD
  5
2A7
102
{ACAD_REACTORS
330
28C
102
}
330
28C
100
AcDbXrecord
 10
0.0
 20
0.0
 30
0.0
  0
XRECORD
  5
2AA
102
{ACAD_REACTORS
330
28C
102
}
330
28C
100
AcDbXrecord
 10
0.0
 20
0.0
 30
0.0
  0
XRECORD
  5
2A8
102
{ACAD_REACTORS
330
28C
102
}
330
28C
100
AcDbXrecord
 10
0.0
 20
0.0
 30
0.0
  0
XRECORD
  5
2A9
102
{ACAD_REACTORS
330
28C
102
}
330
28C
100
AcDbXrecord
 10
0.0
 20
0.0
 30
0.0
  0
XRECORD
  5
2A6
102
{ACAD_REACTORS
330
28C
102
}
330
28C
100
AcDbXrecord
 10
0.0
 20
0.0
 30
0.0
  0
XRECORD
  5
2A3
102
{ACAD_REACTORS
330
28C
102
}
330
28C
100
AcDbXrecord
340
0
  0
XRECORD
  5
2A4
102
{ACAD_REACTORS
330
28C
102
}
330
28C
100
AcDbXrecord
 70
     0
  0
XRECORD
  5
298
102
{ACAD_REACTORS
330
28C
102
}
330
28C
100
AcDbXrecord
  1
{2095B219-3A47-4E94-9839-5B97B16F77C1}
  0
ENDSEC
  0
EOF
