  0
SECTION
  2
HEADER
  9
$ACADVER
  1
AC1009
  9
$INSBASE
 10
0.0
 20
0.0
 30
0.0
  9
$EXTMIN
 10
3.284507
 20
3.5625
 30
0.0
  9
$EXTMAX
 10
15.48215
 20
11.437525
 30
0.0
  9
$LIMMIN
 10
0.0
 20
0.0
  9
$LIMMAX
 10
12.0
 20
9.0
  9
$ORTHOMODE
 70
     0
  9
$REGENMODE
 70
     1
  9
$FILLMODE
 70
     1
  9
$QTEXTMODE
 70
     0
  9
$MIRRTEXT
 70
     1
  9
$DRAGMODE
 70
     2
  9
$LTSCALE
 40
1.0
  9
$OSMODE
 70
     0
  9
$ATTMODE
 70
     1
  9
$TEXTSIZE
 40
0.188
  9
$TRACEWID
 40
0.05
  9
$TEXTSTYLE
  7
STANDARD
  9
$CLAYER
  8
DAMAN
  9
$CELTYPE
  6
BYLAYER
  9
$CECOLOR
 62
   256
  9
$DIMSCALE
 40
1.0
  9
$DIMASZ
 40
0.18
  9
$DIMEXO
 40
0.0625
  9
$DIMDLI
 40
0.38
  9
$DIMRND
 40
0.0
  9
$DIMDLE
 40
0.0
  9
$DIMEXE
 40
0.18
  9
$DIMTP
 40
0.0
  9
$DIMTM
 40
0.0
  9
$DIMTXT
 40
0.18
  9
$DIMCEN
 40
0.09
  9
$DIMTSZ
 40
0.0
  9
$DIMTOL
 70
     0
  9
$DIMLIM
 70
     0
  9
$DIMTIH
 70
     1
  9
$DIMTOH
 70
     1
  9
$DIMSE1
 70
     0
  9
$DIMSE2
 70
     0
  9
$DIMTAD
 70
     0
  9
$DIMZIN
 70
     0
  9
$DIMBLK
  1

  9
$DIMASO
 70
     1
  9
$DIMSHO
 70
     1
  9
$DIMPOST
  1

  9
$DIMAPOST
  1

  9
$DIMALT
 70
     0
  9
$DIMALTD
 70
     2
  9
$DIMALTF
 40
25.4
  9
$DIMLFAC
 40
1.0
  9
$DIMTOFL
 70
     0
  9
$DIMTVP
 40
0.0
  9
$DIMTIX
 70
     0
  9
$DIMSOXD
 70
     0
  9
$DIMSAH
 70
     0
  9
$DIMBLK1
  1

  9
$DIMBLK2
  1

  9
$DIMSTYLE
  2
*UNNAMED
  9
$DIMCLRD
 70
     0
  9
$DIMCLRE
 70
     0
  9
$DIMCLRT
 70
     0
  9
$DIMTFAC
 40
1.0
  9
$DIMGAP
 40
0.09
  9
$LUNITS
 70
     2
  9
$LUPREC
 70
     4
  9
$SKETCHINC
 40
0.1
  9
$FILLETRAD
 40
0.0
  9
$AUNITS
 70
     0
  9
$AUPREC
 70
     0
  9
$MENU
  1
tom
  9
$ELEVATION
 40
0.0
  9
$PELEVATION
 40
0.0
  9
$THICKNESS
 40
0.0
  9
$LIMCHECK
 70
     0
  9
$BLIPMODE
 70
     1
  9
$CHAMFERA
 40
0.0
  9
$CHAMFERB
 40
0.0
  9
$SKPOLY
 70
     0
  9
$TDCREATE
 40
2449739.531860162
  9
$TDUPDATE
 40
2449739.531860162
  9
$TDINDWG
 40
0.0000000000
  9
$TDUSRTIMER
 40
0.0000000000
  9
$USRTIMER
 70
     1
  9
$ANGBASE
 50
0.0
  9
$ANGDIR
 70
     0
  9
$PDMODE
 70
     0
  9
$PDSIZE
 40
0.0
  9
$PLINEWID
 40
0.0
  9
$COORDS
 70
     1
  9
$SPLFRAME
 70
     0
  9
$SPLINETYPE
 70
     6
  9
$SPLINESEGS
 70
     8
  9
$ATTDIA
 70
     0
  9
$ATTREQ
 70
     1
  9
$HANDLING
 70
     0
  9
$HANDSEED
  5
0
  9
$SURFTAB1
 70
     6
  9
$SURFTAB2
 70
     6
  9
$SURFTYPE
 70
     6
  9
$SURFU
 70
     6
  9
$SURFV
 70
     6
  9
$UCSNAME
  2

  9
$UCSORG
 10
0.0
 20
0.0
 30
0.0
  9
$UCSXDIR
 10
1.0
 20
0.0
 30
0.0
  9
$UCSYDIR
 10
0.0
 20
1.0
 30
0.0
  9
$PUCSNAME
  2

  9
$PUCSORG
 10
0.0
 20
0.0
 30
0.0
  9
$PUCSXDIR
 10
1.0
 20
0.0
 30
0.0
  9
$PUCSYDIR
 10
0.0
 20
1.0
 30
0.0
  9
$USERI1
 70
     0
  9
$USERI2
 70
     0
  9
$USERI3
 70
     0
  9
$USERI4
 70
     0
  9
$USERI5
 70
     0
  9
$USERR1
 40
0.0
  9
$USERR2
 40
0.0
  9
$USERR3
 40
0.0
  9
$USERR4
 40
0.0
  9
$USERR5
 40
0.0
  9
$WORLDVIEW
 70
     1
  9
$SHADEDGE
 70
     3
  9
$SHADEDIF
 70
    70
  9
$TILEMODE
 70
     1
  9
$MAXACTVP
 70
    16
  9
$PINSBASE
 10
0.0
 20
0.0
 30
0.0
  9
$PLIMCHECK
 70
     0
  9
$PEXTMIN
 10
1.000000E+20
 20
1.000000E+20
 30
1.000000E+20
  9
$PEXTMAX
 10
-1.000000E+20
 20
-1.000000E+20
 30
-1.000000E+20
  9
$PLIMMIN
 10
0.0
 20
0.0
  9
$PLIMMAX
 10
12.0
 20
9.0
  9
$UNITMODE
 70
     0
  9
$VISRETAIN
 70
     0
  9
$PLINEGEN
 70
     0
  9
$PSLTSCALE
 70
     1
  9
$TREEDEPTH
 70
  3020
  9
$DWGCODEPAGE
  3
ascii
  0
ENDSEC
  0
SECTION
  2
TABLES
  0
TABLE
  2
VPORT
 70
     2
  0
VPORT
  2
*ACTIVE
 70
     0
 10
0.0
 20
0.0
 11
1.0
 21
1.0
 12
9.59375
 22
8.46875
 13
0.0
 23
0.0
 14
0.03125
 24
0.03125
 15
0.0
 25
0.0
 16
0.0
 26
0.0
 36
1.0
 17
0.0
 27
0.0
 37
0.0
 40
11.437525
 41
1.365662
 42
50.0
 43
0.0
 44
0.0
 50
0.0
 51
0.0
 71
     0
 72
   100
 73
     1
 74
     1
 75
     1
 76
     0
 77
     0
 78
     0
  0
ENDTAB
  0
TABLE
  2
LTYPE
 70
     3
  0
LTYPE
  2
CONTINUOUS
 70
    64
  3
Solid line
 72
    65
 73
     0
 40
0.0
  0
LTYPE
  2
HIDDEN
 70
    64
  3
_ _ _ _ _ _ _ _ _ _ _ _ _ _ _ _ _ _ _ _ _ _ _
 72
    65
 73
     2
 40
0.375
 49
0.25
 49
-0.125
  0
LTYPE
  2
CENTER
 70
    64
  3
____ _ ____ _ ____ _ ____ _ ____ _ ____ _ ____
 72
    65
 73
     4
 40
2.0
 49
1.25
 49
-0.25
 49
0.25
 49
-0.25
  0
ENDTAB
  0
TABLE
  2
LAYER
 70
     7
  0
LAYER
  2
0
 70
     0
 62
     7
  6
CONTINUOUS
  0
LAYER
  2
DAMAN
 70
     0
 62
     5
  6
CONTINUOUS
  0
LAYER
  2
BORDER
 70
    64
 62
     7
  6
CONTINUOUS
  0
LAYER
  2
CSOLID
 70
    64
 62
     3
  6
CONTINUOUS
  0
LAYER
  2
CHIDDEN
 70
    64
 62
     3
  6
HIDDEN
  0
LAYER
  2
CDIM
 70
    64
 62
     2
  6
CONTINUOUS
  0
LAYER
  2
CCENTER
 70
    64
 62
     4
  6
CENTER
  0
ENDTAB
  0
TABLE
  2
STYLE
 70
     2
  0
STYLE
  2
STANDARD
 70
    64
 40
0.0
 41
1.0
 50
0.0
 71
     0
 42
0.188
  3
txt
  4

  0
STYLE
  2
STR
 70
    64
 40
0.0
 41
1.0
 50
0.0
 71
     0
 42
0.25
  3
SIMPLEX
  4

  0
ENDTAB
  0
TABLE
  2
VIEW
 70
     0
  0
ENDTAB
  0
TABLE
  2
UCS
 70
     0
  0
ENDTAB
  0
TABLE
  2
APPID
 70
     1
  0
APPID
  2
ACAD
 70
    64
  0
ENDTAB
  0
TABLE
  2
DIMSTYLE
 70
     0
  0
ENDTAB
  0
ENDSEC
  0
SECTION
  2
BLOCKS
  0
BLOCK
  8
0
  2
D03SPB
 70
    64
 10
0.0
 20
0.0
 30
0.0
  3
D03SPB
  0
POLYLINE
  8
BORDER
 66
     1
 10
0.0
 20
0.0
 30
0.0
 70
     1
  0
VERTEX
  8
BORDER
 10
8.0
 20
6.0
 30
0.0
  0
VERTEX
  8
BORDER
 10
8.0
 20
8.5
 30
0.0
  0
VERTEX
  8
BORDER
 10
9.0
 20
8.5
 30
0.0
  0
VERTEX
  8
BORDER
 10
9.0
 20
6.0
 30
0.0
  0
SEQEND
  8
BORDER
  0
POLYLINE
  8
BORDER
 66
     1
 10
0.0
 20
0.0
 30
0.0
 70
     1
  0
VERTEX
  8
BORDER
 10
3.5
 20
6.0
 30
0.0
  0
VERTEX
  8
BORDER
 10
3.5
 20
8.5
 30
0.0
  0
VERTEX
  8
BORDER
 10
6.0
 20
8.5
 30
0.0
  0
VERTEX
  8
BORDER
 10
6.0
 20
6.0
 30
0.0
  0
SEQEND
  8
BORDER
  0
POLYLINE
  8
BORDER
 66
     1
 10
0.0
 20
0.0
 30
0.0
 70
     1
  0
VERTEX
  8
BORDER
 10
11.5
 20
6.0
 30
0.0
  0
VERTEX
  8
BORDER
 10
11.5
 20
8.5
 30
0.0
  0
VERTEX
  8
BORDER
 10
14.0
 20
8.5
 30
0.0
  0
VERTEX
  8
BORDER
 10
14.0
 20
6.0
 30
0.0
  0
SEQEND
  8
BORDER
  0
CIRCLE
  8
CSOLID
 10
4.141875
 20
6.73125
 30
0.0
 40
0.0855
  0
INSERT
  8
CCENTER
  2
100CROSS
 10
4.141875
 20
6.73125
 30
0.0
 41
0.171
 42
0.171
 43
0.0
  0
INSERT
  8
CCENTER
  2
100CROSS
 10
4.781875
 20
6.84375
 30
0.0
 41
0.25
 42
0.25
 43
0.0
  0
CIRCLE
  8
CSOLID
 10
4.781875
 20
6.84375
 30
0.0
 40
0.125
  0
CIRCLE
  8
CSOLID
 10
4.375375
 20
7.18725
 30
0.0
 40
0.125
  0
INSERT
  8
CCENTER
  2
100CROSS
 10
4.375375
 20
7.18725
 30
0.0
 41
0.25
 42
0.25
 43
0.0
  0
INSERT
  8
CCENTER
  2
100CROSS
 10
5.187875
 20
7.18725
 30
0.0
 41
0.25
 42
0.25
 43
0.0
  0
CIRCLE
  8
CSOLID
 10
5.187875
 20
7.18725
 30
0.0
 40
0.125
  0
CIRCLE
  8
CSOLID
 10
4.781875
 20
7.53125
 30
0.0
 40
0.125
  0
INSERT
  8
CCENTER
  2
100CROSS
 10
4.781875
 20
7.53125
 30
0.0
 41
0.25
 42
0.25
 43
0.0
  0
CIRCLE
  8
CSOLID
 10
4.141875
 20
6.4375
 30
0.0
 40
0.078
  0
CIRCLE
  8
CSOLID
 10
5.421875
 20
6.4375
 30
0.0
 40
0.078
  0
CIRCLE
  8
CSOLID
 10
5.391875
 20
8.03125
 30
0.0
 40
0.078
  0
CIRCLE
  8
CSOLID
 10
4.171875
 20
8.03125
 30
0.0
 40
0.078
  0
INSERT
  8
CCENTER
  2
100CROSS
 10
4.141875
 20
6.43725
 30
0.0
 41
0.188
 42
0.188
 43
0.0
  0
INSERT
  8
CCENTER
  2
100CROSS
 10
5.421875
 20
6.43725
 30
0.0
 41
0.188
 42
0.188
 43
0.0
  0
INSERT
  8
CCENTER
  2
100CROSS
 10
5.391875
 20
8.03125
 30
0.0
 41
0.188
 42
0.188
 43
0.0
  0
INSERT
  8
CCENTER
  2
100CROSS
 10
4.171875
 20
8.03125
 30
0.0
 41
0.188
 42
0.188
 43
0.0
  0
CIRCLE
  8
CHIDDEN
 10
4.141875
 20
6.43725
 30
0.0
 40
0.095
  0
CIRCLE
  8
CHIDDEN
 10
5.421875
 20
6.43725
 30
0.0
 40
0.095
  0
CIRCLE
  8
CHIDDEN
 10
4.171875
 20
8.03125
 30
0.0
 40
0.095
  0
CIRCLE
  8
CHIDDEN
 10
5.391875
 20
8.03125
 30
0.0
 40
0.095
  0
INSERT
  8
CCENTER
  2
100CROSS
 10
11.75
 20
8.25
 30
0.0
 41
-0.40625
 42
0.40625
 50
180.0
 43
0.40625
  0
INSERT
  8
CCENTER
  2
100CROSS
 10
13.75
 20
6.25
 30
0.0
 41
-0.40625
 42
0.40625
 50
180.0
 43
0.40625
  0
CIRCLE
  8
CSOLID
 10
13.75
 20
6.25
 30
0.0
 40
0.140625
  0
CIRCLE
  8
CSOLID
 10
11.75
 20
8.25
 30
0.0
 40
0.140625
  0
CIRCLE
  8
CSOLID
 10
3.75
 20
6.25
 30
0.0
 40
0.140625
  0
CIRCLE
  8
CSOLID
 10
3.75
 20
6.25
 30
0.0
 40
0.203125
  0
INSERT
  8
CCENTER
  2
100CROSS
 10
3.75
 20
6.25
 30
0.0
 41
0.40625
 42
0.40625
 50
180.0
 43
0.40625
  0
CIRCLE
  8
CSOLID
 10
5.75
 20
8.25
 30
0.0
 40
0.140625
  0
CIRCLE
  8
CSOLID
 10
5.75
 20
8.25
 30
0.0
 40
0.203125
  0
INSERT
  8
CCENTER
  2
100CROSS
 10
5.75
 20
8.25
 30
0.0
 41
0.40625
 42
0.40625
 50
180.0
 43
0.40625
  0
LINE
  8
CCENTER
 10
12.71875
 20
7.420313
 30
0.0
 11
12.71875
 21
6.981063
 31
0.0
  0
LINE
  8
CCENTER
 10
12.436625
 20
7.1875
 30
0.0
 11
13.000875
 21
7.1875
 31
0.0
  0
INSERT
  8
CCENTER
  2
100CROSS
 10
12.03125
 20
7.1875
 30
0.0
 43
0.0
  0
CIRCLE
  8
CHIDDEN
 10
12.03125
 20
7.1875
 30
0.0
 40
0.28125
  0
ARC
  8
CSOLID
 10
12.03125
 20
7.1875
 30
0.0
 40
0.5
 50
339.426818
 51
20.573182
  0
CIRCLE
  8
CSOLID
 10
12.03125
 20
7.1875
 30
0.0
 40
0.25
  0
INSERT
  8
CCENTER
  2
100CROSS
 10
12.71875
 20
7.8125
 30
0.0
 43
0.0
  0
CIRCLE
  8
CHIDDEN
 10
12.71875
 20
7.8125
 30
0.0
 40
0.28125
  0
ARC
  8
CSOLID
 10
12.71875
 20
7.8125
 30
0.0
 40
0.5
 50
243.974196
 51
296.025804
  0
CIRCLE
  8
CSOLID
 10
12.71875
 20
7.8125
 30
0.0
 40
0.25
  0
INSERT
  8
CCENTER
  2
100CROSS
 10
13.40625
 20
7.1875
 30
0.0
 43
0.0
  0
CIRCLE
  8
CHIDDEN
 10
13.40625
 20
7.1875
 30
0.0
 40
0.28125
  0
ARC
  8
CSOLID
 10
13.40625
 20
7.1875
 30
0.0
 40
0.5
 50
159.426818
 51
200.573182
  0
CIRCLE
  8
CSOLID
 10
13.40625
 20
7.1875
 30
0.0
 40
0.25
  0
INSERT
  8
CCENTER
  2
100CROSS
 10
12.71875
 20
6.5625
 30
0.0
 43
0.0
  0
CIRCLE
  8
CHIDDEN
 10
12.71875
 20
6.5625
 30
0.0
 40
0.28125
  0
ARC
  8
CSOLID
 10
12.71875
 20
6.5625
 30
0.0
 40
0.5
 50
159.426818
 51
20.573182
  0
CIRCLE
  8
CSOLID
 10
12.71875
 20
6.5625
 30
0.0
 40
0.25
  0
ARC
  8
CSOLID
 10
12.03125
 20
7.1875
 30
0.0
 40
0.5
 50
63.974196
 51
296.025804
  0
ARC
  8
CSOLID
 10
12.71875
 20
7.8125
 30
0.0
 40
0.5
 50
339.426818
 51
200.573182
  0
ARC
  8
CSOLID
 10
13.40625
 20
7.1875
 30
0.0
 40
0.5
 50
243.974196
 51
116.025804
  0
ARC
  8
CSOLID
 10
12.71875
 20
6.5625
 30
0.0
 40
0.5
 50
63.974196
 51
116.025804
  0
TEXT
  8
CDIM
 10
13.125
 20
8.1875
 30
0.0
 40
0.25
  1
A
  7
STR
  0
TEXT
  8
CDIM
 10
13.71875
 20
7.625
 30
0.0
 40
0.25
  1
P
  7
STR
  0
TEXT
  8
CDIM
 10
12.09375
 20
6.03125
 30
0.0
 40
0.25
  1
B
  7
STR
  0
TEXT
  8
CDIM
 10
11.5625
 20
7.625
 30
0.0
 40
0.25
  1
T
  7
STR
  0
LINE
  8
CDIM
 10
3.5
 20
8.589287
 30
0.0
 11
3.5
 21
9.178575
 31
0.0
  0
LINE
  8
CDIM
 10
4.375375
 20
7.276537
 30
0.0
 11
4.375375
 21
9.178575
 31
0.0
  0
LINE
  8
CDIM
 10
4.55395
 20
9.0
 30
0.0
 11
4.732525
 21
9.0
 31
0.0
  0
LINE
  8
CDIM
 10
3.321425
 20
9.0
 30
0.0
 11
3.14285
 21
9.0
 31
0.0
  0
SOLID
  8
CDIM
 10
4.55395
 20
8.970238
 30
0.0
 11
4.55395
 21
9.029763
 31
0.0
 12
4.375375
 22
9.0
 32
0.0
 13
4.375375
 23
9.0
 33
0.0
  0
SOLID
  8
CDIM
 10
3.321425
 20
8.970238
 30
0.0
 11
3.321425
 21
9.029763
 31
0.0
 12
3.5
 22
9.0
 32
0.0
 13
3.5
 23
9.0
 33
0.0
  0
TEXT
  8
CDIM
 10
3.62985
 20
8.899998
 30
0.0
 40
0.200004
  1
0.88
  7
STR
  0
LINE
  8
CDIM
 10
3.5
 20
8.589287
 30
0.0
 11
3.5
 21
9.7143
 31
0.0
  0
LINE
  8
CDIM
 10
6.0
 20
8.589287
 30
0.0
 11
6.0
 21
9.7143
 31
0.0
  0
LINE
  8
CDIM
 10
3.678575
 20
9.535725
 30
0.0
 11
4.266657
 21
9.535725
 31
0.0
  0
LINE
  8
CDIM
 10
5.821425
 20
9.535725
 30
0.0
 11
5.233343
 21
9.535725
 31
0.0
  0
SOLID
  8
CDIM
 10
3.678575
 20
9.505962
 30
0.0
 11
3.678575
 21
9.565488
 31
0.0
 12
3.5
 22
9.535725
 32
0.0
 13
3.5
 23
9.535725
 33
0.0
  0
SOLID
  8
CDIM
 10
5.821425
 20
9.505962
 30
0.0
 11
5.821425
 21
9.565488
 31
0.0
 12
6.0
 22
9.535725
 32
0.0
 13
6.0
 23
9.535725
 33
0.0
  0
TEXT
  8
CDIM
 10
4.445232
 20
9.435723
 30
0.0
 40
0.200004
  1
2.50
  7
STR
  0
LINE
  8
CDIM
 10
3.410713
 20
8.5
 30
0.0
 11
2.821425
 21
8.5
 31
0.0
  0
LINE
  8
CDIM
 10
4.286087
 20
7.18725
 30
0.0
 11
2.821425
 21
7.18725
 31
0.0
  0
LINE
  8
CDIM
 10
3.0
 20
8.321425
 30
0.0
 11
3.0
 21
8.122202
 31
0.0
  0
LINE
  8
CDIM
 10
3.0
 20
7.365825
 30
0.0
 11
3.0
 21
7.565048
 31
0.0
  0
SOLID
  8
CDIM
 10
3.029763
 20
8.321425
 30
0.0
 11
2.970238
 21
8.321425
 31
0.0
 12
3.0
 22
8.5
 32
0.0
 13
3.0
 23
8.5
 33
0.0
  0
SOLID
  8
CDIM
 10
3.029763
 20
7.365825
 30
0.0
 11
2.970238
 21
7.365825
 31
0.0
 12
3.0
 22
7.18725
 32
0.0
 13
3.0
 23
7.18725
 33
0.0
  0
TEXT
  8
CDIM
 10
2.757138
 20
7.743623
 30
0.0
 40
0.200004
  1
1.31
  7
STR
  0
LINE
  8
CDIM
 10
3.410713
 20
8.5
 30
0.0
 11
2.2857
 21
8.5
 31
0.0
  0
LINE
  8
CDIM
 10
3.410713
 20
6.0
 30
0.0
 11
2.2857
 21
6.0
 31
0.0
  0
LINE
  8
CDIM
 10
2.464275
 20
8.321425
 30
0.0
 11
2.464275
 21
7.247327
 31
0.0
  0
LINE
  8
CDIM
 10
2.464275
 20
6.178575
 30
0.0
 11
2.464275
 21
6.690173
 31
0.0
  0
SOLID
  8
CDIM
 10
2.494038
 20
8.321425
 30
0.0
 11
2.434513
 21
8.321425
 31
0.0
 12
2.464275
 22
8.5
 32
0.0
 13
2.464275
 23
8.5
 33
0.0
  0
SOLID
  8
CDIM
 10
2.494038
 20
6.178575
 30
0.0
 11
2.434513
 21
6.178575
 31
0.0
 12
2.464275
 22
6.0
 32
0.0
 13
2.464275
 23
6.0
 33
0.0
  0
TEXT
  8
CDIM
 10
2.159507
 20
6.868748
 30
0.0
 40
0.200004
  1
2.50
  7
STR
  0
LINE
  8
CDIM
 10
6.089288
 20
8.5
 30
0.0
 11
6.678575
 21
8.5
 31
0.0
  0
LINE
  8
CDIM
 10
5.839287
 20
8.25
 30
0.0
 11
6.678575
 21
8.25
 31
0.0
  0
LINE
  8
CDIM
 10
6.5
 20
8.071425
 30
0.0
 11
6.5
 21
7.89285
 31
0.0
  0
LINE
  8
CDIM
 10
6.5
 20
8.678575
 30
0.0
 11
6.5
 21
8.85715
 31
0.0
  0
SOLID
  8
CDIM
 10
6.529763
 20
8.071425
 30
0.0
 11
6.470238
 21
8.071425
 31
0.0
 12
6.5
 22
8.25
 32
0.0
 13
6.5
 23
8.25
 33
0.0
  0
SOLID
  8
CDIM
 10
6.529763
 20
8.678575
 30
0.0
 11
6.470238
 21
8.678575
 31
0.0
 12
6.5
 22
8.5
 32
0.0
 13
6.5
 23
8.5
 33
0.0
  0
TEXT
  8
CDIM
 10
6.158314
 20
7.574098
 30
0.0
 40
0.200004
  1
0.25
  7
STR
  0
LINE
  8
CDIM
 10
6.089288
 20
8.5
 30
0.0
 11
7.2143
 21
8.5
 31
0.0
  0
LINE
  8
CDIM
 10
3.839287
 20
6.25
 30
0.0
 11
7.2143
 21
6.25
 31
0.0
  0
LINE
  8
CDIM
 10
7.035725
 20
8.321425
 30
0.0
 11
7.035725
 21
7.497327
 31
0.0
  0
LINE
  8
CDIM
 10
7.035725
 20
6.428575
 30
0.0
 11
7.035725
 21
6.940173
 31
0.0
  0
SOLID
  8
CDIM
 10
7.065488
 20
8.321425
 30
0.0
 11
7.005963
 21
8.321425
 31
0.0
 12
7.035725
 22
8.5
 32
0.0
 13
7.035725
 23
8.5
 33
0.0
  0
SOLID
  8
CDIM
 10
7.065488
 20
6.428575
 30
0.0
 11
7.005963
 21
6.428575
 31
0.0
 12
7.035725
 22
6.25
 32
0.0
 13
7.035725
 23
6.25
 33
0.0
  0
TEXT
  8
CDIM
 10
6.730957
 20
7.118748
 30
0.0
 40
0.200004
  1
2.25
  7
STR
  0
LINE
  8
CDIM
 10
3.5
 20
5.910713
 30
0.0
 11
3.5
 21
5.321425
 31
0.0
  0
LINE
  8
CDIM
 10
3.75
 20
6.160712
 30
0.0
 11
3.75
 21
5.321425
 31
0.0
  0
LINE
  8
CDIM
 10
3.928575
 20
5.5
 30
0.0
 11
4.10715
 21
5.5
 31
0.0
  0
LINE
  8
CDIM
 10
3.321425
 20
5.5
 30
0.0
 11
3.14285
 21
5.5
 31
0.0
  0
SOLID
  8
CDIM
 10
3.928575
 20
5.470238
 30
0.0
 11
3.928575
 21
5.529763
 31
0.0
 12
3.75
 22
5.5
 32
0.0
 13
3.75
 23
5.5
 33
0.0
  0
SOLID
  8
CDIM
 10
3.321425
 20
5.470238
 30
0.0
 11
3.321425
 21
5.529763
 31
0.0
 12
3.5
 22
5.5
 32
0.0
 13
3.5
 23
5.5
 33
0.0
  0
TEXT
  8
CDIM
 10
4.285725
 20
5.399998
 30
0.0
 40
0.200004
  1
0.25
  7
STR
  0
LINE
  8
CDIM
 10
3.5
 20
5.910713
 30
0.0
 11
3.5
 21
4.7857
 31
0.0
  0
LINE
  8
CDIM
 10
5.75
 20
8.160712
 30
0.0
 11
5.75
 21
4.7857
 31
0.0
  0
LINE
  8
CDIM
 10
3.678575
 20
4.964275
 30
0.0
 11
4.141657
 21
4.964275
 31
0.0
  0
LINE
  8
CDIM
 10
5.571425
 20
4.964275
 30
0.0
 11
5.108343
 21
4.964275
 31
0.0
  0
SOLID
  8
CDIM
 10
3.678575
 20
4.934513
 30
0.0
 11
3.678575
 21
4.994038
 31
0.0
 12
3.5
 22
4.964275
 32
0.0
 13
3.5
 23
4.964275
 33
0.0
  0
SOLID
  8
CDIM
 10
5.571425
 20
4.934513
 30
0.0
 11
5.571425
 21
4.994038
 31
0.0
 12
5.75
 22
4.964275
 32
0.0
 13
5.75
 23
4.964275
 33
0.0
  0
TEXT
  8
CDIM
 10
4.320232
 20
4.864273
 30
0.0
 40
0.200004
  1
2.25
  7
STR
  0
LINE
  8
CDIM
 10
8.0
 20
8.589287
 30
0.0
 11
8.0
 21
9.178575
 31
0.0
  0
LINE
  8
CDIM
 10
9.0
 20
8.589287
 30
0.0
 11
9.0
 21
9.178575
 31
0.0
  0
LINE
  8
CDIM
 10
9.178575
 20
9.0
 30
0.0
 11
9.35715
 21
9.0
 31
0.0
  0
LINE
  8
CDIM
 10
7.821425
 20
9.0
 30
0.0
 11
7.64285
 21
9.0
 31
0.0
  0
SOLID
  8
CDIM
 10
9.178575
 20
8.970238
 30
0.0
 11
9.178575
 21
9.029763
 31
0.0
 12
9.0
 22
9.0
 32
0.0
 13
9.0
 23
9.0
 33
0.0
  0
SOLID
  8
CDIM
 10
7.821425
 20
8.970238
 30
0.0
 11
7.821425
 21
9.029763
 31
0.0
 12
8.0
 22
9.0
 32
0.0
 13
8.0
 23
9.0
 33
0.0
  0
TEXT
  8
CDIM
 10
8.223225
 20
8.899998
 30
0.0
 40
0.200004
  1
1.00
  7
STR
  0
LINE
  8
CDIM
 10
14.0
 20
8.589287
 30
0.0
 11
14.0
 21
9.178575
 31
0.0
  0
LINE
  8
CDIM
 10
13.40625
 20
7.714288
 30
0.0
 11
13.40625
 21
9.178575
 31
0.0
  0
LINE
  8
CDIM
 10
13.227675
 20
9.0
 30
0.0
 11
13.0491
 21
9.0
 31
0.0
  0
LINE
  8
CDIM
 10
14.178575
 20
9.0
 30
0.0
 11
14.35715
 21
9.0
 31
0.0
  0
SOLID
  8
CDIM
 10
13.227675
 20
8.970238
 30
0.0
 11
13.227675
 21
9.029763
 31
0.0
 12
13.40625
 22
9.0
 32
0.0
 13
13.40625
 23
9.0
 33
0.0
  0
SOLID
  8
CDIM
 10
14.178575
 20
8.970238
 30
0.0
 11
14.178575
 21
9.029763
 31
0.0
 12
14.0
 22
9.0
 32
0.0
 13
14.0
 23
9.0
 33
0.0
  0
TEXT
  8
CDIM
 10
13.624391
 20
8.899998
 30
0.0
 40
0.200004
  1
A
  7
STR
  0
LINE
  8
CDIM
 10
14.0
 20
8.589287
 30
0.0
 11
14.0
 21
9.7143
 31
0.0
  0
LINE
  8
CDIM
 10
12.71875
 20
8.401787
 30
0.0
 11
12.71875
 21
9.7143
 31
0.0
  0
LINE
  8
CDIM
 10
12.540175
 20
9.535725
 30
0.0
 11
12.3616
 21
9.535725
 31
0.0
  0
LINE
  8
CDIM
 10
14.178575
 20
9.535725
 30
0.0
 11
14.35715
 21
9.535725
 31
0.0
  0
SOLID
  8
CDIM
 10
12.540175
 20
9.505962
 30
0.0
 11
12.540175
 21
9.565488
 31
0.0
 12
12.71875
 22
9.535725
 32
0.0
 13
12.71875
 23
9.535725
 33
0.0
  0
SOLID
  8
CDIM
 10
14.178575
 20
9.505962
 30
0.0
 11
14.178575
 21
9.565488
 31
0.0
 12
14.0
 22
9.535725
 32
0.0
 13
14.0
 23
9.535725
 33
0.0
  0
TEXT
  8
CDIM
 10
13.080335
 20
9.435723
 30
0.0
 40
0.200004
  1
1.28
  7
STR
  0
LINE
  8
CDIM
 10
14.0
 20
8.589287
 30
0.0
 11
14.0
 21
10.250025
 31
0.0
  0
LINE
  8
CDIM
 10
12.03125
 20
7.776788
 30
0.0
 11
12.03125
 21
10.250025
 31
0.0
  0
LINE
  8
CDIM
 10
13.821425
 20
10.07145
 30
0.0
 11
13.260868
 21
10.07145
 31
0.0
  0
LINE
  8
CDIM
 10
12.209825
 20
10.07145
 30
0.0
 11
12.770382
 21
10.07145
 31
0.0
  0
SOLID
  8
CDIM
 10
13.821425
 20
10.041688
 30
0.0
 11
13.821425
 21
10.101213
 31
0.0
 12
14.0
 22
10.07145
 32
0.0
 13
14.0
 23
10.07145
 33
0.0
  0
SOLID
  8
CDIM
 10
12.209825
 20
10.041688
 30
0.0
 11
12.209825
 21
10.101213
 31
0.0
 12
12.03125
 22
10.07145
 32
0.0
 13
12.03125
 23
10.07145
 33
0.0
  0
TEXT
  8
CDIM
 10
12.948957
 20
9.971448
 30
0.0
 40
0.200004
  1
B
  7
STR
  0
LINE
  8
CDIM
 10
11.410713
 20
8.5
 30
0.0
 11
10.821425
 21
8.5
 31
0.0
  0
LINE
  8
CDIM
 10
12.129462
 20
7.8125
 30
0.0
 11
10.821425
 21
7.8125
 31
0.0
  0
LINE
  8
CDIM
 10
11.0
 20
7.633925
 30
0.0
 11
11.0
 21
7.45535
 31
0.0
  0
LINE
  8
CDIM
 10
11.0
 20
8.678575
 30
0.0
 11
11.0
 21
8.85715
 31
0.0
  0
SOLID
  8
CDIM
 10
11.029763
 20
7.633925
 30
0.0
 11
10.970238
 21
7.633925
 31
0.0
 12
11.0
 22
7.8125
 32
0.0
 13
11.0
 23
7.8125
 33
0.0
  0
SOLID
  8
CDIM
 10
11.029763
 20
8.678575
 30
0.0
 11
10.970238
 21
8.678575
 31
0.0
 12
11.0
 22
8.5
 32
0.0
 13
11.0
 23
8.5
 33
0.0
  0
TEXT
  8
CDIM
 10
10.93749
 20
8.042848
 30
0.0
 40
0.200004
  1
C
  7
STR
  0
LINE
  8
CDIM
 10
11.410713
 20
8.5
 30
0.0
 11
10.2857
 21
8.5
 31
0.0
  0
LINE
  8
CDIM
 10
11.441962
 20
7.1875
 30
0.0
 11
10.2857
 21
7.1875
 31
0.0
  0
LINE
  8
CDIM
 10
10.464275
 20
8.321425
 30
0.0
 11
10.464275
 21
8.122327
 31
0.0
  0
LINE
  8
CDIM
 10
10.464275
 20
7.366075
 30
0.0
 11
10.464275
 21
7.565173
 31
0.0
  0
SOLID
  8
CDIM
 10
10.494038
 20
8.321425
 30
0.0
 11
10.434513
 21
8.321425
 31
0.0
 12
10.464275
 22
8.5
 32
0.0
 13
10.464275
 23
8.5
 33
0.0
  0
SOLID
  8
CDIM
 10
10.494038
 20
7.366075
 30
0.0
 11
10.434513
 21
7.366075
 31
0.0
 12
10.464275
 22
7.1875
 32
0.0
 13
10.464275
 23
7.1875
 33
0.0
  0
TEXT
  8
CDIM
 10
10.221413
 20
7.743748
 30
0.0
 40
0.200004
  1
1.31
  7
STR
  0
LINE
  8
CDIM
 10
11.410713
 20
8.5
 30
0.0
 11
9.749975
 21
8.5
 31
0.0
  0
LINE
  8
CDIM
 10
12.129462
 20
6.5625
 30
0.0
 11
9.749975
 21
6.5625
 31
0.0
  0
LINE
  8
CDIM
 10
9.92855
 20
8.321425
 30
0.0
 11
9.92855
 21
7.809827
 31
0.0
  0
LINE
  8
CDIM
 10
9.92855
 20
6.741075
 30
0.0
 11
9.92855
 21
7.252673
 31
0.0
  0
SOLID
  8
CDIM
 10
9.958313
 20
8.321425
 30
0.0
 11
9.898788
 21
8.321425
 31
0.0
 12
9.92855
 22
8.5
 32
0.0
 13
9.92855
 23
8.5
 33
0.0
  0
SOLID
  8
CDIM
 10
9.958313
 20
6.741075
 30
0.0
 11
9.898788
 21
6.741075
 31
0.0
 12
9.92855
 22
6.5625
 32
0.0
 13
9.92855
 23
6.5625
 33
0.0
  0
TEXT
  8
CDIM
 10
9.861882
 20
7.431248
 30
0.0
 40
0.200004
  1
D
  7
STR
  0
ENDBLK
  8
0
  0
BLOCK
  8
BORDER
  2
100CROSS
 70
    64
 10
5.625
 20
4.59375
 30
0.0
  0
INSERT
  8
0
  2
050CROSS
 10
5.625
 20
4.59375
 30
0.0
 43
0.0
  0
ENDBLK
  8
0
  0
BLOCK
  8
0
  2
050CROSS
 70
    64
 10
5.0
 20
5.0
 30
0.0
  0
LINE
  8
0
 10
5.0
 20
5.28125
 30
0.0
 11
5.0
 21
5.78125
 31
0.0
  0
LINE
  8
0
 10
5.0
 20
4.875
 30
0.0
 11
5.0
 21
5.125
 31
0.0
  0
LINE
  8
0
 10
5.0
 20
4.15625
 30
0.0
 11
5.0
 21
4.71875
 31
0.0
  0
LINE
  8
0
 10
5.25
 20
5.0
 30
0.0
 11
5.8125
 21
5.0
 31
0.0
  0
LINE
  8
0
 10
4.90625
 20
5.0
 30
0.0
 11
5.09375
 21
5.0
 31
0.0
  0
LINE
  8
0
 10
4.1875
 20
5.0
 30
0.0
 11
4.75
 21
5.0
 31
0.0
  0
ENDBLK
  8
0
  0
ENDSEC
  0
SECTION
  2
ENTITIES
  0
POLYLINE
  8
DAMAN
 66
     1
 10
0.0
 20
0.0
 30
0.0
 70
     1
  0
VERTEX
  8
DAMAN
 10
8.125
 20
7.1875
 30
0.0
  0
VERTEX
  8
DAMAN
 10
8.125
 20
9.6875
 30
0.0
  0
VERTEX
  8
DAMAN
 10
9.125
 20
9.6875
 30
0.0
  0
VERTEX
  8
DAMAN
 10
9.125
 20
7.1875
 30
0.0
  0
SEQEND
  8
DAMAN
  0
POLYLINE
  8
DAMAN
 66
     1
 10
0.0
 20
0.0
 30
0.0
 70
     1
  0
VERTEX
  8
DAMAN
 10
4.625
 20
7.1875
 30
0.0
  0
VERTEX
  8
DAMAN
 10
4.625
 20
9.6875
 30
0.0
  0
VERTEX
  8
DAMAN
 10
7.125
 20
9.6875
 30
0.0
  0
VERTEX
  8
DAMAN
 10
7.125
 20
7.1875
 30
0.0
  0
SEQEND
  8
DAMAN
  0
POLYLINE
  8
DAMAN
 66
     1
 10
0.0
 20
0.0
 30
0.0
 70
     1
  0
VERTEX
  8
DAMAN
 10
10.125
 20
7.1875
 30
0.0
  0
VERTEX
  8
DAMAN
 10
10.125
 20
9.6875
 30
0.0
  0
VERTEX
  8
DAMAN
 10
12.625
 20
9.6875
 30
0.0
  0
VERTEX
  8
DAMAN
 10
12.625
 20
7.1875
 30
0.0
  0
SEQEND
  8
DAMAN
  0
CIRCLE
  8
DAMAN
 10
5.266875
 20
7.91875
 30
0.0
 40
0.0855
  0
INSERT
  8
DAMAN
  2
100CROSS
 10
5.266875
 20
7.91875
 30
0.0
 41
0.171
 42
0.171
 43
0.0
  0
INSERT
  8
DAMAN
  2
100CROSS
 10
5.906875
 20
8.03125
 30
0.0
 41
0.25
 42
0.25
 43
0.0
  0
CIRCLE
  8
DAMAN
 10
5.906875
 20
8.03125
 30
0.0
 40
0.125
  0
CIRCLE
  8
DAMAN
 10
5.500375
 20
8.37475
 30
0.0
 40
0.125
  0
INSERT
  8
DAMAN
  2
100CROSS
 10
5.500375
 20
8.37475
 30
0.0
 41
0.25
 42
0.25
 43
0.0
  0
INSERT
  8
DAMAN
  2
100CROSS
 10
6.312875
 20
8.37475
 30
0.0
 41
0.25
 42
0.25
 43
0.0
  0
CIRCLE
  8
DAMAN
 10
6.312875
 20
8.37475
 30
0.0
 40
0.125
  0
CIRCLE
  8
DAMAN
 10
5.906875
 20
8.71875
 30
0.0
 40
0.125
  0
INSERT
  8
DAMAN
  2
100CROSS
 10
5.906875
 20
8.71875
 30
0.0
 41
0.25
 42
0.25
 43
0.0
  0
CIRCLE
  8
DAMAN
 10
5.266875
 20
7.625
 30
0.0
 40
0.078
  0
CIRCLE
  8
DAMAN
 10
6.546875
 20
7.625
 30
0.0
 40
0.078
  0
CIRCLE
  8
DAMAN
 10
6.516875
 20
9.21875
 30
0.0
 40
0.078
  0
CIRCLE
  8
DAMAN
 10
5.296875
 20
9.21875
 30
0.0
 40
0.078
  0
INSERT
  8
DAMAN
  2
100CROSS
 10
5.266875
 20
7.62475
 30
0.0
 41
0.188
 42
0.188
 43
0.0
  0
INSERT
  8
DAMAN
  2
100CROSS
 10
6.546875
 20
7.62475
 30
0.0
 41
0.188
 42
0.188
 43
0.0
  0
INSERT
  8
DAMAN
  2
100CROSS
 10
6.516875
 20
9.21875
 30
0.0
 41
0.188
 42
0.188
 43
0.0
  0
INSERT
  8
DAMAN
  2
100CROSS
 10
5.296875
 20
9.21875
 30
0.0
 41
0.188
 42
0.188
 43
0.0
  0
CIRCLE
  8
DAMAN
 10
5.266875
 20
7.62475
 30
0.0
 40
0.095
  0
CIRCLE
  8
DAMAN
 10
6.546875
 20
7.62475
 30
0.0
 40
0.095
  0
CIRCLE
  8
DAMAN
 10
5.296875
 20
9.21875
 30
0.0
 40
0.095
  0
CIRCLE
  8
DAMAN
 10
6.516875
 20
9.21875
 30
0.0
 40
0.095
  0
INSERT
  8
DAMAN
  2
100CROSS
 10
10.375
 20
9.4375
 30
0.0
 41
-0.40625
 42
0.40625
 50
180.0
 43
0.40625
  0
INSERT
  8
DAMAN
  2
100CROSS
 10
12.375
 20
7.4375
 30
0.0
 41
-0.40625
 42
0.40625
 50
180.0
 43
0.40625
  0
CIRCLE
  8
DAMAN
 10
12.375
 20
7.4375
 30
0.0
 40
0.140625
  0
CIRCLE
  8
DAMAN
 10
10.375
 20
9.4375
 30
0.0
 40
0.140625
  0
CIRCLE
  8
DAMAN
 10
4.875
 20
7.4375
 30
0.0
 40
0.140625
  0
CIRCLE
  8
DAMAN
 10
4.875
 20
7.4375
 30
0.0
 40
0.203125
  0
INSERT
  8
DAMAN
  2
100CROSS
 10
4.875
 20
7.4375
 30
0.0
 41
0.40625
 42
0.40625
 50
180.0
 43
0.40625
  0
CIRCLE
  8
DAMAN
 10
6.875
 20
9.4375
 30
0.0
 40
0.140625
  0
CIRCLE
  8
DAMAN
 10
6.875
 20
9.4375
 30
0.0
 40
0.203125
  0
INSERT
  8
DAMAN
  2
100CROSS
 10
6.875
 20
9.4375
 30
0.0
 41
0.40625
 42
0.40625
 50
180.0
 43
0.40625
  0
LINE
  8
DAMAN
 10
11.34375
 20
8.607813
 30
0.0
 11
11.34375
 21
8.168563
 31
0.0
  0
LINE
  8
DAMAN
 10
11.061625
 20
8.375
 30
0.0
 11
11.625875
 21
8.375
 31
0.0
  0
INSERT
  8
DAMAN
  2
100CROSS
 10
10.65625
 20
8.375
 30
0.0
 43
0.0
  0
CIRCLE
  8
DAMAN
 10
10.65625
 20
8.375
 30
0.0
 40
0.28125
  0
ARC
  8
DAMAN
 10
10.65625
 20
8.375
 30
0.0
 40
0.5
 50
339.426818
 51
20.573182
  0
CIRCLE
  8
DAMAN
 10
10.65625
 20
8.375
 30
0.0
 40
0.25
  0
INSERT
  8
DAMAN
  2
100CROSS
 10
11.34375
 20
9.0
 30
0.0
 43
0.0
  0
CIRCLE
  8
DAMAN
 10
11.34375
 20
9.0
 30
0.0
 40
0.28125
  0
ARC
  8
DAMAN
 10
11.34375
 20
9.0
 30
0.0
 40
0.5
 50
243.974196
 51
296.025804
  0
CIRCLE
  8
DAMAN
 10
11.34375
 20
9.0
 30
0.0
 40
0.25
  0
INSERT
  8
DAMAN
  2
100CROSS
 10
12.03125
 20
8.375
 30
0.0
 43
0.0
  0
CIRCLE
  8
DAMAN
 10
12.03125
 20
8.375
 30
0.0
 40
0.28125
  0
ARC
  8
DAMAN
 10
12.03125
 20
8.375
 30
0.0
 40
0.5
 50
159.426818
 51
200.573182
  0
CIRCLE
  8
DAMAN
 10
12.03125
 20
8.375
 30
0.0
 40
0.25
  0
INSERT
  8
DAMAN
  2
100CROSS
 10
11.34375
 20
7.75
 30
0.0
 43
0.0
  0
CIRCLE
  8
DAMAN
 10
11.34375
 20
7.75
 30
0.0
 40
0.28125
  0
ARC
  8
DAMAN
 10
11.34375
 20
7.75
 30
0.0
 40
0.5
 50
159.426818
 51
20.573182
  0
CIRCLE
  8
DAMAN
 10
11.34375
 20
7.75
 30
0.0
 40
0.25
  0
ARC
  8
DAMAN
 10
10.65625
 20
8.375
 30
0.0
 40
0.5
 50
63.974196
 51
296.025804
  0
ARC
  8
DAMAN
 10
11.34375
 20
9.0
 30
0.0
 40
0.5
 50
339.426818
 51
200.573182
  0
ARC
  8
DAMAN
 10
12.03125
 20
8.375
 30
0.0
 40
0.5
 50
243.974196
 51
116.025804
  0
ARC
  8
DAMAN
 10
11.34375
 20
7.75
 30
0.0
 40
0.5
 50
63.974196
 51
116.025804
  0
TEXT
  8
DAMAN
 10
11.75
 20
9.375
 30
0.0
 40
0.25
  1
A
  7
STR
  0
TEXT
  8
DAMAN
 10
12.34375
 20
8.8125
 30
0.0
 40
0.25
  1
P
  7
STR
  0
TEXT
  8
DAMAN
 10
10.71875
 20
7.21875
 30
0.0
 40
0.25
  1
B
  7
STR
  0
TEXT
  8
DAMAN
 10
10.1875
 20
8.8125
 30
0.0
 40
0.25
  1
T
  7
STR
  0
POLYLINE
  8
DAMAN
 66
     1
 10
0.0
 20
0.0
 30
0.0
 70
     1
  0
VERTEX
  8
DAMAN
 10
4.6875
 20
6.0625
 30
0.0
  0
VERTEX
  8
DAMAN
 10
7.1875
 20
6.0625
 30
0.0
  0
VERTEX
  8
DAMAN
 10
7.1875
 20
5.0625
 30
0.0
  0
VERTEX
  8
DAMAN
 10
4.6875
 20
5.0625
 30
0.0
  0
SEQEND
  8
DAMAN
  0
TEXT
  8
DAMAN
 10
5.15625
 20
5.75
 30
0.0
 40
0.188
  1
DAMAN ****
  0
ENDSEC
  0
EOF
