  0
SECTION
  2
HEADER
  9
$ACADVER
  1
AC1014
  9
$ACADMAINTVER
 70
     9
  9
$DWGCODEPAGE
  3
ANSI_1252
  9
$INSBASE
 10
0.0
 20
0.0
 30
0.0
  9
$EXTMIN
 10
4.544763250871682
 20
5.061684260656793
 30
-0.0015258207003583
  9
$EXTMAX
 10
12.70563469849483
 20
9.780780261136293
 30
0.0000000349246037
  9
$LIMMIN
 10
0.0
 20
0.0
  9
$LIMMAX
 10
12.0
 20
9.0
  9
$ORTHOMODE
 70
     0
  9
$REGENMODE
 70
     1
  9
$FILLMODE
 70
     1
  9
$QTEXTMODE
 70
     0
  9
$MIRRTEXT
 70
     1
  9
$DRAGMODE
 70
     2
  9
$LTSCALE
 40
1.0
  9
$OSMODE
 70
    37
  9
$ATTMODE
 70
     1
  9
$TEXTSIZE
 40
0.188
  9
$TRACEWID
 40
0.05
  9
$TEXTSTYLE
  7
STANDARD
  9
$CLAYER
  8
DAMAN
  9
$CELTYPE
  6
BYLAYER
  9
$CECOLOR
 62
   256
  9
$CELTSCALE
 40
1.0
  9
$DELOBJ
 70
     1
  9
$DISPSILH
 70
     0
  9
$DIMSCALE
 40
1.0
  9
$DIMASZ
 40
0.18
  9
$DIMEXO
 40
0.0625
  9
$DIMDLI
 40
0.38
  9
$DIMRND
 40
0.0
  9
$DIMDLE
 40
0.0
  9
$DIMEXE
 40
0.18
  9
$DIMTP
 40
0.0
  9
$DIMTM
 40
0.0
  9
$DIMTXT
 40
0.18
  9
$DIMCEN
 40
0.09
  9
$DIMTSZ
 40
0.0
  9
$DIMTOL
 70
     0
  9
$DIMLIM
 70
     0
  9
$DIMTIH
 70
     1
  9
$DIMTOH
 70
     1
  9
$DIMSE1
 70
     0
  9
$DIMSE2
 70
     0
  9
$DIMTAD
 70
     0
  9
$DIMZIN
 70
     0
  9
$DIMBLK
  1

  9
$DIMASO
 70
     1
  9
$DIMSHO
 70
     1
  9
$DIMPOST
  1

  9
$DIMAPOST
  1

  9
$DIMALT
 70
     0
  9
$DIMALTD
 70
     2
  9
$DIMALTF
 40
25.4
  9
$DIMLFAC
 40
1.0
  9
$DIMTOFL
 70
     0
  9
$DIMTVP
 40
0.0
  9
$DIMTIX
 70
     0
  9
$DIMSOXD
 70
     0
  9
$DIMSAH
 70
     0
  9
$DIMBLK1
  1

  9
$DIMBLK2
  1

  9
$DIMSTYLE
  2
STANDARD
  9
$DIMCLRD
 70
     0
  9
$DIMCLRE
 70
     0
  9
$DIMCLRT
 70
     0
  9
$DIMTFAC
 40
1.0
  9
$DIMGAP
 40
0.09
  9
$DIMJUST
 70
     0
  9
$DIMSD1
 70
     0
  9
$DIMSD2
 70
     0
  9
$DIMTOLJ
 70
     1
  9
$DIMTZIN
 70
     0
  9
$DIMALTZ
 70
     0
  9
$DIMALTTZ
 70
     0
  9
$DIMFIT
 70
     3
  9
$DIMUPT
 70
     0
  9
$DIMUNIT
 70
     2
  9
$DIMDEC
 70
     4
  9
$DIMTDEC
 70
     4
  9
$DIMALTU
 70
     2
  9
$DIMALTTD
 70
     2
  9
$DIMTXSTY
  7
STANDARD
  9
$DIMAUNIT
 70
     0
  9
$LUNITS
 70
     2
  9
$LUPREC
 70
     4
  9
$SKETCHINC
 40
0.1
  9
$FILLETRAD
 40
0.0
  9
$AUNITS
 70
     0
  9
$AUPREC
 70
     0
  9
$MENU
  1
tom
  9
$ELEVATION
 40
0.0
  9
$PELEVATION
 40
0.0
  9
$THICKNESS
 40
0.0
  9
$LIMCHECK
 70
     0
  9
$BLIPMODE
 70
     0
  9
$CHAMFERA
 40
0.0
  9
$CHAMFERB
 40
0.0
  9
$CHAMFERC
 40
0.0
  9
$CHAMFERD
 40
0.0
  9
$SKPOLY
 70
     0
  9
$TDCREATE
 40
2449739.531860162
  9
$TDUPDATE
 40
2453424.612707824
  9
$TDINDWG
 40
0.0005074421
  9
$TDUSRTIMER
 40
0.0005074421
  9
$USRTIMER
 70
     1
  9
$ANGBASE
 50
0.0
  9
$ANGDIR
 70
     0
  9
$PDMODE
 70
     0
  9
$PDSIZE
 40
0.0
  9
$PLINEWID
 40
0.0
  9
$COORDS
 70
     1
  9
$SPLFRAME
 70
     0
  9
$SPLINETYPE
 70
     6
  9
$SPLINESEGS
 70
     8
  9
$ATTDIA
 70
     0
  9
$ATTREQ
 70
     1
  9
$HANDLING
 70
-16383
  9
$HANDSEED
  5
16E
  9
$SURFTAB1
 70
     6
  9
$SURFTAB2
 70
     6
  9
$SURFTYPE
 70
     6
  9
$SURFU
 70
     6
  9
$SURFV
 70
     6
  9
$UCSNAME
  2

  9
$UCSORG
 10
0.0
 20
0.0
 30
0.0
  9
$UCSXDIR
 10
1.0
 20
0.0
 30
0.0
  9
$UCSYDIR
 10
0.0
 20
1.0
 30
0.0
  9
$PUCSNAME
  2

  9
$PUCSORG
 10
0.0
 20
0.0
 30
0.0
  9
$PUCSXDIR
 10
1.0
 20
0.0
 30
0.0
  9
$PUCSYDIR
 10
0.0
 20
1.0
 30
0.0
  9
$USERI1
 70
     0
  9
$USERI2
 70
     0
  9
$USERI3
 70
     0
  9
$USERI4
 70
     0
  9
$USERI5
 70
     0
  9
$USERR1
 40
0.0
  9
$USERR2
 40
0.0
  9
$USERR3
 40
0.0
  9
$USERR4
 40
0.0
  9
$USERR5
 40
0.0
  9
$WORLDVIEW
 70
     1
  9
$SHADEDGE
 70
     3
  9
$SHADEDIF
 70
    70
  9
$TILEMODE
 70
     1
  9
$MAXACTVP
 70
    16
  9
$PINSBASE
 10
0.0
 20
0.0
 30
0.0
  9
$PLIMCHECK
 70
     0
  9
$PEXTMIN
 10
1.000000000000000E+20
 20
1.000000000000000E+20
 30
1.000000000000000E+20
  9
$PEXTMAX
 10
-1.000000000000000E+20
 20
-1.000000000000000E+20
 30
-1.000000000000000E+20
  9
$PLIMMIN
 10
0.0
 20
0.0
  9
$PLIMMAX
 10
12.0
 20
9.0
  9
$UNITMODE
 70
     0
  9
$VISRETAIN
 70
     0
  9
$PLINEGEN
 70
     0
  9
$PSLTSCALE
 70
     1
  9
$TREEDEPTH
 70
  3020
  9
$PICKSTYLE
 70
     1
  9
$CMLSTYLE
  2
STANDARD
  9
$CMLJUST
 70
     0
  9
$CMLSCALE
 40
1.0
  9
$PROXYGRAPHICS
 70
     1
  9
$MEASUREMENT
 70
     0
  0
ENDSEC
  0
SECTION
  2
CLASSES
  0
CLASS
  1
ACDBDICTIONARYWDFLT
  2
AcDbDictionaryWithDefault
  3
AutoCAD 2000
 90
        0
280
     0
281
     0
  0
CLASS
  1
ACDBPLACEHOLDER
  2
AcDbPlaceHolder
  3
AutoCAD 2000
 90
        0
280
     0
281
     0
  0
CLASS
  1
LAYOUT
  2
AcDbLayout
  3
AutoCAD 2000
 90
        0
280
     0
281
     0
  0
CLASS
  1
LONG_TRANSACTION
  2
AcDbLongTransaction
  3
AutoCAD 2000
 90
        0
280
     0
281
     0
  0
CLASS
  1
LWPOLYLINE
  2
AcDbPolyline
  3
AutoCAD 2000
 90
        0
280
     0
281
     1
  0
CLASS
  1
HATCH
  2
AcDbHatch
  3
AutoCAD 2000
 90
        0
280
     0
281
     1
  0
CLASS
  1
XRECORD
  2
AcDbXrecord
  3
AutoCAD 2000
 90
        0
280
     0
281
     0
  0
ENDSEC
  0
SECTION
  2
TABLES
  0
TABLE
  2
VPORT
  5
8
330
0
100
AcDbSymbolTable
 70
     3
  0
VPORT
  5
149
330
8
100
AcDbSymbolTableRecord
100
AcDbViewportTableRecord
  2
*ACTIVE
 70
     0
 10
0.0
 20
0.0
 11
1.0
 21
1.0
 12
8.420083324188663
 22
7.253529851610819
 13
0.0
 23
0.0
 14
0.03125
 24
0.03125
 15
0.0
 25
0.0
 16
0.0
 26
0.0
 36
1.0
 17
0.0
 27
0.0
 37
0.0
 40
6.020900202882291
 41
1.647569444444444
 42
50.0
 43
0.0
 44
0.0
 50
0.0
 51
0.0
 71
     0
 72
   100
 73
     1
 74
     1
 75
     1
 76
     0
 77
     0
 78
     0
  0
ENDTAB
  0
TABLE
  2
LTYPE
  5
5
330
0
100
AcDbSymbolTable
 70
     4
  0
LTYPE
  5
13
330
5
100
AcDbSymbolTableRecord
100
AcDbLinetypeTableRecord
  2
BYBLOCK
 70
     0
  3

 72
    65
 73
     0
 40
0.0
  0
LTYPE
  5
14
330
5
100
AcDbSymbolTableRecord
100
AcDbLinetypeTableRecord
  2
BYLAYER
 70
     0
  3

 72
    65
 73
     0
 40
0.0
  0
LTYPE
  5
15
330
5
100
AcDbSymbolTableRecord
100
AcDbLinetypeTableRecord
  2
CONTINUOUS
 70
     0
  3
Solid line
 72
    65
 73
     0
 40
0.0
  0
LTYPE
  5
24
330
5
100
AcDbSymbolTableRecord
100
AcDbLinetypeTableRecord
  2
HIDDEN
 70
     0
  3
_ _ _ _ _ _ _ _ _ _ _ _ _ _ _ _ _ _ _ _ _ _ _
 72
    65
 73
     2
 40
0.375
 49
0.25
 74
     0
 49
-0.125
 74
     0
  0
LTYPE
  5
25
330
5
100
AcDbSymbolTableRecord
100
AcDbLinetypeTableRecord
  2
CENTER
 70
     0
  3
____ _ ____ _ ____ _ ____ _ ____ _ ____ _ ____
 72
    65
 73
     4
 40
2.0
 49
1.25
 74
     0
 49
-0.25
 74
     0
 49
0.25
 74
     0
 49
-0.25
 74
     0
  0
LTYPE
  5
26
330
5
100
AcDbSymbolTableRecord
100
AcDbLinetypeTableRecord
  2
PHANTOM
 70
     0
  3
_____ _ _ _____ _ _ _____ _ _ _____ _ _ ____
 72
    65
 73
     6
 40
2.5
 49
1.25
 74
     0
 49
-0.25
 74
     0
 49
0.25
 74
     0
 49
-0.25
 74
     0
 49
0.25
 74
     0
 49
-0.25
 74
     0
  0
ENDTAB
  0
TABLE
  2
LAYER
  5
2
330
0
100
AcDbSymbolTable
 70
     8
  0
LAYER
  5
10
330
2
100
AcDbSymbolTableRecord
100
AcDbLayerTableRecord
  2
0
 70
     0
 62
     7
  6
CONTINUOUS
  0
LAYER
  5
22
330
2
100
AcDbSymbolTableRecord
100
AcDbLayerTableRecord
  2
DAMAN
 70
     0
 62
     5
  6
CONTINUOUS
  0
LAYER
  5
27
330
2
100
AcDbSymbolTableRecord
100
AcDbLayerTableRecord
  2
BORDER
 70
     0
 62
     7
  6
CONTINUOUS
  0
LAYER
  5
28
330
2
100
AcDbSymbolTableRecord
100
AcDbLayerTableRecord
  2
CSOLID
 70
     0
 62
     3
  6
CONTINUOUS
  0
LAYER
  5
29
330
2
100
AcDbSymbolTableRecord
100
AcDbLayerTableRecord
  2
CHIDDEN
 70
     0
 62
     3
  6
HIDDEN
  0
LAYER
  5
2A
330
2
100
AcDbSymbolTableRecord
100
AcDbLayerTableRecord
  2
CDIM
 70
     0
 62
     2
  6
CONTINUOUS
  0
LAYER
  5
2B
330
2
100
AcDbSymbolTableRecord
100
AcDbLayerTableRecord
  2
CCENTER
 70
     0
 62
     4
  6
CENTER
  0
LAYER
  5
2C
330
2
100
AcDbSymbolTableRecord
100
AcDbLayerTableRecord
  2
PHANTOM
 70
     0
 62
     1
  6
PHANTOM
  0
ENDTAB
  0
TABLE
  2
STYLE
  5
3
330
0
100
AcDbSymbolTable
 70
     2
  0
STYLE
  5
11
330
3
100
AcDbSymbolTableRecord
100
AcDbTextStyleTableRecord
  2
STANDARD
 70
     0
 40
0.0
 41
1.0
 50
0.0
 71
     0
 42
0.188
  3
txt
  4

  0
STYLE
  5
2D
330
3
100
AcDbSymbolTableRecord
100
AcDbTextStyleTableRecord
  2
STR
 70
     0
 40
0.0
 41
1.0
 50
0.0
 71
     0
 42
0.25
  3
SIMPLEX
  4

  0
ENDTAB
  0
TABLE
  2
VIEW
  5
6
330
0
100
AcDbSymbolTable
 70
     0
  0
ENDTAB
  0
TABLE
  2
UCS
  5
7
330
0
100
AcDbSymbolTable
 70
     0
  0
ENDTAB
  0
TABLE
  2
APPID
  5
9
330
0
100
AcDbSymbolTable
 70
     1
  0
APPID
  5
12
330
9
100
AcDbSymbolTableRecord
100
AcDbRegAppTableRecord
  2
ACAD
 70
     0
  0
ENDTAB
  0
TABLE
  2
DIMSTYLE
  5
A
330
0
100
AcDbSymbolTable
 70
     1
  0
DIMSTYLE
105
147
330
A
100
AcDbSymbolTableRecord
100
AcDbDimStyleTableRecord
  2
STANDARD
 70
     0
  3

  4

  5

  6

  7

 40
1.0
 41
0.18
 42
0.0625
 43
0.38
 44
0.18
 45
0.0
 46
0.0
 47
0.0
 48
0.0
140
0.18
141
0.09
142
0.0
143
25.4
144
1.0
145
0.0
146
1.0
147
0.09
 71
     0
 72
     0
 73
     1
 74
     1
 75
     0
 76
     0
 77
     0
 78
     0
170
     0
171
     2
172
     0
173
     0
174
     0
175
     0
176
     0
177
     0
178
     0
270
     2
271
     4
272
     4
273
     2
274
     2
340
11
275
     0
280
     0
281
     0
282
     0
283
     1
284
     0
285
     0
286
     0
287
     3
288
     0
  0
ENDTAB
  0
TABLE
  2
BLOCK_RECORD
  5
1
330
0
100
AcDbSymbolTable
 70
     5
  0
BLOCK_RECORD
  5
1E
102
{ACAD_XDICTIONARY
360
16C
102
}
330
1
100
AcDbSymbolTableRecord
100
AcDbBlockTableRecord
  2
*MODEL_SPACE
  0
BLOCK_RECORD
  5
1A
102
{ACAD_XDICTIONARY
360
16A
102
}
330
1
100
AcDbSymbolTableRecord
100
AcDbBlockTableRecord
  2
*PAPER_SPACE
  0
BLOCK_RECORD
  5
30
330
1
100
AcDbSymbolTableRecord
100
AcDbBlockTableRecord
  2
D03SPB
  0
BLOCK_RECORD
  5
45
330
1
100
AcDbSymbolTableRecord
100
AcDbBlockTableRecord
  2
100CROSS
  0
BLOCK_RECORD
  5
EA
330
1
100
AcDbSymbolTableRecord
100
AcDbBlockTableRecord
  2
050CROSS
  0
BLOCK_RECORD
  5
F5
330
1
100
AcDbSymbolTableRecord
100
AcDbBlockTableRecord
  2
038NPTFT
  0
BLOCK_RECORD
  5
F7
330
1
100
AcDbSymbolTableRecord
100
AcDbBlockTableRecord
  2
375NPTFT
  0
ENDTAB
  0
ENDSEC
  0
SECTION
  2
BLOCKS
  0
BLOCK
  5
1F
330
1E
100
AcDbEntity
  8
0
100
AcDbBlockBegin
  2
*MODEL_SPACE
 70
     0
 10
0.0
 20
0.0
 30
0.0
  3
*MODEL_SPACE
  1

  0
ENDBLK
  5
20
330
1E
100
AcDbEntity
  8
0
100
AcDbBlockEnd
  0
BLOCK
  5
1B
330
1A
100
AcDbEntity
 67
     1
  8
0
100
AcDbBlockBegin
  2
*PAPER_SPACE
 70
     0
 10
0.0
 20
0.0
 30
0.0
  3
*PAPER_SPACE
  1

  0
ENDBLK
  5
1C
330
1A
100
AcDbEntity
 67
     1
  8
0
100
AcDbBlockEnd
  0
BLOCK
  5
31
330
30
100
AcDbEntity
  8
0
100
AcDbBlockBegin
  2
D03SPB
 70
     0
 10
0.0
 20
0.0
 30
0.0
  3
D03SPB
  1

  0
LWPOLYLINE
  5
32
330
30
100
AcDbEntity
  8
BORDER
100
AcDbPolyline
 90
        4
 70
     1
 43
0.0
 10
8.0
 20
6.0
 10
8.0
 20
8.5
 10
9.0
 20
8.5
 10
9.0
 20
6.0
  0
LWPOLYLINE
  5
38
330
30
100
AcDbEntity
  8
BORDER
100
AcDbPolyline
 90
        4
 70
     1
 43
0.0
 10
3.5
 20
6.0
 10
3.5
 20
8.5
 10
6.0
 20
8.5
 10
6.0
 20
6.0
  0
LWPOLYLINE
  5
3E
330
30
100
AcDbEntity
  8
BORDER
100
AcDbPolyline
 90
        4
 70
     1
 43
0.0
 10
11.5
 20
6.0
 10
11.5
 20
8.5
 10
14.0
 20
8.5
 10
14.0
 20
6.0
  0
CIRCLE
  5
44
330
30
100
AcDbEntity
  8
CSOLID
100
AcDbCircle
 10
4.141874999999999
 20
6.73125
 30
0.0
 40
0.0855
  0
INSERT
  5
46
330
30
100
AcDbEntity
  8
CCENTER
100
AcDbBlockReference
  2
100CROSS
 10
4.141874999999999
 20
6.73125
 30
0.0
 41
0.171
 42
0.171
  0
INSERT
  5
47
330
30
100
AcDbEntity
  8
CCENTER
100
AcDbBlockReference
  2
100CROSS
 10
4.781875
 20
6.84375
 30
0.0
 41
0.25
 42
0.25
  0
CIRCLE
  5
48
330
30
100
AcDbEntity
  8
CSOLID
100
AcDbCircle
 10
4.781875
 20
6.84375
 30
0.0
 40
0.125
  0
CIRCLE
  5
49
330
30
100
AcDbEntity
  8
CSOLID
100
AcDbCircle
 10
4.375375
 20
7.187249999999999
 30
0.0
 40
0.125
  0
INSERT
  5
4A
330
30
100
AcDbEntity
  8
CCENTER
100
AcDbBlockReference
  2
100CROSS
 10
4.375375
 20
7.187249999999999
 30
0.0
 41
0.25
 42
0.25
  0
INSERT
  5
4B
330
30
100
AcDbEntity
  8
CCENTER
100
AcDbBlockReference
  2
100CROSS
 10
5.187875
 20
7.187249999999999
 30
0.0
 41
0.25
 42
0.25
  0
CIRCLE
  5
4C
330
30
100
AcDbEntity
  8
CSOLID
100
AcDbCircle
 10
5.187875
 20
7.187249999999999
 30
0.0
 40
0.125
  0
CIRCLE
  5
4D
330
30
100
AcDbEntity
  8
CSOLID
100
AcDbCircle
 10
4.781875
 20
7.53125
 30
0.0
 40
0.125
  0
INSERT
  5
4E
330
30
100
AcDbEntity
  8
CCENTER
100
AcDbBlockReference
  2
100CROSS
 10
4.781875
 20
7.53125
 30
0.0
 41
0.25
 42
0.25
  0
CIRCLE
  5
4F
330
30
100
AcDbEntity
  8
CSOLID
100
AcDbCircle
 10
4.141874999999999
 20
6.4375
 30
0.0
 40
0.078
  0
CIRCLE
  5
50
330
30
100
AcDbEntity
  8
CSOLID
100
AcDbCircle
 10
5.421875
 20
6.4375
 30
0.0
 40
0.078
  0
CIRCLE
  5
51
330
30
100
AcDbEntity
  8
CSOLID
100
AcDbCircle
 10
5.391874999999999
 20
8.03125
 30
0.0
 40
0.078
  0
CIRCLE
  5
52
330
30
100
AcDbEntity
  8
CSOLID
100
AcDbCircle
 10
4.171875
 20
8.03125
 30
0.0
 40
0.078
  0
INSERT
  5
53
330
30
100
AcDbEntity
  8
CCENTER
100
AcDbBlockReference
  2
100CROSS
 10
4.141874999999999
 20
6.437249999999999
 30
0.0
 41
0.188
 42
0.188
  0
INSERT
  5
54
330
30
100
AcDbEntity
  8
CCENTER
100
AcDbBlockReference
  2
100CROSS
 10
5.421875
 20
6.437249999999999
 30
0.0
 41
0.188
 42
0.188
  0
INSERT
  5
55
330
30
100
AcDbEntity
  8
CCENTER
100
AcDbBlockReference
  2
100CROSS
 10
5.391874999999999
 20
8.03125
 30
0.0
 41
0.188
 42
0.188
  0
INSERT
  5
56
330
30
100
AcDbEntity
  8
CCENTER
100
AcDbBlockReference
  2
100CROSS
 10
4.171875
 20
8.03125
 30
0.0
 41
0.188
 42
0.188
  0
CIRCLE
  5
57
330
30
100
AcDbEntity
  8
CHIDDEN
100
AcDbCircle
 10
4.141874999999999
 20
6.437249999999999
 30
0.0
 40
0.095
  0
CIRCLE
  5
58
330
30
100
AcDbEntity
  8
CHIDDEN
100
AcDbCircle
 10
5.421875
 20
6.437249999999999
 30
0.0
 40
0.095
  0
CIRCLE
  5
59
330
30
100
AcDbEntity
  8
CHIDDEN
100
AcDbCircle
 10
4.171875
 20
8.03125
 30
0.0
 40
0.095
  0
CIRCLE
  5
5A
330
30
100
AcDbEntity
  8
CHIDDEN
100
AcDbCircle
 10
5.391874999999999
 20
8.03125
 30
0.0
 40
0.095
  0
INSERT
  5
5B
330
30
100
AcDbEntity
  8
CCENTER
100
AcDbBlockReference
  2
100CROSS
 10
11.75
 20
8.25
 30
0.0
 41
-0.40625
 42
0.40625
 43
0.40625
 50
180.0
  0
INSERT
  5
5C
330
30
100
AcDbEntity
  8
CCENTER
100
AcDbBlockReference
  2
100CROSS
 10
13.75
 20
6.25
 30
0.0
 41
-0.40625
 42
0.40625
 43
0.40625
 50
180.0
  0
CIRCLE
  5
5D
330
30
100
AcDbEntity
  8
CSOLID
100
AcDbCircle
 10
13.75
 20
6.25
 30
0.0
 40
0.140625
  0
CIRCLE
  5
5E
330
30
100
AcDbEntity
  8
CSOLID
100
AcDbCircle
 10
11.75
 20
8.25
 30
0.0
 40
0.140625
  0
CIRCLE
  5
5F
330
30
100
AcDbEntity
  8
CSOLID
100
AcDbCircle
 10
3.75
 20
6.25
 30
0.0
 40
0.140625
  0
CIRCLE
  5
60
330
30
100
AcDbEntity
  8
CSOLID
100
AcDbCircle
 10
3.75
 20
6.25
 30
0.0
 40
0.203125
  0
INSERT
  5
61
330
30
100
AcDbEntity
  8
CCENTER
100
AcDbBlockReference
  2
100CROSS
 10
3.75
 20
6.25
 30
0.0
 41
0.40625
 42
0.40625
 43
0.40625
 50
180.0
  0
CIRCLE
  5
62
330
30
100
AcDbEntity
  8
CSOLID
100
AcDbCircle
 10
5.75
 20
8.25
 30
0.0
 40
0.140625
  0
CIRCLE
  5
63
330
30
100
AcDbEntity
  8
CSOLID
100
AcDbCircle
 10
5.75
 20
8.25
 30
0.0
 40
0.203125
  0
INSERT
  5
64
330
30
100
AcDbEntity
  8
CCENTER
100
AcDbBlockReference
  2
100CROSS
 10
5.75
 20
8.25
 30
0.0
 41
0.40625
 42
0.40625
 43
0.40625
 50
180.0
  0
LINE
  5
65
330
30
100
AcDbEntity
  8
CCENTER
100
AcDbLine
 10
12.71875
 20
7.420313
 30
0.0
 11
12.71875
 21
6.981063
 31
0.0
  0
LINE
  5
66
330
30
100
AcDbEntity
  8
CCENTER
100
AcDbLine
 10
12.436625
 20
7.1875
 30
0.0
 11
13.000875
 21
7.1875
 31
0.0
  0
INSERT
  5
67
330
30
100
AcDbEntity
  8
CCENTER
100
AcDbBlockReference
  2
100CROSS
 10
12.03125
 20
7.1875
 30
0.0
  0
CIRCLE
  5
68
330
30
100
AcDbEntity
  8
CHIDDEN
100
AcDbCircle
 10
12.03125
 20
7.1875
 30
0.0
 40
0.28125
  0
ARC
  5
69
330
30
100
AcDbEntity
  8
CSOLID
100
AcDbCircle
 10
12.03125
 20
7.1875
 30
0.0
 40
0.5
100
AcDbArc
 50
339.426818
 51
20.573182
  0
CIRCLE
  5
6A
330
30
100
AcDbEntity
  8
CSOLID
100
AcDbCircle
 10
12.03125
 20
7.1875
 30
0.0
 40
0.25
  0
INSERT
  5
6B
330
30
100
AcDbEntity
  8
CCENTER
100
AcDbBlockReference
  2
100CROSS
 10
12.71875
 20
7.8125
 30
0.0
  0
CIRCLE
  5
6C
330
30
100
AcDbEntity
  8
CHIDDEN
100
AcDbCircle
 10
12.71875
 20
7.8125
 30
0.0
 40
0.28125
  0
ARC
  5
6D
330
30
100
AcDbEntity
  8
CSOLID
100
AcDbCircle
 10
12.71875
 20
7.8125
 30
0.0
 40
0.5
100
AcDbArc
 50
243.9741959999999
 51
296.0258039999999
  0
CIRCLE
  5
6E
330
30
100
AcDbEntity
  8
CSOLID
100
AcDbCircle
 10
12.71875
 20
7.8125
 30
0.0
 40
0.25
  0
INSERT
  5
6F
330
30
100
AcDbEntity
  8
CCENTER
100
AcDbBlockReference
  2
100CROSS
 10
13.40625
 20
7.1875
 30
0.0
  0
CIRCLE
  5
70
330
30
100
AcDbEntity
  8
CHIDDEN
100
AcDbCircle
 10
13.40625
 20
7.1875
 30
0.0
 40
0.28125
  0
ARC
  5
71
330
30
100
AcDbEntity
  8
CSOLID
100
AcDbCircle
 10
13.40625
 20
7.1875
 30
0.0
 40
0.5
100
AcDbArc
 50
159.426818
 51
200.573182
  0
CIRCLE
  5
72
330
30
100
AcDbEntity
  8
CSOLID
100
AcDbCircle
 10
13.40625
 20
7.1875
 30
0.0
 40
0.25
  0
INSERT
  5
73
330
30
100
AcDbEntity
  8
CCENTER
100
AcDbBlockReference
  2
100CROSS
 10
12.71875
 20
6.5625
 30
0.0
  0
CIRCLE
  5
74
330
30
100
AcDbEntity
  8
CHIDDEN
100
AcDbCircle
 10
12.71875
 20
6.5625
 30
0.0
 40
0.28125
  0
ARC
  5
75
330
30
100
AcDbEntity
  8
CSOLID
100
AcDbCircle
 10
12.71875
 20
6.5625
 30
0.0
 40
0.5
100
AcDbArc
 50
159.426818
 51
20.573182
  0
CIRCLE
  5
76
330
30
100
AcDbEntity
  8
CSOLID
100
AcDbCircle
 10
12.71875
 20
6.5625
 30
0.0
 40
0.25
  0
ARC
  5
77
330
30
100
AcDbEntity
  8
CSOLID
100
AcDbCircle
 10
12.03125
 20
7.1875
 30
0.0
 40
0.5
100
AcDbArc
 50
63.974196
 51
296.0258039999999
  0
ARC
  5
78
330
30
100
AcDbEntity
  8
CSOLID
100
AcDbCircle
 10
12.71875
 20
7.8125
 30
0.0
 40
0.5
100
AcDbArc
 50
339.426818
 51
200.573182
  0
ARC
  5
79
330
30
100
AcDbEntity
  8
CSOLID
100
AcDbCircle
 10
13.40625
 20
7.1875
 30
0.0
 40
0.5
100
AcDbArc
 50
243.9741959999999
 51
116.025804
  0
ARC
  5
7A
330
30
100
AcDbEntity
  8
CSOLID
100
AcDbCircle
 10
12.71875
 20
6.5625
 30
0.0
 40
0.5
100
AcDbArc
 50
63.974196
 51
116.025804
  0
TEXT
  5
7B
330
30
100
AcDbEntity
  8
CDIM
100
AcDbText
 10
13.125
 20
8.1875
 30
0.0
 40
0.25
  1
A
  7
STR
100
AcDbText
  0
TEXT
  5
7C
330
30
100
AcDbEntity
  8
CDIM
100
AcDbText
 10
13.71875
 20
7.625
 30
0.0
 40
0.25
  1
P
  7
STR
100
AcDbText
  0
TEXT
  5
7D
330
30
100
AcDbEntity
  8
CDIM
100
AcDbText
 10
12.09375
 20
6.03125
 30
0.0
 40
0.25
  1
B
  7
STR
100
AcDbText
  0
TEXT
  5
7E
330
30
100
AcDbEntity
  8
CDIM
100
AcDbText
 10
11.5625
 20
7.625
 30
0.0
 40
0.25
  1
T
  7
STR
100
AcDbText
  0
LINE
  5
7F
330
30
100
AcDbEntity
  8
CDIM
100
AcDbLine
 10
3.5
 20
8.589286999999998
 30
0.0
 11
3.5
 21
9.178575
 31
0.0
  0
LINE
  5
80
330
30
100
AcDbEntity
  8
CDIM
100
AcDbLine
 10
4.375375
 20
7.276536999999999
 30
0.0
 11
4.375375
 21
9.178575
 31
0.0
  0
LINE
  5
81
330
30
100
AcDbEntity
  8
CDIM
100
AcDbLine
 10
4.55395
 20
9.0
 30
0.0
 11
4.732524999999999
 21
9.0
 31
0.0
  0
LINE
  5
82
330
30
100
AcDbEntity
  8
CDIM
100
AcDbLine
 10
3.321425
 20
9.0
 30
0.0
 11
3.14285
 21
9.0
 31
0.0
  0
SOLID
  5
83
330
30
100
AcDbEntity
  8
CDIM
100
AcDbTrace
 10
4.55395
 20
8.970238
 30
0.0
 11
4.55395
 21
9.029763
 31
0.0
 12
4.375375
 22
9.0
 32
0.0
 13
4.375375
 23
9.0
 33
0.0
  0
SOLID
  5
84
330
30
100
AcDbEntity
  8
CDIM
100
AcDbTrace
 10
3.321425
 20
8.970238
 30
0.0
 11
3.321425
 21
9.029763
 31
0.0
 12
3.5
 22
9.0
 32
0.0
 13
3.5
 23
9.0
 33
0.0
  0
TEXT
  5
85
330
30
100
AcDbEntity
  8
CDIM
100
AcDbText
 10
3.629849999999999
 20
8.899998
 30
0.0
 40
0.200004
  1
0.88
  7
STR
100
AcDbText
  0
LINE
  5
86
330
30
100
AcDbEntity
  8
CDIM
100
AcDbLine
 10
3.5
 20
8.589286999999998
 30
0.0
 11
3.5
 21
9.714299999999999
 31
0.0
  0
LINE
  5
87
330
30
100
AcDbEntity
  8
CDIM
100
AcDbLine
 10
6.0
 20
8.589286999999998
 30
0.0
 11
6.0
 21
9.714299999999999
 31
0.0
  0
LINE
  5
88
330
30
100
AcDbEntity
  8
CDIM
100
AcDbLine
 10
3.678574999999999
 20
9.535724999999999
 30
0.0
 11
4.266657
 21
9.535724999999999
 31
0.0
  0
LINE
  5
89
330
30
100
AcDbEntity
  8
CDIM
100
AcDbLine
 10
5.821424999999999
 20
9.535724999999999
 30
0.0
 11
5.233342999999999
 21
9.535724999999999
 31
0.0
  0
SOLID
  5
8A
330
30
100
AcDbEntity
  8
CDIM
100
AcDbTrace
 10
3.678574999999999
 20
9.505962
 30
0.0
 11
3.678574999999999
 21
9.565488
 31
0.0
 12
3.5
 22
9.535724999999999
 32
0.0
 13
3.5
 23
9.535724999999999
 33
0.0
  0
SOLID
  5
8B
330
30
100
AcDbEntity
  8
CDIM
100
AcDbTrace
 10
5.821424999999999
 20
9.505962
 30
0.0
 11
5.821424999999999
 21
9.565488
 31
0.0
 12
6.0
 22
9.535724999999999
 32
0.0
 13
6.0
 23
9.535724999999999
 33
0.0
  0
TEXT
  5
8C
330
30
100
AcDbEntity
  8
CDIM
100
AcDbText
 10
4.445231999999999
 20
9.435722999999999
 30
0.0
 40
0.200004
  1
2.50
  7
STR
100
AcDbText
  0
LINE
  5
8D
330
30
100
AcDbEntity
  8
CDIM
100
AcDbLine
 10
3.410712999999999
 20
8.5
 30
0.0
 11
2.821424999999999
 21
8.5
 31
0.0
  0
LINE
  5
8E
330
30
100
AcDbEntity
  8
CDIM
100
AcDbLine
 10
4.286087
 20
7.187249999999999
 30
0.0
 11
2.821424999999999
 21
7.187249999999999
 31
0.0
  0
LINE
  5
8F
330
30
100
AcDbEntity
  8
CDIM
100
AcDbLine
 10
3.0
 20
8.321424999999999
 30
0.0
 11
3.0
 21
8.122201999999999
 31
0.0
  0
LINE
  5
90
330
30
100
AcDbEntity
  8
CDIM
100
AcDbLine
 10
3.0
 20
7.365825
 30
0.0
 11
3.0
 21
7.565047999999999
 31
0.0
  0
SOLID
  5
91
330
30
100
AcDbEntity
  8
CDIM
100
AcDbTrace
 10
3.029762999999999
 20
8.321424999999999
 30
0.0
 11
2.970238
 21
8.321424999999999
 31
0.0
 12
3.0
 22
8.5
 32
0.0
 13
3.0
 23
8.5
 33
0.0
  0
SOLID
  5
92
330
30
100
AcDbEntity
  8
CDIM
100
AcDbTrace
 10
3.029762999999999
 20
7.365825
 30
0.0
 11
2.970238
 21
7.365825
 31
0.0
 12
3.0
 22
7.187249999999999
 32
0.0
 13
3.0
 23
7.187249999999999
 33
0.0
  0
TEXT
  5
93
330
30
100
AcDbEntity
  8
CDIM
100
AcDbText
 10
2.757138
 20
7.743622999999999
 30
0.0
 40
0.200004
  1
1.31
  7
STR
100
AcDbText
  0
LINE
  5
94
330
30
100
AcDbEntity
  8
CDIM
100
AcDbLine
 10
3.410712999999999
 20
8.5
 30
0.0
 11
2.285699999999999
 21
8.5
 31
0.0
  0
LINE
  5
95
330
30
100
AcDbEntity
  8
CDIM
100
AcDbLine
 10
3.410712999999999
 20
6.0
 30
0.0
 11
2.285699999999999
 21
6.0
 31
0.0
  0
LINE
  5
96
330
30
100
AcDbEntity
  8
CDIM
100
AcDbLine
 10
2.464275
 20
8.321424999999999
 30
0.0
 11
2.464275
 21
7.247327
 31
0.0
  0
LINE
  5
97
330
30
100
AcDbEntity
  8
CDIM
100
AcDbLine
 10
2.464275
 20
6.178575
 30
0.0
 11
2.464275
 21
6.690172999999999
 31
0.0
  0
SOLID
  5
98
330
30
100
AcDbEntity
  8
CDIM
100
AcDbTrace
 10
2.494038
 20
8.321424999999999
 30
0.0
 11
2.434512999999999
 21
8.321424999999999
 31
0.0
 12
2.464275
 22
8.5
 32
0.0
 13
2.464275
 23
8.5
 33
0.0
  0
SOLID
  5
99
330
30
100
AcDbEntity
  8
CDIM
100
AcDbTrace
 10
2.494038
 20
6.178575
 30
0.0
 11
2.434512999999999
 21
6.178575
 31
0.0
 12
2.464275
 22
6.0
 32
0.0
 13
2.464275
 23
6.0
 33
0.0
  0
TEXT
  5
9A
330
30
100
AcDbEntity
  8
CDIM
100
AcDbText
 10
2.159507
 20
6.868747999999999
 30
0.0
 40
0.200004
  1
2.50
  7
STR
100
AcDbText
  0
LINE
  5
9B
330
30
100
AcDbEntity
  8
CDIM
100
AcDbLine
 10
6.089287999999999
 20
8.5
 30
0.0
 11
6.678575
 21
8.5
 31
0.0
  0
LINE
  5
9C
330
30
100
AcDbEntity
  8
CDIM
100
AcDbLine
 10
5.839287
 20
8.25
 30
0.0
 11
6.678575
 21
8.25
 31
0.0
  0
LINE
  5
9D
330
30
100
AcDbEntity
  8
CDIM
100
AcDbLine
 10
6.5
 20
8.071424999999999
 30
0.0
 11
6.5
 21
7.89285
 31
0.0
  0
LINE
  5
9E
330
30
100
AcDbEntity
  8
CDIM
100
AcDbLine
 10
6.5
 20
8.678575
 30
0.0
 11
6.5
 21
8.85715
 31
0.0
  0
SOLID
  5
9F
330
30
100
AcDbEntity
  8
CDIM
100
AcDbTrace
 10
6.529762999999999
 20
8.071424999999999
 30
0.0
 11
6.470238
 21
8.071424999999999
 31
0.0
 12
6.5
 22
8.25
 32
0.0
 13
6.5
 23
8.25
 33
0.0
  0
SOLID
  5
A0
330
30
100
AcDbEntity
  8
CDIM
100
AcDbTrace
 10
6.529762999999999
 20
8.678575
 30
0.0
 11
6.470238
 21
8.678575
 31
0.0
 12
6.5
 22
8.5
 32
0.0
 13
6.5
 23
8.5
 33
0.0
  0
TEXT
  5
A1
330
30
100
AcDbEntity
  8
CDIM
100
AcDbText
 10
6.158313999999999
 20
7.574097999999999
 30
0.0
 40
0.200004
  1
0.25
  7
STR
100
AcDbText
  0
LINE
  5
A2
330
30
100
AcDbEntity
  8
CDIM
100
AcDbLine
 10
6.089287999999999
 20
8.5
 30
0.0
 11
7.214299999999999
 21
8.5
 31
0.0
  0
LINE
  5
A3
330
30
100
AcDbEntity
  8
CDIM
100
AcDbLine
 10
3.839287
 20
6.25
 30
0.0
 11
7.214299999999999
 21
6.25
 31
0.0
  0
LINE
  5
A4
330
30
100
AcDbEntity
  8
CDIM
100
AcDbLine
 10
7.035725
 20
8.321424999999999
 30
0.0
 11
7.035725
 21
7.497327
 31
0.0
  0
LINE
  5
A5
330
30
100
AcDbEntity
  8
CDIM
100
AcDbLine
 10
7.035725
 20
6.428575
 30
0.0
 11
7.035725
 21
6.940172999999999
 31
0.0
  0
SOLID
  5
A6
330
30
100
AcDbEntity
  8
CDIM
100
AcDbTrace
 10
7.065488
 20
8.321424999999999
 30
0.0
 11
7.005963
 21
8.321424999999999
 31
0.0
 12
7.035725
 22
8.5
 32
0.0
 13
7.035725
 23
8.5
 33
0.0
  0
SOLID
  5
A7
330
30
100
AcDbEntity
  8
CDIM
100
AcDbTrace
 10
7.065488
 20
6.428575
 30
0.0
 11
7.005963
 21
6.428575
 31
0.0
 12
7.035725
 22
6.25
 32
0.0
 13
7.035725
 23
6.25
 33
0.0
  0
TEXT
  5
A8
330
30
100
AcDbEntity
  8
CDIM
100
AcDbText
 10
6.730957
 20
7.118747999999999
 30
0.0
 40
0.200004
  1
2.25
  7
STR
100
AcDbText
  0
LINE
  5
A9
330
30
100
AcDbEntity
  8
CDIM
100
AcDbLine
 10
3.5
 20
5.910712999999999
 30
0.0
 11
3.5
 21
5.321424999999999
 31
0.0
  0
LINE
  5
AA
330
30
100
AcDbEntity
  8
CDIM
100
AcDbLine
 10
3.75
 20
6.160712
 30
0.0
 11
3.75
 21
5.321424999999999
 31
0.0
  0
LINE
  5
AB
330
30
100
AcDbEntity
  8
CDIM
100
AcDbLine
 10
3.928575
 20
5.5
 30
0.0
 11
4.107149999999999
 21
5.5
 31
0.0
  0
LINE
  5
AC
330
30
100
AcDbEntity
  8
CDIM
100
AcDbLine
 10
3.321425
 20
5.5
 30
0.0
 11
3.14285
 21
5.5
 31
0.0
  0
SOLID
  5
AD
330
30
100
AcDbEntity
  8
CDIM
100
AcDbTrace
 10
3.928575
 20
5.470238
 30
0.0
 11
3.928575
 21
5.529762999999999
 31
0.0
 12
3.75
 22
5.5
 32
0.0
 13
3.75
 23
5.5
 33
0.0
  0
SOLID
  5
AE
330
30
100
AcDbEntity
  8
CDIM
100
AcDbTrace
 10
3.321425
 20
5.470238
 30
0.0
 11
3.321425
 21
5.529762999999999
 31
0.0
 12
3.5
 22
5.5
 32
0.0
 13
3.5
 23
5.5
 33
0.0
  0
TEXT
  5
AF
330
30
100
AcDbEntity
  8
CDIM
100
AcDbText
 10
4.285725
 20
5.399998
 30
0.0
 40
0.200004
  1
0.25
  7
STR
100
AcDbText
  0
LINE
  5
B0
330
30
100
AcDbEntity
  8
CDIM
100
AcDbLine
 10
3.5
 20
5.910712999999999
 30
0.0
 11
3.5
 21
4.7857
 31
0.0
  0
LINE
  5
B1
330
30
100
AcDbEntity
  8
CDIM
100
AcDbLine
 10
5.75
 20
8.160712
 30
0.0
 11
5.75
 21
4.7857
 31
0.0
  0
LINE
  5
B2
330
30
100
AcDbEntity
  8
CDIM
100
AcDbLine
 10
3.678574999999999
 20
4.964274999999999
 30
0.0
 11
4.141657
 21
4.964274999999999
 31
0.0
  0
LINE
  5
B3
330
30
100
AcDbEntity
  8
CDIM
100
AcDbLine
 10
5.571424999999999
 20
4.964274999999999
 30
0.0
 11
5.108342999999999
 21
4.964274999999999
 31
0.0
  0
SOLID
  5
B4
330
30
100
AcDbEntity
  8
CDIM
100
AcDbTrace
 10
3.678574999999999
 20
4.934512999999999
 30
0.0
 11
3.678574999999999
 21
4.994037999999999
 31
0.0
 12
3.5
 22
4.964274999999999
 32
0.0
 13
3.5
 23
4.964274999999999
 33
0.0
  0
SOLID
  5
B5
330
30
100
AcDbEntity
  8
CDIM
100
AcDbTrace
 10
5.571424999999999
 20
4.934512999999999
 30
0.0
 11
5.571424999999999
 21
4.994037999999999
 31
0.0
 12
5.75
 22
4.964274999999999
 32
0.0
 13
5.75
 23
4.964274999999999
 33
0.0
  0
TEXT
  5
B6
330
30
100
AcDbEntity
  8
CDIM
100
AcDbText
 10
4.320231999999999
 20
4.864273
 30
0.0
 40
0.200004
  1
2.25
  7
STR
100
AcDbText
  0
LINE
  5
B7
330
30
100
AcDbEntity
  8
CDIM
100
AcDbLine
 10
8.0
 20
8.589286999999998
 30
0.0
 11
8.0
 21
9.178575
 31
0.0
  0
LINE
  5
B8
330
30
100
AcDbEntity
  8
CDIM
100
AcDbLine
 10
9.0
 20
8.589286999999998
 30
0.0
 11
9.0
 21
9.178575
 31
0.0
  0
LINE
  5
B9
330
30
100
AcDbEntity
  8
CDIM
100
AcDbLine
 10
9.178575
 20
9.0
 30
0.0
 11
9.35715
 21
9.0
 31
0.0
  0
LINE
  5
BA
330
30
100
AcDbEntity
  8
CDIM
100
AcDbLine
 10
7.821424999999999
 20
9.0
 30
0.0
 11
7.64285
 21
9.0
 31
0.0
  0
SOLID
  5
BB
330
30
100
AcDbEntity
  8
CDIM
100
AcDbTrace
 10
9.178575
 20
8.970238
 30
0.0
 11
9.178575
 21
9.029763
 31
0.0
 12
9.0
 22
9.0
 32
0.0
 13
9.0
 23
9.0
 33
0.0
  0
SOLID
  5
BC
330
30
100
AcDbEntity
  8
CDIM
100
AcDbTrace
 10
7.821424999999999
 20
8.970238
 30
0.0
 11
7.821424999999999
 21
9.029763
 31
0.0
 12
8.0
 22
9.0
 32
0.0
 13
8.0
 23
9.0
 33
0.0
  0
TEXT
  5
BD
330
30
100
AcDbEntity
  8
CDIM
100
AcDbText
 10
8.223224999999999
 20
8.899998
 30
0.0
 40
0.200004
  1
1.00
  7
STR
100
AcDbText
  0
LINE
  5
BE
330
30
100
AcDbEntity
  8
CDIM
100
AcDbLine
 10
14.0
 20
8.589286999999998
 30
0.0
 11
14.0
 21
9.178575
 31
0.0
  0
LINE
  5
BF
330
30
100
AcDbEntity
  8
CDIM
100
AcDbLine
 10
13.40625
 20
7.714288
 30
0.0
 11
13.40625
 21
9.178575
 31
0.0
  0
LINE
  5
C0
330
30
100
AcDbEntity
  8
CDIM
100
AcDbLine
 10
13.227675
 20
9.0
 30
0.0
 11
13.0491
 21
9.0
 31
0.0
  0
LINE
  5
C1
330
30
100
AcDbEntity
  8
CDIM
100
AcDbLine
 10
14.178575
 20
9.0
 30
0.0
 11
14.35715
 21
9.0
 31
0.0
  0
SOLID
  5
C2
330
30
100
AcDbEntity
  8
CDIM
100
AcDbTrace
 10
13.227675
 20
8.970238
 30
0.0
 11
13.227675
 21
9.029763
 31
0.0
 12
13.40625
 22
9.0
 32
0.0
 13
13.40625
 23
9.0
 33
0.0
  0
SOLID
  5
C3
330
30
100
AcDbEntity
  8
CDIM
100
AcDbTrace
 10
14.178575
 20
8.970238
 30
0.0
 11
14.178575
 21
9.029763
 31
0.0
 12
14.0
 22
9.0
 32
0.0
 13
14.0
 23
9.0
 33
0.0
  0
TEXT
  5
C4
330
30
100
AcDbEntity
  8
CDIM
100
AcDbText
 10
13.624391
 20
8.899998
 30
0.0
 40
0.200004
  1
A
  7
STR
100
AcDbText
  0
LINE
  5
C5
330
30
100
AcDbEntity
  8
CDIM
100
AcDbLine
 10
14.0
 20
8.589286999999998
 30
0.0
 11
14.0
 21
9.714299999999999
 31
0.0
  0
LINE
  5
C6
330
30
100
AcDbEntity
  8
CDIM
100
AcDbLine
 10
12.71875
 20
8.401786999999998
 30
0.0
 11
12.71875
 21
9.714299999999999
 31
0.0
  0
LINE
  5
C7
330
30
100
AcDbEntity
  8
CDIM
100
AcDbLine
 10
12.540175
 20
9.535724999999999
 30
0.0
 11
12.36159999999999
 21
9.535724999999999
 31
0.0
  0
LINE
  5
C8
330
30
100
AcDbEntity
  8
CDIM
100
AcDbLine
 10
14.178575
 20
9.535724999999999
 30
0.0
 11
14.35715
 21
9.535724999999999
 31
0.0
  0
SOLID
  5
C9
330
30
100
AcDbEntity
  8
CDIM
100
AcDbTrace
 10
12.540175
 20
9.505962
 30
0.0
 11
12.540175
 21
9.565488
 31
0.0
 12
12.71875
 22
9.535724999999999
 32
0.0
 13
12.71875
 23
9.535724999999999
 33
0.0
  0
SOLID
  5
CA
330
30
100
AcDbEntity
  8
CDIM
100
AcDbTrace
 10
14.178575
 20
9.505962
 30
0.0
 11
14.178575
 21
9.565488
 31
0.0
 12
14.0
 22
9.535724999999999
 32
0.0
 13
14.0
 23
9.535724999999999
 33
0.0
  0
TEXT
  5
CB
330
30
100
AcDbEntity
  8
CDIM
100
AcDbText
 10
13.080335
 20
9.435722999999999
 30
0.0
 40
0.200004
  1
1.28
  7
STR
100
AcDbText
  0
LINE
  5
CC
330
30
100
AcDbEntity
  8
CDIM
100
AcDbLine
 10
14.0
 20
8.589286999999998
 30
0.0
 11
14.0
 21
10.250025
 31
0.0
  0
LINE
  5
CD
330
30
100
AcDbEntity
  8
CDIM
100
AcDbLine
 10
12.03125
 20
7.776788
 30
0.0
 11
12.03125
 21
10.250025
 31
0.0
  0
LINE
  5
CE
330
30
100
AcDbEntity
  8
CDIM
100
AcDbLine
 10
13.821425
 20
10.07145
 30
0.0
 11
13.26086799999999
 21
10.07145
 31
0.0
  0
LINE
  5
CF
330
30
100
AcDbEntity
  8
CDIM
100
AcDbLine
 10
12.209825
 20
10.07145
 30
0.0
 11
12.770382
 21
10.07145
 31
0.0
  0
SOLID
  5
D0
330
30
100
AcDbEntity
  8
CDIM
100
AcDbTrace
 10
13.821425
 20
10.041688
 30
0.0
 11
13.821425
 21
10.101213
 31
0.0
 12
14.0
 22
10.07145
 32
0.0
 13
14.0
 23
10.07145
 33
0.0
  0
SOLID
  5
D1
330
30
100
AcDbEntity
  8
CDIM
100
AcDbTrace
 10
12.209825
 20
10.041688
 30
0.0
 11
12.209825
 21
10.101213
 31
0.0
 12
12.03125
 22
10.07145
 32
0.0
 13
12.03125
 23
10.07145
 33
0.0
  0
TEXT
  5
D2
330
30
100
AcDbEntity
  8
CDIM
100
AcDbText
 10
12.948957
 20
9.971447999999998
 30
0.0
 40
0.200004
  1
B
  7
STR
100
AcDbText
  0
LINE
  5
D3
330
30
100
AcDbEntity
  8
CDIM
100
AcDbLine
 10
11.410713
 20
8.5
 30
0.0
 11
10.82142499999999
 21
8.5
 31
0.0
  0
LINE
  5
D4
330
30
100
AcDbEntity
  8
CDIM
100
AcDbLine
 10
12.129462
 20
7.8125
 30
0.0
 11
10.82142499999999
 21
7.8125
 31
0.0
  0
LINE
  5
D5
330
30
100
AcDbEntity
  8
CDIM
100
AcDbLine
 10
11.0
 20
7.633924999999999
 30
0.0
 11
11.0
 21
7.45535
 31
0.0
  0
LINE
  5
D6
330
30
100
AcDbEntity
  8
CDIM
100
AcDbLine
 10
11.0
 20
8.678575
 30
0.0
 11
11.0
 21
8.85715
 31
0.0
  0
SOLID
  5
D7
330
30
100
AcDbEntity
  8
CDIM
100
AcDbTrace
 10
11.029763
 20
7.633924999999999
 30
0.0
 11
10.970238
 21
7.633924999999999
 31
0.0
 12
11.0
 22
7.8125
 32
0.0
 13
11.0
 23
7.8125
 33
0.0
  0
SOLID
  5
D8
330
30
100
AcDbEntity
  8
CDIM
100
AcDbTrace
 10
11.029763
 20
8.678575
 30
0.0
 11
10.970238
 21
8.678575
 31
0.0
 12
11.0
 22
8.5
 32
0.0
 13
11.0
 23
8.5
 33
0.0
  0
TEXT
  5
D9
330
30
100
AcDbEntity
  8
CDIM
100
AcDbText
 10
10.93748999999999
 20
8.042847999999999
 30
0.0
 40
0.200004
  1
C
  7
STR
100
AcDbText
  0
LINE
  5
DA
330
30
100
AcDbEntity
  8
CDIM
100
AcDbLine
 10
11.410713
 20
8.5
 30
0.0
 11
10.28569999999999
 21
8.5
 31
0.0
  0
LINE
  5
DB
330
30
100
AcDbEntity
  8
CDIM
100
AcDbLine
 10
11.441962
 20
7.1875
 30
0.0
 11
10.28569999999999
 21
7.1875
 31
0.0
  0
LINE
  5
DC
330
30
100
AcDbEntity
  8
CDIM
100
AcDbLine
 10
10.464275
 20
8.321424999999999
 30
0.0
 11
10.464275
 21
8.122327
 31
0.0
  0
LINE
  5
DD
330
30
100
AcDbEntity
  8
CDIM
100
AcDbLine
 10
10.464275
 20
7.366075
 30
0.0
 11
10.464275
 21
7.565172999999999
 31
0.0
  0
SOLID
  5
DE
330
30
100
AcDbEntity
  8
CDIM
100
AcDbTrace
 10
10.494038
 20
8.321424999999999
 30
0.0
 11
10.434513
 21
8.321424999999999
 31
0.0
 12
10.464275
 22
8.5
 32
0.0
 13
10.464275
 23
8.5
 33
0.0
  0
SOLID
  5
DF
330
30
100
AcDbEntity
  8
CDIM
100
AcDbTrace
 10
10.494038
 20
7.366075
 30
0.0
 11
10.434513
 21
7.366075
 31
0.0
 12
10.464275
 22
7.1875
 32
0.0
 13
10.464275
 23
7.1875
 33
0.0
  0
TEXT
  5
E0
330
30
100
AcDbEntity
  8
CDIM
100
AcDbText
 10
10.221413
 20
7.743747999999999
 30
0.0
 40
0.200004
  1
1.31
  7
STR
100
AcDbText
  0
LINE
  5
E1
330
30
100
AcDbEntity
  8
CDIM
100
AcDbLine
 10
11.410713
 20
8.5
 30
0.0
 11
9.749974999999999
 21
8.5
 31
0.0
  0
LINE
  5
E2
330
30
100
AcDbEntity
  8
CDIM
100
AcDbLine
 10
12.129462
 20
6.5625
 30
0.0
 11
9.749974999999999
 21
6.5625
 31
0.0
  0
LINE
  5
E3
330
30
100
AcDbEntity
  8
CDIM
100
AcDbLine
 10
9.928549999999999
 20
8.321424999999999
 30
0.0
 11
9.928549999999999
 21
7.809827
 31
0.0
  0
LINE
  5
E4
330
30
100
AcDbEntity
  8
CDIM
100
AcDbLine
 10
9.928549999999999
 20
6.741075
 30
0.0
 11
9.928549999999999
 21
7.252672999999999
 31
0.0
  0
SOLID
  5
E5
330
30
100
AcDbEntity
  8
CDIM
100
AcDbTrace
 10
9.958313
 20
8.321424999999999
 30
0.0
 11
9.898787999999999
 21
8.321424999999999
 31
0.0
 12
9.928549999999999
 22
8.5
 32
0.0
 13
9.928549999999999
 23
8.5
 33
0.0
  0
SOLID
  5
E6
330
30
100
AcDbEntity
  8
CDIM
100
AcDbTrace
 10
9.958313
 20
6.741075
 30
0.0
 11
9.898787999999999
 21
6.741075
 31
0.0
 12
9.928549999999999
 22
6.5625
 32
0.0
 13
9.928549999999999
 23
6.5625
 33
0.0
  0
TEXT
  5
E7
330
30
100
AcDbEntity
  8
CDIM
100
AcDbText
 10
9.861882000000001
 20
7.431247999999999
 30
0.0
 40
0.200004
  1
D
  7
STR
100
AcDbText
  0
ENDBLK
  5
E8
330
30
100
AcDbEntity
  8
0
100
AcDbBlockEnd
  0
BLOCK
  5
E9
330
45
100
AcDbEntity
  8
BORDER
100
AcDbBlockBegin
  2
100CROSS
 70
     0
 10
5.625
 20
4.59375
 30
0.0
  3
100CROSS
  1

  0
INSERT
  5
EB
330
45
100
AcDbEntity
  8
0
100
AcDbBlockReference
  2
050CROSS
 10
5.625
 20
4.59375
 30
0.0
  0
ENDBLK
  5
EC
330
45
100
AcDbEntity
  8
0
100
AcDbBlockEnd
  0
BLOCK
  5
ED
330
EA
100
AcDbEntity
  8
0
100
AcDbBlockBegin
  2
050CROSS
 70
     0
 10
5.0
 20
5.0
 30
0.0
  3
050CROSS
  1

  0
LINE
  5
EE
330
EA
100
AcDbEntity
  8
0
100
AcDbLine
 10
5.0
 20
5.28125
 30
0.0
 11
5.0
 21
5.78125
 31
0.0
  0
LINE
  5
EF
330
EA
100
AcDbEntity
  8
0
100
AcDbLine
 10
5.0
 20
4.875
 30
0.0
 11
5.0
 21
5.125
 31
0.0
  0
LINE
  5
F0
330
EA
100
AcDbEntity
  8
0
100
AcDbLine
 10
5.0
 20
4.15625
 30
0.0
 11
5.0
 21
4.71875
 31
0.0
  0
LINE
  5
F1
330
EA
100
AcDbEntity
  8
0
100
AcDbLine
 10
5.25
 20
5.0
 30
0.0
 11
5.8125
 21
5.0
 31
0.0
  0
LINE
  5
F2
330
EA
100
AcDbEntity
  8
0
100
AcDbLine
 10
4.90625
 20
5.0
 30
0.0
 11
5.09375
 21
5.0
 31
0.0
  0
LINE
  5
F3
330
EA
100
AcDbEntity
  8
0
100
AcDbLine
 10
4.1875
 20
5.0
 30
0.0
 11
4.75
 21
5.0
 31
0.0
  0
ENDBLK
  5
F4
330
EA
100
AcDbEntity
  8
0
100
AcDbBlockEnd
  0
BLOCK
  5
F6
330
F5
100
AcDbEntity
  8
0
100
AcDbBlockBegin
  2
038NPTFT
 70
     0
 10
0.0
 20
0.0
 30
0.0
  3
038NPTFT
  1

  0
INSERT
  5
F8
330
F5
100
AcDbEntity
  8
DAMAN
100
AcDbBlockReference
  2
375NPTFT
 10
0.0
 20
0.0
 30
0.0
  0
ENDBLK
  5
F9
330
F5
100
AcDbEntity
  8
0
100
AcDbBlockEnd
  0
BLOCK
  5
FA
330
F7
100
AcDbEntity
  8
0
100
AcDbBlockBegin
  2
375NPTFT
 70
     0
 10
0.0
 20
0.0
 30
0.0
  3
375NPTFT
  1

  0
INSERT
  5
FB
330
F7
100
AcDbEntity
  8
DAMAN
100
AcDbBlockReference
  2
100CROSS
 10
0.0
 20
0.0
 30
0.0
 41
0.6800000000000001
 42
0.6800000000000001
  0
CIRCLE
  5
FC
330
F7
100
AcDbEntity
  8
DAMAN
100
AcDbCircle
 10
0.0
 20
0.0
 30
0.0
 40
0.3125
  0
CIRCLE
  5
FD
330
F7
100
AcDbEntity
  8
DAMAN
100
AcDbCircle
 10
0.0
 20
0.0
 30
0.0
 40
0.281
  0
CIRCLE
  5
FE
330
F7
100
AcDbEntity
  8
DAMAN
100
AcDbCircle
 10
0.0
 20
0.0
 30
0.0
 40
0.3439999999999999
  0
ENDBLK
  5
FF
330
F7
100
AcDbEntity
  8
0
100
AcDbBlockEnd
  0
ENDSEC
  0
SECTION
  2
ENTITIES
  0
LWPOLYLINE
  5
100
330
1E
100
AcDbEntity
  8
DAMAN
100
AcDbPolyline
 90
        4
 70
     1
 43
0.0
 10
8.125
 20
7.1875
 10
8.125
 20
9.6875
 10
9.125
 20
9.6875
 10
9.125
 20
7.1875
  0
LWPOLYLINE
  5
106
330
1E
100
AcDbEntity
  8
DAMAN
100
AcDbPolyline
 90
        4
 70
     1
 43
0.0
 10
4.625
 20
7.1875
 10
4.625
 20
9.6875
 10
7.125
 20
9.6875
 10
7.125
 20
7.1875
  0
LWPOLYLINE
  5
10C
330
1E
100
AcDbEntity
  8
DAMAN
100
AcDbPolyline
 90
        4
 70
     1
 43
0.0
 10
10.12499999999999
 20
7.1875
 10
10.12499999999999
 20
9.6875
 10
12.625
 20
9.6875
 10
12.625
 20
7.1875
  0
CIRCLE
  5
112
330
1E
100
AcDbEntity
  8
DAMAN
100
AcDbCircle
 10
5.266874999999999
 20
7.91875
 30
0.0
 40
0.0855
  0
INSERT
  5
113
330
1E
100
AcDbEntity
  8
DAMAN
100
AcDbBlockReference
  2
100CROSS
 10
5.266874999999999
 20
7.91875
 30
0.0
 41
0.171
 42
0.171
  0
INSERT
  5
114
330
1E
100
AcDbEntity
  8
DAMAN
100
AcDbBlockReference
  2
100CROSS
 10
5.906875
 20
8.03125
 30
0.0
 41
0.25
 42
0.25
  0
CIRCLE
  5
115
330
1E
100
AcDbEntity
  8
DAMAN
100
AcDbCircle
 10
5.906875
 20
8.03125
 30
0.0
 40
0.125
  0
CIRCLE
  5
116
330
1E
100
AcDbEntity
  8
DAMAN
100
AcDbCircle
 10
5.500375
 20
8.37475
 30
0.0
 40
0.125
  0
INSERT
  5
117
330
1E
100
AcDbEntity
  8
DAMAN
100
AcDbBlockReference
  2
100CROSS
 10
5.500375
 20
8.37475
 30
0.0
 41
0.25
 42
0.25
  0
INSERT
  5
118
330
1E
100
AcDbEntity
  8
DAMAN
100
AcDbBlockReference
  2
100CROSS
 10
6.312875
 20
8.37475
 30
0.0
 41
0.25
 42
0.25
  0
CIRCLE
  5
119
330
1E
100
AcDbEntity
  8
DAMAN
100
AcDbCircle
 10
6.312875
 20
8.37475
 30
0.0
 40
0.125
  0
CIRCLE
  5
11A
330
1E
100
AcDbEntity
  8
DAMAN
100
AcDbCircle
 10
5.906875
 20
8.71875
 30
0.0
 40
0.125
  0
INSERT
  5
11B
330
1E
100
AcDbEntity
  8
DAMAN
100
AcDbBlockReference
  2
100CROSS
 10
5.906875
 20
8.71875
 30
0.0
 41
0.25
 42
0.25
  0
CIRCLE
  5
11C
330
1E
100
AcDbEntity
  8
DAMAN
100
AcDbCircle
 10
5.266874999999999
 20
7.625
 30
0.0
 40
0.078
  0
CIRCLE
  5
11D
330
1E
100
AcDbEntity
  8
DAMAN
100
AcDbCircle
 10
6.546875
 20
7.625
 30
0.0
 40
0.078
  0
CIRCLE
  5
11E
330
1E
100
AcDbEntity
  8
DAMAN
100
AcDbCircle
 10
6.516874999999999
 20
9.21875
 30
0.0
 40
0.078
  0
CIRCLE
  5
11F
330
1E
100
AcDbEntity
  8
DAMAN
100
AcDbCircle
 10
5.296875
 20
9.21875
 30
0.0
 40
0.078
  0
INSERT
  5
120
330
1E
100
AcDbEntity
  8
DAMAN
100
AcDbBlockReference
  2
100CROSS
 10
5.266874999999999
 20
7.624749999999999
 30
0.0
 41
0.188
 42
0.188
  0
INSERT
  5
121
330
1E
100
AcDbEntity
  8
DAMAN
100
AcDbBlockReference
  2
100CROSS
 10
6.546875
 20
7.624749999999999
 30
0.0
 41
0.188
 42
0.188
  0
INSERT
  5
122
330
1E
100
AcDbEntity
  8
DAMAN
100
AcDbBlockReference
  2
100CROSS
 10
6.516874999999999
 20
9.21875
 30
0.0
 41
0.188
 42
0.188
  0
INSERT
  5
123
330
1E
100
AcDbEntity
  8
DAMAN
100
AcDbBlockReference
  2
100CROSS
 10
5.296875
 20
9.21875
 30
0.0
 41
0.188
 42
0.188
  0
CIRCLE
  5
124
330
1E
100
AcDbEntity
  8
DAMAN
100
AcDbCircle
 10
5.266874999999999
 20
7.624749999999999
 30
0.0
 40
0.095
  0
CIRCLE
  5
125
330
1E
100
AcDbEntity
  8
DAMAN
100
AcDbCircle
 10
6.546875
 20
7.624749999999999
 30
0.0
 40
0.095
  0
CIRCLE
  5
126
330
1E
100
AcDbEntity
  8
DAMAN
100
AcDbCircle
 10
5.296875
 20
9.21875
 30
0.0
 40
0.095
  0
CIRCLE
  5
127
330
1E
100
AcDbEntity
  8
DAMAN
100
AcDbCircle
 10
6.516874999999999
 20
9.21875
 30
0.0
 40
0.095
  0
INSERT
  5
128
330
1E
100
AcDbEntity
  8
DAMAN
100
AcDbBlockReference
  2
100CROSS
 10
10.375
 20
9.4375
 30
0.0
 41
-0.40625
 42
0.40625
 43
0.40625
 50
180.0
  0
INSERT
  5
129
330
1E
100
AcDbEntity
  8
DAMAN
100
AcDbBlockReference
  2
100CROSS
 10
12.375
 20
7.4375
 30
0.0
 41
-0.40625
 42
0.40625
 43
0.40625
 50
180.0
  0
CIRCLE
  5
12A
330
1E
100
AcDbEntity
  8
DAMAN
100
AcDbCircle
 10
12.375
 20
7.4375
 30
0.0
 40
0.140625
  0
CIRCLE
  5
12B
330
1E
100
AcDbEntity
  8
DAMAN
100
AcDbCircle
 10
10.375
 20
9.4375
 30
0.0
 40
0.140625
  0
CIRCLE
  5
12C
330
1E
100
AcDbEntity
  8
DAMAN
100
AcDbCircle
 10
4.875
 20
7.4375
 30
0.0
 40
0.140625
  0
CIRCLE
  5
12D
330
1E
100
AcDbEntity
  8
DAMAN
100
AcDbCircle
 10
4.875
 20
7.4375
 30
0.0
 40
0.203125
  0
INSERT
  5
12E
330
1E
100
AcDbEntity
  8
DAMAN
100
AcDbBlockReference
  2
100CROSS
 10
4.875
 20
7.4375
 30
0.0
 41
0.40625
 42
0.40625
 43
0.40625
 50
180.0
  0
CIRCLE
  5
12F
330
1E
100
AcDbEntity
  8
DAMAN
100
AcDbCircle
 10
6.875
 20
9.4375
 30
0.0
 40
0.140625
  0
CIRCLE
  5
130
330
1E
100
AcDbEntity
  8
DAMAN
100
AcDbCircle
 10
6.875
 20
9.4375
 30
0.0
 40
0.203125
  0
INSERT
  5
131
330
1E
100
AcDbEntity
  8
DAMAN
100
AcDbBlockReference
  2
100CROSS
 10
6.875
 20
9.4375
 30
0.0
 41
0.40625
 42
0.40625
 43
0.40625
 50
180.0
  0
LINE
  5
132
330
1E
100
AcDbEntity
  8
DAMAN
100
AcDbLine
 10
11.34375
 20
8.607813
 30
0.0
 11
11.34375
 21
8.168563
 31
0.0
  0
LINE
  5
133
330
1E
100
AcDbEntity
  8
DAMAN
100
AcDbLine
 10
11.06162499999999
 20
8.375
 30
0.0
 11
11.625875
 21
8.375
 31
0.0
  0
INSERT
  5
134
330
1E
100
AcDbEntity
  8
DAMAN
100
AcDbBlockReference
  2
100CROSS
 10
10.65625
 20
8.375
 30
0.0
 41
0.5
 42
0.5
 43
0.5
  0
INSERT
  5
135
330
1E
100
AcDbEntity
  8
DAMAN
100
AcDbBlockReference
  2
100CROSS
 10
11.34375
 20
9.0
 30
0.0
 41
0.5
 42
0.5
 43
0.5
  0
INSERT
  5
136
330
1E
100
AcDbEntity
  8
DAMAN
100
AcDbBlockReference
  2
100CROSS
 10
12.03125
 20
8.375
 30
0.0
 41
0.5
 42
0.5
 43
0.5
  0
INSERT
  5
137
330
1E
100
AcDbEntity
  8
DAMAN
100
AcDbBlockReference
  2
100CROSS
 10
11.34375
 20
7.75
 30
0.0
 41
0.5
 42
0.5
 43
0.5
  0
TEXT
  5
138
330
1E
100
AcDbEntity
  8
DAMAN
100
AcDbText
 10
11.75
 20
9.375
 30
0.0
 40
0.25
  1
A
  7
STR
100
AcDbText
  0
TEXT
  5
139
330
1E
100
AcDbEntity
  8
DAMAN
100
AcDbText
 10
12.34375
 20
8.8125
 30
0.0
 40
0.25
  1
P
  7
STR
100
AcDbText
  0
TEXT
  5
13A
330
1E
100
AcDbEntity
  8
DAMAN
100
AcDbText
 10
10.71875
 20
7.21875
 30
0.0
 40
0.25
  1
B
  7
STR
100
AcDbText
  0
TEXT
  5
13B
330
1E
100
AcDbEntity
  8
DAMAN
100
AcDbText
 10
10.1875
 20
8.8125
 30
0.0
 40
0.25
  1
T
  7
STR
100
AcDbText
  0
LWPOLYLINE
  5
13C
330
1E
100
AcDbEntity
  8
DAMAN
100
AcDbPolyline
 90
        4
 70
     1
 43
0.0
 10
4.6875
 20
6.0625
 10
7.1875
 20
6.0625
 10
7.1875
 20
5.0625
 10
4.6875
 20
5.0625
  0
TEXT
  5
142
330
1E
100
AcDbEntity
  8
DAMAN
100
AcDbText
 10
5.083156339425606
 20
5.635216811839345
 30
0.0
 40
0.188
  1
DAMAN ****
100
AcDbText
  0
INSERT
  5
143
330
1E
100
AcDbEntity
  8
DAMAN
100
AcDbBlockReference
  2
038NPTFT
 10
11.34375
 20
7.75
 30
0.0
  0
INSERT
  5
144
330
1E
100
AcDbEntity
  8
DAMAN
100
AcDbBlockReference
  2
038NPTFT
 10
10.65625
 20
8.375
 30
0.0
  0
INSERT
  5
145
330
1E
100
AcDbEntity
  8
DAMAN
100
AcDbBlockReference
  2
038NPTFT
 10
11.34375
 20
9.0
 30
0.0
  0
INSERT
  5
146
330
1E
100
AcDbEntity
  8
DAMAN
100
AcDbBlockReference
  2
038NPTFT
 10
12.03125
 20
8.375
 30
0.0
  0
ENDSEC
  0
SECTION
  2
OBJECTS
  0
DICTIONARY
  5
C
330
0
100
AcDbDictionary
  3
ACAD_GROUP
350
D
  3
ACAD_LAYOUT
350
19
  3
ACAD_MLINESTYLE
350
16
  3
ACAD_PLOTSETTINGS
350
18
  3
ACAD_PLOTSTYLENAME
350
E
  3
ACDBHEADERROUNDTRIPXREC
350
14A
  0
DICTIONARY
  5
16C
330
1E
100
AcDbDictionary
280
     1
  3
ACAD_LAYOUTSELFREF
360
16D
  0
DICTIONARY
  5
16A
330
1A
100
AcDbDictionary
280
     1
  3
ACAD_LAYOUTSELFREF
360
16B
  0
DICTIONARY
  5
D
102
{ACAD_REACTORS
330
C
102
}
330
C
100
AcDbDictionary
  0
DICTIONARY
  5
19
102
{ACAD_REACTORS
330
C
102
}
330
C
100
AcDbDictionary
  0
DICTIONARY
  5
16
102
{ACAD_REACTORS
330
C
102
}
330
C
100
AcDbDictionary
  3
STANDARD
350
17
  0
DICTIONARY
  5
18
102
{ACAD_REACTORS
330
C
102
}
330
C
100
AcDbDictionary
  0
ACDBDICTIONARYWDFLT
  5
E
102
{ACAD_REACTORS
330
C
102
}
330
C
100
AcDbDictionary
281
     1
  3
Normal
350
F
100
AcDbDictionaryWithDefault
340
F
  0
DICTIONARY
  5
14A
102
{ACAD_REACTORS
330
C
102
}
330
C
100
AcDbDictionary
  3
CEPSNTYPE
350
154
  3
FINGERPRINTGUID
350
155
  3
HYPERLINKBASE
350
14D
  3
INSUNITS
350
153
  3
LAYOUTDICT
350
14F
  3
LWETCUNION
350
152
  3
PLOTSETDICT
350
150
  3
PLOTSTYLNAMDICT
350
151
  3
PSVPSCALE
350
157
  3
PUCSBASE
350
15A
  3
PUCSORGBACK
350
160
  3
PUCSORGBOTTOM
350
15C
  3
PUCSORGFRONT
350
15F
  3
PUCSORGLEFT
350
15D
  3
PUCSORGRIGHT
350
15E
  3
PUCSORGTOP
350
15B
  3
PUCSORTHOREF
350
158
  3
PUCSORTHOVIEW
350
159
  3
STYLESHEET
350
14E
  3
TSTACKALIGN
350
14B
  3
TSTACKSIZE
350
14C
  3
UCSBASE
350
163
  3
UCSORGBACK
350
169
  3
UCSORGBOTTOM
350
165
  3
UCSORGFRONT
350
168
  3
UCSORGLEFT
350
166
  3
UCSORGRIGHT
350
167
  3
UCSORGTOP
350
164
  3
UCSORTHOREF
350
161
  3
UCSORTHOVIEW
350
162
  3
VERSIONGUID
350
156
  0
XRECORD
  5
16D
102
{ACAD_REACTORS
330
16C
102
}
330
16C
100
AcDbXrecord
340
1E
  0
XRECORD
  5
16B
102
{ACAD_REACTORS
330
16A
102
}
330
16A
100
AcDbXrecord
340
1A
  0
MLINESTYLE
  5
17
102
{ACAD_REACTORS
330
16
102
}
330
16
100
AcDbMlineStyle
  2
STANDARD
 70
     0
  3

 62
   256
 51
90.0
 52
90.0
 71
     2
 49
0.5
 62
   256
  6
BYLAYER
 49
-0.5
 62
   256
  6
BYLAYER
  0
ACDBPLACEHOLDER
  5
F
102
{ACAD_REACTORS
330
E
102
}
330
E
100
AcDbPlaceHolder
280
     0
  0
XRECORD
  5
154
102
{ACAD_REACTORS
330
14A
102
}
330
14A
100
AcDbXrecord
 90
        0
  0
XRECORD
  5
155
102
{ACAD_REACTORS
330
14A
102
}
330
14A
100
AcDbXrecord
  1
{E33CFA91-8CCF-4439-AF90-DD1E3DB8C1AF}
  0
XRECORD
  5
14D
102
{ACAD_REACTORS
330
14A
102
}
330
14A
100
AcDbXrecord
  1

  0
XRECORD
  5
153
102
{ACAD_REACTORS
330
14A
102
}
330
14A
100
AcDbXrecord
 90
        0
  0
XRECORD
  5
14F
102
{ACAD_REACTORS
330
14A
102
}
330
14A
100
AcDbXrecord
340
19
  0
XRECORD
  5
152
102
{ACAD_REACTORS
330
14A
102
}
330
14A
100
AcDbXrecord
 90
    10781
  0
XRECORD
  5
150
102
{ACAD_REACTORS
330
14A
102
}
330
14A
100
AcDbXrecord
340
18
  0
XRECORD
  5
151
102
{ACAD_REACTORS
330
14A
102
}
330
14A
100
AcDbXrecord
340
E
  0
XRECORD
  5
157
102
{ACAD_REACTORS
330
14A
102
}
330
14A
100
AcDbXrecord
 40
0.0
  0
XRECORD
  5
15A
102
{ACAD_REACTORS
330
14A
102
}
330
14A
100
AcDbXrecord
340
0
  0
XRECORD
  5
160
102
{ACAD_REACTORS
330
14A
102
}
330
14A
100
AcDbXrecord
 10
0.0
 20
0.0
 30
0.0
  0
XRECORD
  5
15C
102
{ACAD_REACTORS
330
14A
102
}
330
14A
100
AcDbXrecord
 10
0.0
 20
0.0
 30
0.0
  0
XRECORD
  5
15F
102
{ACAD_REACTORS
330
14A
102
}
330
14A
100
AcDbXrecord
 10
0.0
 20
0.0
 30
0.0
  0
XRECORD
  5
15D
102
{ACAD_REACTORS
330
14A
102
}
330
14A
100
AcDbXrecord
 10
0.0
 20
0.0
 30
0.0
  0
XRECORD
  5
15E
102
{ACAD_REACTORS
330
14A
102
}
330
14A
100
AcDbXrecord
 10
0.0
 20
0.0
 30
0.0
  0
XRECORD
  5
15B
102
{ACAD_REACTORS
330
14A
102
}
330
14A
100
AcDbXrecord
 10
0.0
 20
0.0
 30
0.0
  0
XRECORD
  5
158
102
{ACAD_REACTORS
330
14A
102
}
330
14A
100
AcDbXrecord
340
0
  0
XRECORD
  5
159
102
{ACAD_REACTORS
330
14A
102
}
330
14A
100
AcDbXrecord
 70
     0
  0
XRECORD
  5
14E
102
{ACAD_REACTORS
330
14A
102
}
330
14A
100
AcDbXrecord
  1

  0
XRECORD
  5
14B
102
{ACAD_REACTORS
330
14A
102
}
330
14A
100
AcDbXrecord
 90
        1
  0
XRECORD
  5
14C
102
{ACAD_REACTORS
330
14A
102
}
330
14A
100
AcDbXrecord
 90
       70
  0
XRECORD
  5
163
102
{ACAD_REACTORS
330
14A
102
}
330
14A
100
AcDbXrecord
340
0
  0
XRECORD
  5
169
102
{ACAD_REACTORS
330
14A
102
}
330
14A
100
AcDbXrecord
 10
0.0
 20
0.0
 30
0.0
  0
XRECORD
  5
165
102
{ACAD_REACTORS
330
14A
102
}
330
14A
100
AcDbXrecord
 10
0.0
 20
0.0
 30
0.0
  0
XRECORD
  5
168
102
{ACAD_REACTORS
330
14A
102
}
330
14A
100
AcDbXrecord
 10
0.0
 20
0.0
 30
0.0
  0
XRECORD
  5
166
102
{ACAD_REACTORS
330
14A
102
}
330
14A
100
AcDbXrecord
 10
0.0
 20
0.0
 30
0.0
  0
XRECORD
  5
167
102
{ACAD_REACTORS
330
14A
102
}
330
14A
100
AcDbXrecord
 10
0.0
 20
0.0
 30
0.0
  0
XRECORD
  5
164
102
{ACAD_REACTORS
330
14A
102
}
330
14A
100
AcDbXrecord
 10
0.0
 20
0.0
 30
0.0
  0
XRECORD
  5
161
102
{ACAD_REACTORS
330
14A
102
}
330
14A
100
AcDbXrecord
340
0
  0
XRECORD
  5
162
102
{ACAD_REACTORS
330
14A
102
}
330
14A
100
AcDbXrecord
 70
     0
  0
XRECORD
  5
156
102
{ACAD_REACTORS
330
14A
102
}
330
14A
100
AcDbXrecord
  1
{E9E1A1E4-A4D0-46B9-B7B6-660977E46F6B}
  0
ENDSEC
  0
EOF
