  0
SECTION
  2
HEADER
  9
$ACADVER
  1
AC1014
  9
$ACADMAINTVER
 70
     9
  9
$DWGCODEPAGE
  3
ANSI_1252
  9
$INSBASE
 10
0.0
 20
0.0
 30
0.0
  9
$EXTMIN
 10
8.372353325272385
 20
2.124194996794912
 30
-0.0015258207003583
  9
$EXTMAX
 10
30.25010140611335
 20
20.62590779338952
 30
0.0000000349246037
  9
$LIMMIN
 10
0.0
 20
0.0
  9
$LIMMAX
 10
12.0
 20
9.0
  9
$ORTHOMODE
 70
     0
  9
$REGENMODE
 70
     1
  9
$FILLMODE
 70
     1
  9
$QTEXTMODE
 70
     0
  9
$MIRRTEXT
 70
     1
  9
$DRAGMODE
 70
     2
  9
$LTSCALE
 40
1.0
  9
$OSMODE
 70
    37
  9
$ATTMODE
 70
     1
  9
$TEXTSIZE
 40
0.2
  9
$TRACEWID
 40
0.05
  9
$TEXTSTYLE
  7
STANDARD
  9
$CLAYER
  8
0
  9
$CELTYPE
  6
CONTINUOUS
  9
$CECOLOR
 62
   256
  9
$CELTSCALE
 40
1.0
  9
$DELOBJ
 70
     1
  9
$DISPSILH
 70
     0
  9
$DIMSCALE
 40
1.0
  9
$DIMASZ
 40
0.18
  9
$DIMEXO
 40
0.0625
  9
$DIMDLI
 40
0.38
  9
$DIMRND
 40
0.0
  9
$DIMDLE
 40
0.0
  9
$DIMEXE
 40
0.18
  9
$DIMTP
 40
0.0
  9
$DIMTM
 40
0.0
  9
$DIMTXT
 40
0.18
  9
$DIMCEN
 40
0.09
  9
$DIMTSZ
 40
0.0
  9
$DIMTOL
 70
     0
  9
$DIMLIM
 70
     0
  9
$DIMTIH
 70
     1
  9
$DIMTOH
 70
     1
  9
$DIMSE1
 70
     0
  9
$DIMSE2
 70
     0
  9
$DIMTAD
 70
     0
  9
$DIMZIN
 70
     0
  9
$DIMBLK
  1

  9
$DIMASO
 70
     1
  9
$DIMSHO
 70
     1
  9
$DIMPOST
  1

  9
$DIMAPOST
  1

  9
$DIMALT
 70
     0
  9
$DIMALTD
 70
     2
  9
$DIMALTF
 40
25.4
  9
$DIMLFAC
 40
1.0
  9
$DIMTOFL
 70
     0
  9
$DIMTVP
 40
0.0
  9
$DIMTIX
 70
     0
  9
$DIMSOXD
 70
     0
  9
$DIMSAH
 70
     0
  9
$DIMBLK1
  1

  9
$DIMBLK2
  1

  9
$DIMSTYLE
  2
STANDARD
  9
$DIMCLRD
 70
     0
  9
$DIMCLRE
 70
     0
  9
$DIMCLRT
 70
     0
  9
$DIMTFAC
 40
1.0
  9
$DIMGAP
 40
0.09
  9
$DIMJUST
 70
     0
  9
$DIMSD1
 70
     0
  9
$DIMSD2
 70
     0
  9
$DIMTOLJ
 70
     1
  9
$DIMTZIN
 70
     0
  9
$DIMALTZ
 70
     0
  9
$DIMALTTZ
 70
     0
  9
$DIMFIT
 70
     3
  9
$DIMUPT
 70
     0
  9
$DIMUNIT
 70
     2
  9
$DIMDEC
 70
     4
  9
$DIMTDEC
 70
     4
  9
$DIMALTU
 70
     2
  9
$DIMALTTD
 70
     2
  9
$DIMTXSTY
  7
STANDARD
  9
$DIMAUNIT
 70
     0
  9
$LUNITS
 70
     2
  9
$LUPREC
 70
     4
  9
$SKETCHINC
 40
0.1
  9
$FILLETRAD
 40
0.0
  9
$AUNITS
 70
     0
  9
$AUPREC
 70
     0
  9
$MENU
  1
.
  9
$ELEVATION
 40
0.0
  9
$PELEVATION
 40
0.0
  9
$THICKNESS
 40
0.0
  9
$LIMCHECK
 70
     0
  9
$BLIPMODE
 70
     0
  9
$CHAMFERA
 40
0.0
  9
$CHAMFERB
 40
0.0
  9
$CHAMFERC
 40
0.0
  9
$CHAMFERD
 40
0.0
  9
$SKPOLY
 70
     0
  9
$TDCREATE
 40
2453523.476657951
  9
$TDUPDATE
 40
2453523.482530243
  9
$TDINDWG
 40
0.0058726620
  9
$TDUSRTIMER
 40
0.0058726620
  9
$USRTIMER
 70
     1
  9
$ANGBASE
 50
0.0
  9
$ANGDIR
 70
     0
  9
$PDMODE
 70
     0
  9
$PDSIZE
 40
0.0
  9
$PLINEWID
 40
0.0
  9
$COORDS
 70
     1
  9
$SPLFRAME
 70
     0
  9
$SPLINETYPE
 70
     6
  9
$SPLINESEGS
 70
     8
  9
$ATTDIA
 70
     0
  9
$ATTREQ
 70
     1
  9
$HANDLING
 70
-16383
  9
$HANDSEED
  5
840
  9
$SURFTAB1
 70
     6
  9
$SURFTAB2
 70
     6
  9
$SURFTYPE
 70
     6
  9
$SURFU
 70
     6
  9
$SURFV
 70
     6
  9
$UCSNAME
  2

  9
$UCSORG
 10
0.0
 20
0.0
 30
0.0
  9
$UCSXDIR
 10
1.0
 20
0.0
 30
0.0
  9
$UCSYDIR
 10
0.0
 20
1.0
 30
0.0
  9
$PUCSNAME
  2

  9
$PUCSORG
 10
0.0
 20
0.0
 30
0.0
  9
$PUCSXDIR
 10
1.0
 20
0.0
 30
0.0
  9
$PUCSYDIR
 10
0.0
 20
1.0
 30
0.0
  9
$USERI1
 70
     0
  9
$USERI2
 70
     0
  9
$USERI3
 70
     0
  9
$USERI4
 70
     0
  9
$USERI5
 70
     0
  9
$USERR1
 40
0.0
  9
$USERR2
 40
0.0
  9
$USERR3
 40
0.0
  9
$USERR4
 40
0.0
  9
$USERR5
 40
0.0
  9
$WORLDVIEW
 70
     1
  9
$SHADEDGE
 70
     3
  9
$SHADEDIF
 70
    70
  9
$TILEMODE
 70
     1
  9
$MAXACTVP
 70
    64
  9
$PINSBASE
 10
0.0
 20
0.0
 30
0.0
  9
$PLIMCHECK
 70
     0
  9
$PEXTMIN
 10
1.000000000000000E+20
 20
1.000000000000000E+20
 30
1.000000000000000E+20
  9
$PEXTMAX
 10
-1.000000000000000E+20
 20
-1.000000000000000E+20
 30
-1.000000000000000E+20
  9
$PLIMMIN
 10
0.0
 20
0.0
  9
$PLIMMAX
 10
12.0
 20
9.0
  9
$UNITMODE
 70
     0
  9
$VISRETAIN
 70
     1
  9
$PLINEGEN
 70
     0
  9
$PSLTSCALE
 70
     1
  9
$TREEDEPTH
 70
  3020
  9
$PICKSTYLE
 70
     1
  9
$CMLSTYLE
  2
STANDARD
  9
$CMLJUST
 70
     0
  9
$CMLSCALE
 40
1.0
  9
$PROXYGRAPHICS
 70
     1
  9
$MEASUREMENT
 70
     0
  0
ENDSEC
  0
SECTION
  2
CLASSES
  0
CLASS
  1
ACDBDICTIONARYWDFLT
  2
AcDbDictionaryWithDefault
  3
AutoCAD 2000
 90
        0
280
     0
281
     0
  0
CLASS
  1
ACDBPLACEHOLDER
  2
AcDbPlaceHolder
  3
AutoCAD 2000
 90
        0
280
     0
281
     0
  0
CLASS
  1
LAYOUT
  2
AcDbLayout
  3
AutoCAD 2000
 90
        0
280
     0
281
     0
  0
CLASS
  1
LONG_TRANSACTION
  2
AcDbLongTransaction
  3
AutoCAD 2000
 90
        0
280
     0
281
     0
  0
CLASS
  1
LWPOLYLINE
  2
AcDbPolyline
  3
AutoCAD 2000
 90
        0
280
     0
281
     1
  0
CLASS
  1
HATCH
  2
AcDbHatch
  3
AutoCAD 2000
 90
        0
280
     0
281
     1
  0
CLASS
  1
XRECORD
  2
AcDbXrecord
  3
AutoCAD 2000
 90
        0
280
     0
281
     0
  0
ENDSEC
  0
SECTION
  2
TABLES
  0
TABLE
  2
VPORT
  5
8
330
0
100
AcDbSymbolTable
 70
     9
  0
VPORT
  5
81B
330
8
100
AcDbSymbolTableRecord
100
AcDbViewportTableRecord
  2
*ACTIVE
 70
     0
 10
0.0
 20
0.0
 11
1.0
 21
1.0
 12
19.31122736569287
 22
11.37505139509221
 13
0.0
 23
0.0
 14
1.0
 24
1.0
 15
0.0
 25
0.0
 16
0.0
 26
0.0
 36
1.0
 17
0.0
 27
0.0
 37
0.0
 40
18.69410495739109
 41
1.647569444444444
 42
50.0
 43
0.0
 44
0.0
 50
0.0
 51
0.0
 71
     0
 72
   100
 73
     1
 74
     1
 75
     0
 76
     0
 77
     0
 78
     0
  0
ENDTAB
  0
TABLE
  2
LTYPE
  5
5
330
0
100
AcDbSymbolTable
 70
    12
  0
LTYPE
  5
13
330
5
100
AcDbSymbolTableRecord
100
AcDbLinetypeTableRecord
  2
BYBLOCK
 70
     0
  3

 72
    65
 73
     0
 40
0.0
  0
LTYPE
  5
14
330
5
100
AcDbSymbolTableRecord
100
AcDbLinetypeTableRecord
  2
BYLAYER
 70
     0
  3

 72
    65
 73
     0
 40
0.0
  0
LTYPE
  5
15
330
5
100
AcDbSymbolTableRecord
100
AcDbLinetypeTableRecord
  2
CONTINUOUS
 70
     0
  3
Solid line
 72
    65
 73
     0
 40
0.0
  0
LTYPE
  5
22
330
5
100
AcDbSymbolTableRecord
100
AcDbLinetypeTableRecord
  2
DASHED
 70
     0
  3
__ __ __ __ __ __ __ __ __ __ __ __ __ __ __
 72
    65
 73
     2
 40
0.5447410000000001
 49
0.204278
 74
     0
 49
-0.102139
 74
     0
  0
LTYPE
  5
23
330
5
100
AcDbSymbolTableRecord
100
AcDbLinetypeTableRecord
  2
DOT
 70
     0
  3
...............................................
 72
    65
 73
     2
 40
0.102139
 49
0.0
 74
     0
 49
-0.102139
 74
     0
  0
LTYPE
  5
24
330
5
100
AcDbSymbolTableRecord
100
AcDbLinetypeTableRecord
  2
DASHDOT
 70
     0
  3
__ . __ . __ . __ . __ . __ . __ . __ . __ . __
 72
    65
 73
     4
 40
0.408556
 49
0.204278
 74
     0
 49
-0.102139
 74
     0
 49
0.0
 74
     0
 49
-0.102139
 74
     0
  0
LTYPE
  5
25
330
5
100
AcDbSymbolTableRecord
100
AcDbLinetypeTableRecord
  2
CENTER
 70
     0
  3
____ _ ____ _ ____ _ ____ _ ____ _ ____ _ ____
 72
    65
 73
     4
 40
0.8171109999999998
 49
0.510694
 74
     0
 49
-0.102139
 74
     0
 49
0.102139
 74
     0
 49
-0.102139
 74
     0
  0
LTYPE
  5
26
330
5
100
AcDbSymbolTableRecord
100
AcDbLinetypeTableRecord
  2
PHANTOM
 70
     0
  3
_____ _ _ _____ _ _ _____ _ _ _____ _ _ ____
 72
    65
 73
     6
 40
1.021388999999999
 49
0.510694
 74
     0
 49
-0.102139
 74
     0
 49
0.102139
 74
     0
 49
-0.102139
 74
     0
 49
0.102139
 74
     0
 49
-0.102139
 74
     0
  0
LTYPE
  5
27
330
5
100
AcDbSymbolTableRecord
100
AcDbLinetypeTableRecord
  2
HIDDEN
 70
     0
  3
_ _ _ _ _ _ _ _ _ _ _ _ _ _ _ _ _ _ _ _ _ _ _
 72
    65
 73
     2
 40
0.408556
 49
0.27237
 74
     0
 49
-0.136185
 74
     0
  0
LTYPE
  5
28
330
5
100
AcDbSymbolTableRecord
100
AcDbLinetypeTableRecord
  2
BORDER
 70
     0
  3
__ __ . __ __ . __ __ . __ __ . __ __ . __ __
 72
    65
 73
     6
 40
0.7150910000000001
 49
0.102139
 74
     0
 49
-0.102139
 74
     0
 49
0.204278
 74
     0
 49
-0.102139
 74
     0
 49
0.0
 74
     0
 49
-0.102139
 74
     0
  0
LTYPE
  5
29
330
5
100
AcDbSymbolTableRecord
100
AcDbLinetypeTableRecord
  2
DIVIDE
 70
     0
  3
__ . . __ . . __ . . __ . . __ . . __ . . __
 72
    65
 73
     6
 40
-0.102139
 49
-0.102139
 74
     0
 49
-0.102139
 74
     0
 49
0.0
 74
     0
 49
-0.102139
 74
     0
 49
0.0
 74
     0
 49
-0.102139
 74
     0
  0
LTYPE
  5
2A
330
5
100
AcDbSymbolTableRecord
100
AcDbLinetypeTableRecord
  2
POINT31
 70
     0
  3
+                                          +
 72
    65
 73
     0
 40
0.0
  0
LTYPE
  5
2B
330
5
100
AcDbSymbolTableRecord
100
AcDbLinetypeTableRecord
  2
POINT63
 70
     0
  3
*                                          *
 72
    65
 73
     0
 40
0.0
  0
LTYPE
  5
2C
330
5
100
AcDbSymbolTableRecord
100
AcDbLinetypeTableRecord
  2
DBLDASH
 70
     0
  3
-- -- -- -- -- -- -- -- -- -- -- -- -- -- --
 72
    65
 73
     4
 40
0.357546
 49
0.102139
 74
     0
 49
-0.102139
 74
     0
 49
0.102139
 74
     0
 49
-0.102139
 74
     0
  0
ENDTAB
  0
TABLE
  2
LAYER
  5
2
330
0
100
AcDbSymbolTable
 70
     1
  0
LAYER
  5
10
330
2
100
AcDbSymbolTableRecord
100
AcDbLayerTableRecord
  2
0
 70
     0
 62
     5
  6
CONTINUOUS
  0
ENDTAB
  0
TABLE
  2
STYLE
  5
3
330
0
100
AcDbSymbolTable
 70
     1
  0
STYLE
  5
11
330
3
100
AcDbSymbolTableRecord
100
AcDbTextStyleTableRecord
  2
STANDARD
 70
     0
 40
0.0
 41
1.0
 50
0.0
 71
     0
 42
0.2
  3
txt
  4

  0
ENDTAB
  0
TABLE
  2
VIEW
  5
6
330
0
100
AcDbSymbolTable
 70
     0
  0
ENDTAB
  0
TABLE
  2
UCS
  5
7
330
0
100
AcDbSymbolTable
 70
     0
  0
ENDTAB
  0
TABLE
  2
APPID
  5
9
330
0
100
AcDbSymbolTable
 70
     1
  0
APPID
  5
12
330
9
100
AcDbSymbolTableRecord
100
AcDbRegAppTableRecord
  2
ACAD
 70
     0
  0
ENDTAB
  0
TABLE
  2
DIMSTYLE
  5
A
330
0
100
AcDbSymbolTable
 70
     1
  0
DIMSTYLE
105
716
330
A
100
AcDbSymbolTableRecord
100
AcDbDimStyleTableRecord
  2
STANDARD
 70
     0
  3

  4

  5

  6

  7

 40
1.0
 41
0.18
 42
0.0625
 43
0.38
 44
0.18
 45
0.0
 46
0.0
 47
0.0
 48
0.0
140
0.18
141
0.09
142
0.0
143
25.4
144
1.0
145
0.0
146
1.0
147
0.09
 71
     0
 72
     0
 73
     1
 74
     1
 75
     0
 76
     0
 77
     0
 78
     0
170
     0
171
     2
172
     0
173
     0
174
     0
175
     0
176
     0
177
     0
178
     0
270
     2
271
     4
272
     4
273
     2
274
     2
340
11
275
     0
280
     0
281
     0
282
     0
283
     1
284
     0
285
     0
286
     0
287
     3
288
     0
  0
ENDTAB
  0
TABLE
  2
BLOCK_RECORD
  5
1
330
0
100
AcDbSymbolTable
 70
     0
  0
BLOCK_RECORD
  5
1E
102
{ACAD_XDICTIONARY
360
83E
102
}
330
1
100
AcDbSymbolTableRecord
100
AcDbBlockTableRecord
  2
*MODEL_SPACE
  0
BLOCK_RECORD
  5
1A
102
{ACAD_XDICTIONARY
360
83C
102
}
330
1
100
AcDbSymbolTableRecord
100
AcDbBlockTableRecord
  2
*PAPER_SPACE
  0
ENDTAB
  0
ENDSEC
  0
SECTION
  2
BLOCKS
  0
BLOCK
  5
1F
330
1E
100
AcDbEntity
  8
0
100
AcDbBlockBegin
  2
*MODEL_SPACE
 70
     0
 10
0.0
 20
0.0
 30
0.0
  3
*MODEL_SPACE
  1

  0
ENDBLK
  5
20
330
1E
100
AcDbEntity
  8
0
100
AcDbBlockEnd
  0
BLOCK
  5
1B
330
1A
100
AcDbEntity
 67
     1
  8
0
100
AcDbBlockBegin
  2
*PAPER_SPACE
 70
     0
 10
0.0
 20
0.0
 30
0.0
  3
*PAPER_SPACE
  1

  0
ENDBLK
  5
1C
330
1A
100
AcDbEntity
 67
     1
  8
0
100
AcDbBlockEnd
  0
ENDSEC
  0
SECTION
  2
ENTITIES
  0
LINE
  5
2F
330
1E
100
AcDbEntity
  8
0
  6
CONTINUOUS
 62
     5
100
AcDbLine
 10
23.28473999999999
 20
18.024062
 30
0.0
 11
23.19974
 21
18.024062
 31
0.0
  0
LWPOLYLINE
  5
30
330
1E
100
AcDbEntity
  8
0
  6
CONTINUOUS
 62
     5
100
AcDbPolyline
 90
       20
 70
     0
 43
0.0
 10
23.364427
 20
17.9125
 10
23.36974
 20
17.901875
 10
23.380365
 20
17.89125
 10
23.401615
 20
17.88593699999999
 10
23.43348999999999
 20
17.88593699999999
 10
23.45474
 20
17.896562
 10
23.470677
 20
17.91781199999999
 10
23.48130199999999
 20
17.944375
 10
23.48661499999999
 20
17.97625
 10
23.48661499999999
 20
18.013437
 10
23.48130199999999
 20
18.04531199999999
 10
23.470677
 20
18.066562
 10
23.45474
 20
18.087812
 10
23.43348999999999
 20
18.098437
 10
23.39630199999999
 20
18.098437
 10
23.380365
 20
18.093125
 10
23.36974
 20
18.0825
 10
23.359115
 20
18.06125
 10
23.359115
 20
18.00281199999999
 10
23.41224
 20
18.00281199999999
  0
LWPOLYLINE
  5
46
330
1E
100
AcDbEntity
  8
0
  6
CONTINUOUS
 62
     5
100
AcDbPolyline
 90
        4
 70
     0
 43
0.0
 10
23.30599
 20
18.098437
 10
23.24755199999999
 20
17.88593699999999
 10
23.236927
 20
17.88593699999999
 10
23.17849
 20
18.098437
  0
LINE
  5
4C
330
1E
100
AcDbEntity
  8
0
  6
CONTINUOUS
 62
     5
100
AcDbLine
 10
25.75
 20
17.625
 30
0.0
 11
25.75
 21
20.625
 31
0.0
  0
LINE
  5
4D
330
1E
100
AcDbEntity
  8
0
  6
CONTINUOUS
 62
     5
100
AcDbLine
 10
30.25
 20
16.125
 30
0.0
 11
27.25
 21
16.125
 31
0.0
  0
LINE
  5
4E
330
1E
100
AcDbEntity
  8
0
  6
CONTINUOUS
 62
     5
100
AcDbLine
 10
27.77
 20
13.59399999999999
 30
0.0
 11
29.729
 21
13.59399999999999
 31
0.0
  0
LINE
  5
4F
330
1E
100
AcDbEntity
  8
0
  6
CONTINUOUS
 62
     5
100
AcDbLine
 10
27.77
 20
15.25
 30
0.0
 11
29.729
 21
15.25
 31
0.0
  0
CIRCLE
  5
50
330
1E
100
AcDbEntity
  8
0
  6
CONTINUOUS
 62
     5
100
AcDbCircle
 10
28.75
 20
13.59399999999999
 30
0.0
 40
0.575
  0
CIRCLE
  5
51
330
1E
100
AcDbEntity
  8
0
  6
CONTINUOUS
 62
     5
100
AcDbCircle
 10
28.75
 20
13.59399999999999
 30
0.0
 40
0.5310000000000001
  0
CIRCLE
  5
52
330
1E
100
AcDbEntity
  8
0
  6
CONTINUOUS
 62
     5
100
AcDbCircle
 10
28.75
 20
13.59399999999999
 30
0.0
 40
0.4910000000000001
  0
ARC
  5
53
330
1E
100
AcDbEntity
  8
0
  6
CONTINUOUS
 62
     5
100
AcDbCircle
 10
28.75
 20
13.59399999999999
 30
0.0
 40
0.475
100
AcDbArc
 50
85.00000099999999
 51
5.0
  0
CIRCLE
  5
54
330
1E
100
AcDbEntity
  8
0
  6
CONTINUOUS
 62
     5
100
AcDbCircle
 10
28.75
 20
13.59399999999999
 30
0.0
 40
0.4060000000000001
  0
CIRCLE
  5
55
330
1E
100
AcDbEntity
  8
0
  6
CONTINUOUS
 62
     5
100
AcDbCircle
 10
28.75
 20
15.25
 30
0.0
 40
0.5310000000000001
  0
CIRCLE
  5
56
330
1E
100
AcDbEntity
  8
0
  6
CONTINUOUS
 62
     5
100
AcDbCircle
 10
28.75
 20
15.25
 30
0.0
 40
0.4910000000000001
  0
ARC
  5
57
330
1E
100
AcDbEntity
  8
0
  6
CONTINUOUS
 62
     5
100
AcDbCircle
 10
28.75
 20
15.25
 30
0.0
 40
0.475
100
AcDbArc
 50
85.00000099999999
 51
5.0
  0
CIRCLE
  5
58
330
1E
100
AcDbEntity
  8
0
  6
CONTINUOUS
 62
     5
100
AcDbCircle
 10
28.75
 20
15.25
 30
0.0
 40
0.4060000000000001
  0
CIRCLE
  5
59
330
1E
100
AcDbEntity
  8
0
  6
CONTINUOUS
 62
     5
100
AcDbCircle
 10
28.75
 20
13.59399999999999
 30
0.0
 40
0.816
  0
LINE
  5
5A
330
1E
100
AcDbEntity
  8
0
  6
CONTINUOUS
 62
     5
100
AcDbLine
 10
28.75
 20
12.615
 30
0.0
 11
28.75
 21
14.573
 31
0.0
  0
LINE
  5
5B
330
1E
100
AcDbEntity
  8
0
  6
CONTINUOUS
 62
     5
100
AcDbLine
 10
28.75
 20
12.615
 30
0.0
 11
28.75
 21
14.573
 31
0.0
  0
LINE
  5
5C
330
1E
100
AcDbEntity
  8
0
  6
CONTINUOUS
 62
     5
100
AcDbLine
 10
22.91299999999999
 20
14.016
 30
0.0
 11
23.212
 21
14.016
 31
0.0
  0
LINE
  5
5D
330
1E
100
AcDbEntity
  8
0
  6
CONTINUOUS
 62
     5
100
AcDbLine
 10
23.0
 20
13.89499999999999
 30
0.0
 11
23.02
 21
13.884
 31
0.0
  0
LINE
  5
5E
330
1E
100
AcDbEntity
  8
0
  6
CONTINUOUS
 62
     5
100
AcDbLine
 10
22.982
 20
14.123
 30
0.0
 11
22.96699999999999
 21
14.106
 31
0.0
  0
LINE
  5
5F
330
1E
100
AcDbEntity
  8
0
  6
CONTINUOUS
 62
     5
100
AcDbLine
 10
23.0
 20
14.137
 30
0.0
 11
22.982
 21
14.123
 31
0.0
  0
LINE
  5
60
330
1E
100
AcDbEntity
  8
0
  6
CONTINUOUS
 62
     5
100
AcDbLine
 10
23.02
 20
14.148
 30
0.0
 11
23.0
 21
14.137
 31
0.0
  0
LINE
  5
61
330
1E
100
AcDbEntity
  8
0
  6
CONTINUOUS
 62
     5
100
AcDbLine
 10
22.982
 20
13.909
 30
0.0
 11
23.0
 21
13.89499999999999
 31
0.0
  0
LINE
  5
62
330
1E
100
AcDbEntity
  8
0
  6
CONTINUOUS
 62
     5
100
AcDbLine
 10
22.96699999999999
 20
13.926
 30
0.0
 11
22.982
 21
13.909
 31
0.0
  0
LINE
  5
63
330
1E
100
AcDbEntity
  8
0
  6
CONTINUOUS
 62
     5
100
AcDbLine
 10
22.939
 20
14.03999999999999
 30
0.0
 11
22.93699999999999
 21
14.016
 31
0.0
  0
LINE
  5
64
330
1E
100
AcDbEntity
  8
0
  6
CONTINUOUS
 62
     5
100
AcDbLine
 10
22.945
 20
14.064
 30
0.0
 11
22.939
 21
14.03999999999999
 31
0.0
  0
LINE
  5
65
330
1E
100
AcDbEntity
  8
0
  6
CONTINUOUS
 62
     5
100
AcDbLine
 10
22.954
 20
14.086
 30
0.0
 11
22.945
 21
14.064
 31
0.0
  0
LINE
  5
66
330
1E
100
AcDbEntity
  8
0
  6
CONTINUOUS
 62
     5
100
AcDbLine
 10
22.96699999999999
 20
14.106
 30
0.0
 11
22.954
 21
14.086
 31
0.0
  0
LINE
  5
67
330
1E
100
AcDbEntity
  8
0
  6
CONTINUOUS
 62
     5
100
AcDbLine
 10
22.954
 20
13.946
 30
0.0
 11
22.96699999999999
 21
13.926
 31
0.0
  0
LINE
  5
68
330
1E
100
AcDbEntity
  8
0
  6
CONTINUOUS
 62
     5
100
AcDbLine
 10
22.945
 20
13.968
 30
0.0
 11
22.954
 21
13.946
 31
0.0
  0
LINE
  5
69
330
1E
100
AcDbEntity
  8
0
  6
CONTINUOUS
 62
     5
100
AcDbLine
 10
22.939
 20
13.992
 30
0.0
 11
22.945
 21
13.968
 31
0.0
  0
LINE
  5
6A
330
1E
100
AcDbEntity
  8
0
  6
CONTINUOUS
 62
     5
100
AcDbLine
 10
22.93699999999999
 20
14.016
 30
0.0
 11
22.939
 21
13.992
 31
0.0
  0
LINE
  5
6B
330
1E
100
AcDbEntity
  8
0
  6
CONTINUOUS
 62
     5
100
AcDbLine
 10
23.10499999999999
 20
13.884
 30
0.0
 11
23.125
 21
13.89499999999999
 31
0.0
  0
LINE
  5
6C
330
1E
100
AcDbEntity
  8
0
  6
CONTINUOUS
 62
     5
100
AcDbLine
 10
23.125
 20
14.137
 30
0.0
 11
23.10499999999999
 21
14.148
 31
0.0
  0
LINE
  5
6D
330
1E
100
AcDbEntity
  8
0
  6
CONTINUOUS
 62
     5
100
AcDbLine
 10
23.143
 20
14.123
 30
0.0
 11
23.125
 21
14.137
 31
0.0
  0
LINE
  5
6E
330
1E
100
AcDbEntity
  8
0
  6
CONTINUOUS
 62
     5
100
AcDbLine
 10
23.158
 20
14.106
 30
0.0
 11
23.143
 21
14.123
 31
0.0
  0
LINE
  5
6F
330
1E
100
AcDbEntity
  8
0
  6
CONTINUOUS
 62
     5
100
AcDbLine
 10
23.143
 20
13.909
 30
0.0
 11
23.158
 21
13.926
 31
0.0
  0
LINE
  5
70
330
1E
100
AcDbEntity
  8
0
  6
CONTINUOUS
 62
     5
100
AcDbLine
 10
23.125
 20
13.89499999999999
 30
0.0
 11
23.143
 21
13.909
 31
0.0
  0
LINE
  5
71
330
1E
100
AcDbEntity
  8
0
  6
CONTINUOUS
 62
     5
100
AcDbLine
 10
23.084
 20
13.878
 30
0.0
 11
23.10499999999999
 21
13.884
 31
0.0
  0
LINE
  5
72
330
1E
100
AcDbEntity
  8
0
  6
CONTINUOUS
 62
     5
100
AcDbLine
 10
23.062
 20
13.87599999999999
 30
0.0
 11
23.084
 21
13.878
 31
0.0
  0
LINE
  5
73
330
1E
100
AcDbEntity
  8
0
  6
CONTINUOUS
 62
     5
100
AcDbLine
 10
23.04099999999999
 20
13.878
 30
0.0
 11
23.062
 21
13.87599999999999
 31
0.0
  0
LINE
  5
74
330
1E
100
AcDbEntity
  8
0
  6
CONTINUOUS
 62
     5
100
AcDbLine
 10
23.02
 20
13.884
 30
0.0
 11
23.04099999999999
 21
13.878
 31
0.0
  0
LINE
  5
75
330
1E
100
AcDbEntity
  8
0
  6
CONTINUOUS
 62
     5
100
AcDbLine
 10
23.062
 20
13.866
 30
0.0
 11
23.062
 21
14.166
 31
0.0
  0
LINE
  5
76
330
1E
100
AcDbEntity
  8
0
  6
CONTINUOUS
 62
     5
100
AcDbLine
 10
23.04099999999999
 20
14.15399999999999
 30
0.0
 11
23.02
 21
14.148
 31
0.0
  0
LINE
  5
77
330
1E
100
AcDbEntity
  8
0
  6
CONTINUOUS
 62
     5
100
AcDbLine
 10
23.062
 20
14.156
 30
0.0
 11
23.04099999999999
 21
14.15399999999999
 31
0.0
  0
LINE
  5
78
330
1E
100
AcDbEntity
  8
0
  6
CONTINUOUS
 62
     5
100
AcDbLine
 10
23.084
 20
14.15399999999999
 30
0.0
 11
23.062
 21
14.156
 31
0.0
  0
LINE
  5
79
330
1E
100
AcDbEntity
  8
0
  6
CONTINUOUS
 62
     5
100
AcDbLine
 10
23.10499999999999
 20
14.148
 30
0.0
 11
23.084
 21
14.15399999999999
 31
0.0
  0
LINE
  5
7A
330
1E
100
AcDbEntity
  8
0
  6
CONTINUOUS
 62
     5
100
AcDbLine
 10
23.17099999999999
 20
14.086
 30
0.0
 11
23.158
 21
14.106
 31
0.0
  0
LINE
  5
7B
330
1E
100
AcDbEntity
  8
0
  6
CONTINUOUS
 62
     5
100
AcDbLine
 10
23.18
 20
14.064
 30
0.0
 11
23.17099999999999
 21
14.086
 31
0.0
  0
LINE
  5
7C
330
1E
100
AcDbEntity
  8
0
  6
CONTINUOUS
 62
     5
100
AcDbLine
 10
23.18599999999999
 20
14.03999999999999
 30
0.0
 11
23.18
 21
14.064
 31
0.0
  0
LINE
  5
7D
330
1E
100
AcDbEntity
  8
0
  6
CONTINUOUS
 62
     5
100
AcDbLine
 10
23.18699999999999
 20
14.016
 30
0.0
 11
23.18599999999999
 21
14.03999999999999
 31
0.0
  0
LINE
  5
7E
330
1E
100
AcDbEntity
  8
0
  6
CONTINUOUS
 62
     5
100
AcDbLine
 10
23.18599999999999
 20
13.992
 30
0.0
 11
23.18699999999999
 21
14.016
 31
0.0
  0
LINE
  5
7F
330
1E
100
AcDbEntity
  8
0
  6
CONTINUOUS
 62
     5
100
AcDbLine
 10
23.18
 20
13.968
 30
0.0
 11
23.18599999999999
 21
13.992
 31
0.0
  0
LINE
  5
80
330
1E
100
AcDbEntity
  8
0
  6
CONTINUOUS
 62
     5
100
AcDbLine
 10
23.17099999999999
 20
13.946
 30
0.0
 11
23.18
 21
13.968
 31
0.0
  0
LINE
  5
81
330
1E
100
AcDbEntity
  8
0
  6
CONTINUOUS
 62
     5
100
AcDbLine
 10
23.158
 20
13.926
 30
0.0
 11
23.17099999999999
 21
13.946
 31
0.0
  0
LINE
  5
82
330
1E
100
AcDbEntity
  8
0
  6
CONTINUOUS
 62
     5
100
AcDbLine
 10
23.266
 20
14.746
 30
0.0
 11
23.266
 21
14.974
 31
0.0
  0
CIRCLE
  5
83
330
1E
100
AcDbEntity
  8
0
  6
CONTINUOUS
 62
     5
100
AcDbCircle
 10
23.29699999999999
 20
13.266
 30
0.0
 40
0.095
  0
CIRCLE
  5
84
330
1E
100
AcDbEntity
  8
0
  6
CONTINUOUS
 62
     5
100
AcDbCircle
 10
23.29699999999999
 20
13.266
 30
0.0
 40
0.075
  0
ARC
  5
85
330
1E
100
AcDbEntity
  8
0
  6
CONTINUOUS
 62
     5
100
AcDbCircle
 10
23.29699999999999
 20
13.266
 30
0.0
 40
0.087
100
AcDbArc
 50
85.00000099999999
 51
5.0
  0
LINE
  5
86
330
1E
100
AcDbEntity
  8
0
  6
CONTINUOUS
 62
     5
100
AcDbLine
 10
23.29699999999999
 20
13.15199999999999
 30
0.0
 11
23.29699999999999
 21
13.38
 31
0.0
  0
LINE
  5
87
330
1E
100
AcDbEntity
  8
0
  6
CONTINUOUS
 62
     5
100
AcDbLine
 10
23.183
 20
13.266
 30
0.0
 11
23.40999999999999
 21
13.266
 31
0.0
  0
CIRCLE
  5
88
330
1E
100
AcDbEntity
  8
0
  6
CONTINUOUS
 62
     5
100
AcDbCircle
 10
23.266
 20
14.85999999999999
 30
0.0
 40
0.095
  0
CIRCLE
  5
89
330
1E
100
AcDbEntity
  8
0
  6
CONTINUOUS
 62
     5
100
AcDbCircle
 10
23.266
 20
14.85999999999999
 30
0.0
 40
0.075
  0
ARC
  5
8A
330
1E
100
AcDbEntity
  8
0
  6
CONTINUOUS
 62
     5
100
AcDbCircle
 10
23.266
 20
14.85999999999999
 30
0.0
 40
0.087
100
AcDbArc
 50
85.00000099999999
 51
5.0
  0
LINE
  5
8B
330
1E
100
AcDbEntity
  8
0
  6
CONTINUOUS
 62
     5
100
AcDbLine
 10
23.152
 20
14.85999999999999
 30
0.0
 11
23.38
 21
14.85999999999999
 31
0.0
  0
TEXT
  5
8C
330
1E
100
AcDbEntity
  8
0
 62
     5
100
AcDbText
 10
23.21164025
 20
10.128125
 30
0.0
 40
0.2125
  1
GB
 41
0.825
 72
     4
 11
23.357734
 21
10.234375
 31
0.0
100
AcDbText
  0
LINE
  5
8D
330
1E
100
AcDbEntity
  8
0
  6
CONTINUOUS
 62
     5
100
AcDbLine
 10
27.25
 20
12.125
 30
0.0
 11
30.25
 21
12.125
 31
0.0
  0
TEXT
  5
8E
330
1E
100
AcDbEntity
  8
0
 62
     5
100
AcDbText
 10
27.70524999999999
 20
12.7887845
 30
0.0
 40
0.2125
  1
P
 50
90.0
 41
0.825
 72
     4
 11
27.599
 21
12.847222
 31
0.0
100
AcDbText
  0
TEXT
  5
8F
330
1E
100
AcDbEntity
  8
0
 62
     5
100
AcDbText
 10
27.70524999999999
 20
15.62211849999999
 30
0.0
 40
0.2125
  1
T
 50
90.0
 41
0.825
 72
     4
 11
27.599
 21
15.680556
 31
0.0
100
AcDbText
  0
LINE
  5
90
330
1E
100
AcDbEntity
  8
0
  6
CONTINUOUS
 62
     5
100
AcDbLine
 10
27.25
 20
16.125
 30
0.0
 11
27.25
 21
12.125
 31
0.0
  0
LINE
  5
91
330
1E
100
AcDbEntity
  8
0
  6
CONTINUOUS
 62
     5
100
AcDbLine
 10
30.25
 20
12.125
 30
0.0
 11
30.25
 21
16.125
 31
0.0
  0
CIRCLE
  5
92
330
1E
100
AcDbEntity
  8
0
  6
CONTINUOUS
 62
     5
100
AcDbCircle
 10
28.75
 20
15.25
 30
0.0
 40
0.816
  0
CIRCLE
  5
93
330
1E
100
AcDbEntity
  8
0
  6
CONTINUOUS
 62
     5
100
AcDbCircle
 10
28.75
 20
15.25
 30
0.0
 40
0.575
  0
LINE
  5
94
330
1E
100
AcDbEntity
  8
0
  6
CONTINUOUS
 62
     5
100
AcDbLine
 10
28.75
 20
14.271
 30
0.0
 11
28.75
 21
16.229
 31
0.0
  0
LINE
  5
95
330
1E
100
AcDbEntity
  8
0
  6
CONTINUOUS
 62
     5
100
AcDbLine
 10
25.75
 20
12.125
 30
0.0
 11
25.75
 21
16.125
 31
0.0
  0
LINE
  5
DB
330
1E
100
AcDbEntity
  8
0
  6
CONTINUOUS
 62
     5
100
AcDbLine
 10
22.656
 20
17.82499999999999
 30
0.0
 11
22.656
 21
18.83099999999999
 31
0.0
  0
CIRCLE
  5
12B
330
1E
100
AcDbEntity
  8
0
  6
CONTINUOUS
 62
     5
100
AcDbCircle
 10
22.016
 20
13.266
 30
0.0
 40
0.095
  0
CIRCLE
  5
12C
330
1E
100
AcDbEntity
  8
0
  6
CONTINUOUS
 62
     5
100
AcDbCircle
 10
22.016
 20
13.266
 30
0.0
 40
0.075
  0
ARC
  5
12D
330
1E
100
AcDbEntity
  8
0
  6
CONTINUOUS
 62
     5
100
AcDbCircle
 10
22.016
 20
13.266
 30
0.0
 40
0.087
100
AcDbArc
 50
85.00000099999999
 51
5.0
  0
LINE
  5
12E
330
1E
100
AcDbEntity
  8
0
  6
CONTINUOUS
 62
     5
100
AcDbLine
 10
22.016
 20
13.15199999999999
 30
0.0
 11
22.016
 21
13.38
 31
0.0
  0
LINE
  5
12F
330
1E
100
AcDbEntity
  8
0
  6
CONTINUOUS
 62
     5
100
AcDbLine
 10
21.902
 20
13.266
 30
0.0
 11
22.13
 21
13.266
 31
0.0
  0
CIRCLE
  5
130
330
1E
100
AcDbEntity
  8
0
  6
CONTINUOUS
 62
     5
100
AcDbCircle
 10
22.015
 20
13.561
 30
0.0
 40
0.078
  0
LINE
  5
131
330
1E
100
AcDbEntity
  8
0
  6
CONTINUOUS
 62
     5
100
AcDbLine
 10
22.015
 20
13.467
 30
0.0
 11
22.015
 21
13.65499999999999
 31
0.0
  0
LINE
  5
132
330
1E
100
AcDbEntity
  8
0
  6
CONTINUOUS
 62
     5
100
AcDbLine
 10
21.92199999999999
 20
13.561
 30
0.0
 11
22.109
 21
13.561
 31
0.0
  0
CIRCLE
  5
133
330
1E
100
AcDbEntity
  8
0
  6
CONTINUOUS
 62
     5
100
AcDbCircle
 10
22.046
 20
14.85999999999999
 30
0.0
 40
0.095
  0
CIRCLE
  5
134
330
1E
100
AcDbEntity
  8
0
  6
CONTINUOUS
 62
     5
100
AcDbCircle
 10
22.046
 20
14.85999999999999
 30
0.0
 40
0.075
  0
ARC
  5
135
330
1E
100
AcDbEntity
  8
0
  6
CONTINUOUS
 62
     5
100
AcDbCircle
 10
22.046
 20
14.85999999999999
 30
0.0
 40
0.087
100
AcDbArc
 50
85.00000099999999
 51
5.0
  0
LINE
  5
136
330
1E
100
AcDbEntity
  8
0
  6
CONTINUOUS
 62
     5
100
AcDbLine
 10
21.932
 20
14.85999999999999
 30
0.0
 11
22.15999999999999
 21
14.85999999999999
 31
0.0
  0
CIRCLE
  5
137
330
1E
100
AcDbEntity
  8
0
  6
CONTINUOUS
 62
     5
100
AcDbCircle
 10
22.25
 20
14.016
 30
0.0
 40
0.14
  0
LINE
  5
138
330
1E
100
AcDbEntity
  8
0
  6
CONTINUOUS
 62
     5
100
AcDbLine
 10
22.081
 20
14.016
 30
0.0
 11
22.418
 21
14.016
 31
0.0
  0
LINE
  5
139
330
1E
100
AcDbEntity
  8
0
  6
CONTINUOUS
 62
     5
100
AcDbLine
 10
22.25
 20
13.847
 30
0.0
 11
22.25
 21
14.185
 31
0.0
  0
LINE
  5
13A
330
1E
100
AcDbEntity
  8
0
  6
CONTINUOUS
 62
     5
100
AcDbLine
 10
22.046
 20
14.746
 30
0.0
 11
22.046
 21
14.974
 31
0.0
  0
LINE
  5
13B
330
1E
100
AcDbEntity
  8
0
  6
CONTINUOUS
 62
     5
100
AcDbLine
 10
22.656
 20
14.191
 30
0.0
 11
22.656
 21
14.529
 31
0.0
  0
LINE
  5
13C
330
1E
100
AcDbEntity
  8
0
  6
CONTINUOUS
 62
     5
100
AcDbLine
 10
22.656
 20
13.503
 30
0.0
 11
22.656
 21
13.841
 31
0.0
  0
CIRCLE
  5
259
330
1E
100
AcDbEntity
  8
0
  6
CONTINUOUS
 62
     5
100
AcDbCircle
 10
22.656
 20
14.35999999999999
 30
0.0
 40
0.14
  0
CIRCLE
  5
25A
330
1E
100
AcDbEntity
  8
0
  6
CONTINUOUS
 62
     5
100
AcDbCircle
 10
22.656
 20
13.672
 30
0.0
 40
0.14
  0
LINE
  5
25B
330
1E
100
AcDbEntity
  8
0
  6
CONTINUOUS
 62
     5
100
AcDbLine
 10
22.487
 20
13.672
 30
0.0
 11
22.82399999999999
 21
13.672
 31
0.0
  0
LINE
  5
25C
330
1E
100
AcDbEntity
  8
0
  6
CONTINUOUS
 62
     5
100
AcDbLine
 10
22.487
 20
14.35999999999999
 30
0.0
 11
22.82399999999999
 21
14.35999999999999
 31
0.0
  0
CIRCLE
  5
25D
330
1E
100
AcDbEntity
  8
0
  6
CONTINUOUS
 62
     5
100
AcDbCircle
 10
22.656
 20
18.32799999999999
 30
0.0
 40
0.419
  0
LINE
  5
25E
330
1E
100
AcDbEntity
  8
0
  6
CONTINUOUS
 62
     5
100
AcDbLine
 10
22.153
 20
18.32799999999999
 30
0.0
 11
23.158
 21
18.32799999999999
 31
0.0
  0
CIRCLE
  5
25F
330
1E
100
AcDbEntity
  8
0
  6
CONTINUOUS
 62
     5
100
AcDbCircle
 10
22.656
 20
18.32799999999999
 30
0.0
 40
0.243
  0
CIRCLE
  5
260
330
1E
100
AcDbEntity
  8
0
  6
CONTINUOUS
 62
     5
100
AcDbCircle
 10
22.656
 20
18.32799999999999
 30
0.0
 40
0.219
  0
CIRCLE
  5
261
330
1E
100
AcDbEntity
  8
0
  6
CONTINUOUS
 62
     5
100
AcDbCircle
 10
22.656
 20
18.32799999999999
 30
0.0
 40
0.194
  0
ARC
  5
262
330
1E
100
AcDbEntity
  8
0
  6
CONTINUOUS
 62
     5
100
AcDbCircle
 10
22.656
 20
18.32799999999999
 30
0.0
 40
0.164
100
AcDbArc
 50
85.00000099999999
 51
5.0
  0
CIRCLE
  5
263
330
1E
100
AcDbEntity
  8
0
  6
CONTINUOUS
 62
     5
100
AcDbCircle
 10
22.656
 20
18.32799999999999
 30
0.0
 40
0.14
  0
CIRCLE
  5
264
330
1E
100
AcDbEntity
  8
0
  6
CONTINUOUS
 62
     5
100
AcDbCircle
 10
24.25
 20
9.125
 30
0.0
 40
0.243
  0
CIRCLE
  5
265
330
1E
100
AcDbEntity
  8
0
  6
CONTINUOUS
 62
     5
100
AcDbCircle
 10
24.25
 20
9.125
 30
0.0
 40
0.219
  0
CIRCLE
  5
266
330
1E
100
AcDbEntity
  8
0
  6
CONTINUOUS
 62
     5
100
AcDbCircle
 10
24.25
 20
9.125
 30
0.0
 40
0.194
  0
LINE
  5
267
330
1E
100
AcDbEntity
  8
0
  6
CONTINUOUS
 62
     5
100
AcDbLine
 10
23.747
 20
9.125
 30
0.0
 11
24.753
 21
9.125
 31
0.0
  0
CIRCLE
  5
268
330
1E
100
AcDbEntity
  8
0
  6
CONTINUOUS
 62
     5
100
AcDbCircle
 10
24.25
 20
9.125
 30
0.0
 40
0.419
  0
ARC
  5
269
330
1E
100
AcDbEntity
  8
0
  6
CONTINUOUS
 62
     5
100
AcDbCircle
 10
24.25
 20
9.125
 30
0.0
 40
0.164
100
AcDbArc
 50
85.00000099999999
 51
5.0
  0
CIRCLE
  5
26A
330
1E
100
AcDbEntity
  8
0
  6
CONTINUOUS
 62
     5
100
AcDbCircle
 10
24.25
 20
9.125
 30
0.0
 40
0.14
  0
LINE
  5
26B
330
1E
100
AcDbEntity
  8
0
  6
CONTINUOUS
 62
     5
100
AcDbLine
 10
24.25
 20
8.621999999999999
 30
0.0
 11
24.25
 21
9.628
 31
0.0
  0
TEXT
  5
26C
330
1E
100
AcDbEntity
  8
0
 62
     5
100
AcDbText
 10
24.80564025
 20
9.347125
 30
0.0
 40
0.2125
  1
GP
 41
0.825
 72
     4
 11
24.951734
 21
9.453374999999999
 31
0.0
100
AcDbText
  0
TEXT
  5
26D
330
1E
100
AcDbEntity
  8
0
 62
     5
100
AcDbText
 10
25.2914005
 20
4.592073
 30
0.0
 40
0.2125
  1
P
 41
0.825
 72
     4
 11
25.349838
 21
4.698323
 31
0.0
100
AcDbText
  0
LINE
  5
26E
330
1E
100
AcDbEntity
  8
0
  6
CONTINUOUS
 62
     5
100
AcDbLine
 10
25.375
 20
5.525
 30
0.0
 11
25.375
 21
5.974999999999999
 31
0.0
  0
CIRCLE
  5
26F
330
1E
100
AcDbEntity
  8
0
  6
CONTINUOUS
 62
     5
100
AcDbCircle
 10
24.25
 20
5.062
 30
0.0
 40
0.575
  0
CIRCLE
  5
270
330
1E
100
AcDbEntity
  8
0
  6
CONTINUOUS
 62
     5
100
AcDbCircle
 10
24.25
 20
5.062
 30
0.0
 40
0.5310000000000001
  0
CIRCLE
  5
271
330
1E
100
AcDbEntity
  8
0
  6
CONTINUOUS
 62
     5
100
AcDbCircle
 10
24.25
 20
5.062
 30
0.0
 40
0.4910000000000001
  0
CIRCLE
  5
272
330
1E
100
AcDbEntity
  8
0
  6
CONTINUOUS
 62
     5
100
AcDbCircle
 10
24.25
 20
5.062
 30
0.0
 40
0.4060000000000001
  0
ARC
  5
273
330
1E
100
AcDbEntity
  8
0
  6
CONTINUOUS
 62
     5
100
AcDbCircle
 10
24.25
 20
5.062
 30
0.0
 40
0.475
100
AcDbArc
 50
85.00000099999999
 51
5.0
  0
TEXT
  5
274
330
1E
100
AcDbEntity
  8
0
 62
     5
100
AcDbText
 10
23.04923649999999
 20
4.429158
 30
0.0
 40
0.2125
  1
B
 41
0.825
 72
     4
 11
23.10767399999999
 21
4.535408
 31
0.0
100
AcDbText
  0
LINE
  5
275
330
1E
100
AcDbEntity
  8
0
  6
CONTINUOUS
 62
     5
100
AcDbLine
 10
23.27
 20
5.062
 30
0.0
 11
25.22899999999999
 21
5.062
 31
0.0
  0
CIRCLE
  5
276
330
1E
100
AcDbEntity
  8
0
  6
CONTINUOUS
 62
     5
100
AcDbCircle
 10
25.375
 20
5.75
 30
0.0
 40
0.188
  0
CIRCLE
  5
277
330
1E
100
AcDbEntity
  8
0
  6
CONTINUOUS
 62
     5
100
AcDbCircle
 10
25.375
 20
5.75
 30
0.0
 40
0.156
  0
ARC
  5
278
330
1E
100
AcDbEntity
  8
0
  6
CONTINUOUS
 62
     5
100
AcDbCircle
 10
25.375
 20
5.75
 30
0.0
 40
0.183
100
AcDbArc
 50
85.00000099999999
 51
5.0
  0
LINE
  5
279
330
1E
100
AcDbEntity
  8
0
  6
CONTINUOUS
 62
     5
100
AcDbLine
 10
25.149
 20
5.75
 30
0.0
 11
25.6
 21
5.75
 31
0.0
  0
LINE
  5
27A
330
1E
100
AcDbEntity
  8
0
  6
CONTINUOUS
 62
     5
100
AcDbLine
 10
25.375
 20
2.274999999999999
 30
0.0
 11
25.375
 21
2.725
 31
0.0
  0
TEXT
  5
27B
330
1E
100
AcDbEntity
  8
0
 62
     5
100
AcDbText
 10
25.27800749999999
 20
3.590179
 30
0.0
 40
0.2125
  1
T
 41
0.825
 72
     4
 11
25.33644499999999
 21
3.696429
 31
0.0
100
AcDbText
  0
CIRCLE
  5
27C
330
1E
100
AcDbEntity
  8
0
  6
CONTINUOUS
 62
     5
100
AcDbCircle
 10
24.25
 20
3.25
 30
0.0
 40
0.816
  0
CIRCLE
  5
27D
330
1E
100
AcDbEntity
  8
0
  6
CONTINUOUS
 62
     5
100
AcDbCircle
 10
24.25
 20
3.25
 30
0.0
 40
0.575
  0
CIRCLE
  5
27E
330
1E
100
AcDbEntity
  8
0
  6
CONTINUOUS
 62
     5
100
AcDbCircle
 10
24.25
 20
3.25
 30
0.0
 40
0.5310000000000001
  0
CIRCLE
  5
27F
330
1E
100
AcDbEntity
  8
0
  6
CONTINUOUS
 62
     5
100
AcDbCircle
 10
24.25
 20
3.25
 30
0.0
 40
0.4910000000000001
  0
ARC
  5
280
330
1E
100
AcDbEntity
  8
0
  6
CONTINUOUS
 62
     5
100
AcDbCircle
 10
24.25
 20
3.25
 30
0.0
 40
0.475
100
AcDbArc
 50
85.00000099999999
 51
5.0
  0
CIRCLE
  5
281
330
1E
100
AcDbEntity
  8
0
  6
CONTINUOUS
 62
     5
100
AcDbCircle
 10
24.25
 20
3.25
 30
0.0
 40
0.4060000000000001
  0
LINE
  5
282
330
1E
100
AcDbEntity
  8
0
  6
CONTINUOUS
 62
     5
100
AcDbLine
 10
24.25
 20
2.270999999999999
 30
0.0
 11
24.25
 21
4.229
 31
0.0
  0
TEXT
  5
283
330
1E
100
AcDbEntity
  8
0
 62
     5
100
AcDbText
 10
23.04923649999999
 20
2.899549
 30
0.0
 40
0.2125
  1
A
 41
0.825
 72
     4
 11
23.10767399999999
 21
3.005799
 31
0.0
100
AcDbText
  0
LINE
  5
284
330
1E
100
AcDbEntity
  8
0
  6
CONTINUOUS
 62
     5
100
AcDbLine
 10
23.27
 20
3.25
 30
0.0
 11
25.22899999999999
 21
3.25
 31
0.0
  0
CIRCLE
  5
285
330
1E
100
AcDbEntity
  8
0
  6
CONTINUOUS
 62
     5
100
AcDbCircle
 10
25.375
 20
2.5
 30
0.0
 40
0.188
  0
CIRCLE
  5
286
330
1E
100
AcDbEntity
  8
0
  6
CONTINUOUS
 62
     5
100
AcDbCircle
 10
25.375
 20
2.5
 30
0.0
 40
0.156
  0
ARC
  5
287
330
1E
100
AcDbEntity
  8
0
  6
CONTINUOUS
 62
     5
100
AcDbCircle
 10
25.375
 20
2.5
 30
0.0
 40
0.183
100
AcDbArc
 50
85.00000099999999
 51
5.0
  0
LINE
  5
288
330
1E
100
AcDbEntity
  8
0
  6
CONTINUOUS
 62
     5
100
AcDbLine
 10
25.149
 20
2.5
 30
0.0
 11
25.6
 21
2.5
 31
0.0
  0
CIRCLE
  5
289
330
1E
100
AcDbEntity
  8
0
  6
CONTINUOUS
 62
     5
100
AcDbCircle
 10
24.25
 20
5.062
 30
0.0
 40
0.816
  0
LINE
  5
28A
330
1E
100
AcDbEntity
  8
0
  6
CONTINUOUS
 62
     5
100
AcDbLine
 10
24.25
 20
4.083
 30
0.0
 11
24.25
 21
6.041
 31
0.0
  0
LINE
  5
28B
330
1E
100
AcDbEntity
  8
0
  6
CONTINUOUS
 62
     5
100
AcDbLine
 10
25.75
 20
6.125
 30
0.0
 11
25.75
 21
2.125
 31
0.0
  0
LINE
  5
291
330
1E
100
AcDbEntity
  8
0
  6
CONTINUOUS
 62
     5
100
AcDbLine
 10
22.656
 20
4.535
 30
0.0
 11
22.656
 21
5.964999999999999
 31
0.0
  0
LINE
  5
2DD
330
1E
100
AcDbEntity
  8
0
  6
CONTINUOUS
 62
     5
100
AcDbLine
 10
22.656
 20
3.035
 30
0.0
 11
22.656
 21
4.464999999999999
 31
0.0
  0
LINE
  5
2E2
330
1E
100
AcDbEntity
  8
0
  6
CONTINUOUS
 62
     5
100
AcDbLine
 10
21.941
 20
5.25
 30
0.0
 11
23.36999999999999
 21
5.25
 31
0.0
  0
LINE
  5
2E3
330
1E
100
AcDbEntity
  8
0
  6
CONTINUOUS
 62
     5
100
AcDbLine
 10
21.941
 20
3.75
 30
0.0
 11
23.36999999999999
 21
3.75
 31
0.0
  0
CIRCLE
  5
2E4
330
1E
100
AcDbEntity
  8
0
  6
CONTINUOUS
 62
     5
100
AcDbCircle
 10
22.656
 20
3.75
 30
0.0
 40
0.595
  0
CIRCLE
  5
2E5
330
1E
100
AcDbEntity
  8
0
  6
CONTINUOUS
 62
     5
100
AcDbCircle
 10
22.656
 20
3.75
 30
0.0
 40
0.4050000000000001
  0
CIRCLE
  5
2E6
330
1E
100
AcDbEntity
  8
0
  6
CONTINUOUS
 62
     5
100
AcDbCircle
 10
22.656
 20
3.75
 30
0.0
 40
0.375
  0
CIRCLE
  5
2E7
330
1E
100
AcDbEntity
  8
0
  6
CONTINUOUS
 62
     5
100
AcDbCircle
 10
22.656
 20
3.75
 30
0.0
 40
0.345
  0
ARC
  5
2E8
330
1E
100
AcDbEntity
  8
0
  6
CONTINUOUS
 62
     5
100
AcDbCircle
 10
22.656
 20
3.75
 30
0.0
 40
0.366
100
AcDbArc
 50
85.00000099999999
 51
5.0
  0
CIRCLE
  5
2E9
330
1E
100
AcDbEntity
  8
0
  6
CONTINUOUS
 62
     5
100
AcDbCircle
 10
22.656
 20
3.75
 30
0.0
 40
0.313
  0
CIRCLE
  5
2EA
330
1E
100
AcDbEntity
  8
0
  6
CONTINUOUS
 62
     5
100
AcDbCircle
 10
22.656
 20
5.25
 30
0.0
 40
0.595
  0
CIRCLE
  5
2EB
330
1E
100
AcDbEntity
  8
0
  6
CONTINUOUS
 62
     5
100
AcDbCircle
 10
22.656
 20
5.25
 30
0.0
 40
0.4050000000000001
  0
CIRCLE
  5
2EC
330
1E
100
AcDbEntity
  8
0
  6
CONTINUOUS
 62
     5
100
AcDbCircle
 10
22.656
 20
5.25
 30
0.0
 40
0.375
  0
CIRCLE
  5
2ED
330
1E
100
AcDbEntity
  8
0
  6
CONTINUOUS
 62
     5
100
AcDbCircle
 10
22.656
 20
5.25
 30
0.0
 40
0.345
  0
ARC
  5
2EE
330
1E
100
AcDbEntity
  8
0
  6
CONTINUOUS
 62
     5
100
AcDbCircle
 10
22.656
 20
5.25
 30
0.0
 40
0.366
100
AcDbArc
 50
85.00000099999999
 51
5.0
  0
CIRCLE
  5
2EF
330
1E
100
AcDbEntity
  8
0
  6
CONTINUOUS
 62
     5
100
AcDbCircle
 10
22.656
 20
5.25
 30
0.0
 40
0.313
  0
LINE
  5
2F0
330
1E
100
AcDbEntity
  8
0
  6
CONTINUOUS
 62
     5
100
AcDbLine
 10
22.153
 20
9.906
 30
0.0
 11
23.158
 21
9.906
 31
0.0
  0
CIRCLE
  5
2F1
330
1E
100
AcDbEntity
  8
0
  6
CONTINUOUS
 62
     5
100
AcDbCircle
 10
22.656
 20
9.906
 30
0.0
 40
0.14
  0
ARC
  5
2F2
330
1E
100
AcDbEntity
  8
0
  6
CONTINUOUS
 62
     5
100
AcDbCircle
 10
22.656
 20
9.906
 30
0.0
 40
0.164
100
AcDbArc
 50
85.00000099999999
 51
5.0
  0
CIRCLE
  5
2F3
330
1E
100
AcDbEntity
  8
0
  6
CONTINUOUS
 62
     5
100
AcDbCircle
 10
22.656
 20
9.906
 30
0.0
 40
0.419
  0
CIRCLE
  5
2F4
330
1E
100
AcDbEntity
  8
0
  6
CONTINUOUS
 62
     5
100
AcDbCircle
 10
22.656
 20
9.906
 30
0.0
 40
0.243
  0
CIRCLE
  5
2F5
330
1E
100
AcDbEntity
  8
0
  6
CONTINUOUS
 62
     5
100
AcDbCircle
 10
22.656
 20
9.906
 30
0.0
 40
0.219
  0
CIRCLE
  5
2F6
330
1E
100
AcDbEntity
  8
0
  6
CONTINUOUS
 62
     5
100
AcDbCircle
 10
22.656
 20
9.906
 30
0.0
 40
0.194
  0
LINE
  5
2F7
330
1E
100
AcDbEntity
  8
0
  6
CONTINUOUS
 62
     5
100
AcDbLine
 10
22.656
 20
9.403
 30
0.0
 11
22.656
 21
10.409
 31
0.0
  0
LINE
  5
2F8
330
1E
100
AcDbEntity
  8
0
  6
CONTINUOUS
 62
     5
100
AcDbLine
 10
25.75
 20
10.625
 30
0.0
 11
25.75
 21
7.625
 31
0.0
  0
LINE
  5
379
330
1E
100
AcDbEntity
  8
0
  6
CONTINUOUS
 62
     5
100
AcDbLine
 10
21.15974
 20
18.024062
 30
0.0
 11
21.07473999999999
 21
18.024062
 31
0.0
  0
LWPOLYLINE
  5
37A
330
1E
100
AcDbEntity
  8
0
  6
CONTINUOUS
 62
     5
100
AcDbPolyline
 90
       20
 70
     0
 43
0.0
 10
21.239427
 20
17.9125
 10
21.24474
 20
17.901875
 10
21.255365
 20
17.89125
 10
21.27661499999999
 20
17.88593699999999
 10
21.30848999999999
 20
17.88593699999999
 10
21.32974
 20
17.896562
 10
21.34567699999999
 20
17.91781199999999
 10
21.356302
 20
17.944375
 10
21.361615
 20
17.97625
 10
21.361615
 20
18.013437
 10
21.356302
 20
18.04531199999999
 10
21.34567699999999
 20
18.066562
 10
21.32974
 20
18.087812
 10
21.30848999999999
 20
18.098437
 10
21.27130199999999
 20
18.098437
 10
21.255365
 20
18.093125
 10
21.24474
 20
18.0825
 10
21.234115
 20
18.06125
 10
21.234115
 20
18.00281199999999
 10
21.28724
 20
18.00281199999999
  0
LWPOLYLINE
  5
390
330
1E
100
AcDbEntity
  8
0
  6
CONTINUOUS
 62
     5
100
AcDbPolyline
 90
        4
 70
     0
 43
0.0
 10
21.18098999999999
 20
18.098437
 10
21.12255199999999
 20
17.88593699999999
 10
21.11192699999999
 20
17.88593699999999
 10
21.05348999999999
 20
18.098437
  0
LINE
  5
396
330
1E
100
AcDbEntity
  8
0
  6
CONTINUOUS
 62
     5
100
AcDbLine
 10
19.03474
 20
18.024062
 30
0.0
 11
18.94973999999999
 21
18.024062
 31
0.0
  0
LWPOLYLINE
  5
397
330
1E
100
AcDbEntity
  8
0
  6
CONTINUOUS
 62
     5
100
AcDbPolyline
 90
       20
 70
     0
 43
0.0
 10
19.114427
 20
17.9125
 10
19.11974
 20
17.901875
 10
19.130365
 20
17.89125
 10
19.15161499999999
 20
17.88593699999999
 10
19.18349
 20
17.88593699999999
 10
19.20474
 20
17.896562
 10
19.22067699999999
 20
17.91781199999999
 10
19.231302
 20
17.944375
 10
19.236615
 20
17.97625
 10
19.236615
 20
18.013437
 10
19.231302
 20
18.04531199999999
 10
19.22067699999999
 20
18.066562
 10
19.20474
 20
18.087812
 10
19.18349
 20
18.098437
 10
19.14630199999999
 20
18.098437
 10
19.130365
 20
18.093125
 10
19.11974
 20
18.0825
 10
19.109115
 20
18.06125
 10
19.109115
 20
18.00281199999999
 10
19.16224
 20
18.00281199999999
  0
LWPOLYLINE
  5
3AD
330
1E
100
AcDbEntity
  8
0
  6
CONTINUOUS
 62
     5
100
AcDbPolyline
 90
        4
 70
     0
 43
0.0
 10
19.05598999999999
 20
18.098437
 10
18.99755199999999
 20
17.88593699999999
 10
18.98692699999999
 20
17.88593699999999
 10
18.92849
 20
18.098437
  0
CIRCLE
  5
3B3
330
1E
100
AcDbEntity
  8
0
  6
CONTINUOUS
 62
     5
100
AcDbCircle
 10
18.406
 20
18.32799999999999
 30
0.0
 40
0.243
  0
CIRCLE
  5
3B4
330
1E
100
AcDbEntity
  8
0
  6
CONTINUOUS
 62
     5
100
AcDbCircle
 10
18.406
 20
18.32799999999999
 30
0.0
 40
0.219
  0
CIRCLE
  5
3B5
330
1E
100
AcDbEntity
  8
0
  6
CONTINUOUS
 62
     5
100
AcDbCircle
 10
18.406
 20
18.32799999999999
 30
0.0
 40
0.194
  0
ARC
  5
3B6
330
1E
100
AcDbEntity
  8
0
  6
CONTINUOUS
 62
     5
100
AcDbCircle
 10
18.406
 20
18.32799999999999
 30
0.0
 40
0.164
100
AcDbArc
 50
85.00000099999999
 51
5.0
  0
CIRCLE
  5
3B7
330
1E
100
AcDbEntity
  8
0
  6
CONTINUOUS
 62
     5
100
AcDbCircle
 10
18.406
 20
18.32799999999999
 30
0.0
 40
0.14
  0
LINE
  5
3B8
330
1E
100
AcDbEntity
  8
0
  6
CONTINUOUS
 62
     5
100
AcDbLine
 10
20.028
 20
18.32799999999999
 30
0.0
 11
21.033
 21
18.32799999999999
 31
0.0
  0
CIRCLE
  5
3B9
330
1E
100
AcDbEntity
  8
0
  6
CONTINUOUS
 62
     5
100
AcDbCircle
 10
20.531
 20
18.32799999999999
 30
0.0
 40
0.243
  0
CIRCLE
  5
3BA
330
1E
100
AcDbEntity
  8
0
  6
CONTINUOUS
 62
     5
100
AcDbCircle
 10
20.531
 20
18.32799999999999
 30
0.0
 40
0.219
  0
CIRCLE
  5
3BB
330
1E
100
AcDbEntity
  8
0
  6
CONTINUOUS
 62
     5
100
AcDbCircle
 10
20.531
 20
18.32799999999999
 30
0.0
 40
0.194
  0
ARC
  5
3BC
330
1E
100
AcDbEntity
  8
0
  6
CONTINUOUS
 62
     5
100
AcDbCircle
 10
20.531
 20
18.32799999999999
 30
0.0
 40
0.164
100
AcDbArc
 50
85.00000099999999
 51
5.0
  0
CIRCLE
  5
3BD
330
1E
100
AcDbEntity
  8
0
  6
CONTINUOUS
 62
     5
100
AcDbCircle
 10
20.531
 20
18.32799999999999
 30
0.0
 40
0.14
  0
CIRCLE
  5
3BF
330
1E
100
AcDbEntity
  8
0
  6
CONTINUOUS
 62
     5
100
AcDbCircle
 10
20.531
 20
18.32799999999999
 30
0.0
 40
0.419
  0
LINE
  5
3C0
330
1E
100
AcDbEntity
  8
0
  6
CONTINUOUS
 62
     5
100
AcDbLine
 10
20.531
 20
17.82499999999999
 30
0.0
 11
20.531
 21
18.83099999999999
 31
0.0
  0
LINE
  5
3C1
330
1E
100
AcDbEntity
  8
0
  6
CONTINUOUS
 62
     5
100
AcDbLine
 10
18.406
 20
17.82499999999999
 30
0.0
 11
18.406
 21
18.83099999999999
 31
0.0
  0
CIRCLE
  5
492
330
1E
100
AcDbEntity
  8
0
  6
CONTINUOUS
 62
     5
100
AcDbCircle
 10
21.171
 20
13.266
 30
0.0
 40
0.095
  0
CIRCLE
  5
493
330
1E
100
AcDbEntity
  8
0
  6
CONTINUOUS
 62
     5
100
AcDbCircle
 10
21.171
 20
13.266
 30
0.0
 40
0.075
  0
ARC
  5
494
330
1E
100
AcDbEntity
  8
0
  6
CONTINUOUS
 62
     5
100
AcDbCircle
 10
21.171
 20
13.266
 30
0.0
 40
0.087
100
AcDbArc
 50
85.00000099999999
 51
5.0
  0
LINE
  5
495
330
1E
100
AcDbEntity
  8
0
  6
CONTINUOUS
 62
     5
100
AcDbLine
 10
21.171
 20
13.15199999999999
 30
0.0
 11
21.171
 21
13.38
 31
0.0
  0
LINE
  5
496
330
1E
100
AcDbEntity
  8
0
  6
CONTINUOUS
 62
     5
100
AcDbLine
 10
21.057
 20
13.266
 30
0.0
 11
21.285
 21
13.266
 31
0.0
  0
LINE
  5
497
330
1E
100
AcDbEntity
  8
0
  6
CONTINUOUS
 62
     5
100
AcDbLine
 10
20.98
 20
13.884
 30
0.0
 11
21.0
 21
13.89499999999999
 31
0.0
  0
LINE
  5
498
330
1E
100
AcDbEntity
  8
0
  6
CONTINUOUS
 62
     5
100
AcDbLine
 10
20.95899999999999
 20
13.878
 30
0.0
 11
20.98
 21
13.884
 31
0.0
  0
LINE
  5
499
330
1E
100
AcDbEntity
  8
0
  6
CONTINUOUS
 62
     5
100
AcDbLine
 10
20.937
 20
13.87599999999999
 30
0.0
 11
20.95899999999999
 21
13.878
 31
0.0
  0
LINE
  5
49A
330
1E
100
AcDbEntity
  8
0
  6
CONTINUOUS
 62
     5
100
AcDbLine
 10
20.916
 20
13.878
 30
0.0
 11
20.937
 21
13.87599999999999
 31
0.0
  0
LINE
  5
49B
330
1E
100
AcDbEntity
  8
0
  6
CONTINUOUS
 62
     5
100
AcDbLine
 10
20.895
 20
13.884
 30
0.0
 11
20.916
 21
13.878
 31
0.0
  0
LINE
  5
49C
330
1E
100
AcDbEntity
  8
0
  6
CONTINUOUS
 62
     5
100
AcDbLine
 10
20.87499999999999
 20
13.89499999999999
 30
0.0
 11
20.895
 21
13.884
 31
0.0
  0
LINE
  5
49D
330
1E
100
AcDbEntity
  8
0
  6
CONTINUOUS
 62
     5
100
AcDbLine
 10
20.937
 20
13.866
 30
0.0
 11
20.937
 21
14.166
 31
0.0
  0
LINE
  5
49E
330
1E
100
AcDbEntity
  8
0
  6
CONTINUOUS
 62
     5
100
AcDbLine
 10
20.81399999999999
 20
14.03999999999999
 30
0.0
 11
20.812
 21
14.016
 31
0.0
  0
LINE
  5
49F
330
1E
100
AcDbEntity
  8
0
  6
CONTINUOUS
 62
     5
100
AcDbLine
 10
20.82
 20
14.064
 30
0.0
 11
20.81399999999999
 21
14.03999999999999
 31
0.0
  0
LINE
  5
4A0
330
1E
100
AcDbEntity
  8
0
  6
CONTINUOUS
 62
     5
100
AcDbLine
 10
20.82899999999999
 20
14.086
 30
0.0
 11
20.82
 21
14.064
 31
0.0
  0
LINE
  5
4A1
330
1E
100
AcDbEntity
  8
0
  6
CONTINUOUS
 62
     5
100
AcDbLine
 10
20.842
 20
14.106
 30
0.0
 11
20.82899999999999
 21
14.086
 31
0.0
  0
LINE
  5
4A2
330
1E
100
AcDbEntity
  8
0
  6
CONTINUOUS
 62
     5
100
AcDbLine
 10
20.857
 20
14.123
 30
0.0
 11
20.842
 21
14.106
 31
0.0
  0
LINE
  5
4A3
330
1E
100
AcDbEntity
  8
0
  6
CONTINUOUS
 62
     5
100
AcDbLine
 10
20.87499999999999
 20
14.137
 30
0.0
 11
20.857
 21
14.123
 31
0.0
  0
LINE
  5
4A4
330
1E
100
AcDbEntity
  8
0
  6
CONTINUOUS
 62
     5
100
AcDbLine
 10
20.895
 20
14.148
 30
0.0
 11
20.87499999999999
 21
14.137
 31
0.0
  0
LINE
  5
4A5
330
1E
100
AcDbEntity
  8
0
  6
CONTINUOUS
 62
     5
100
AcDbLine
 10
20.916
 20
14.15399999999999
 30
0.0
 11
20.895
 21
14.148
 31
0.0
  0
LINE
  5
4A6
330
1E
100
AcDbEntity
  8
0
  6
CONTINUOUS
 62
     5
100
AcDbLine
 10
20.937
 20
14.156
 30
0.0
 11
20.916
 21
14.15399999999999
 31
0.0
  0
LINE
  5
4A7
330
1E
100
AcDbEntity
  8
0
  6
CONTINUOUS
 62
     5
100
AcDbLine
 10
20.95899999999999
 20
14.15399999999999
 30
0.0
 11
20.937
 21
14.156
 31
0.0
  0
LINE
  5
4A8
330
1E
100
AcDbEntity
  8
0
  6
CONTINUOUS
 62
     5
100
AcDbLine
 10
20.98
 20
14.148
 30
0.0
 11
20.95899999999999
 21
14.15399999999999
 31
0.0
  0
LINE
  5
4A9
330
1E
100
AcDbEntity
  8
0
  6
CONTINUOUS
 62
     5
100
AcDbLine
 10
21.0
 20
14.137
 30
0.0
 11
20.98
 21
14.148
 31
0.0
  0
LINE
  5
4AA
330
1E
100
AcDbEntity
  8
0
  6
CONTINUOUS
 62
     5
100
AcDbLine
 10
21.018
 20
14.123
 30
0.0
 11
21.0
 21
14.137
 31
0.0
  0
LINE
  5
4AB
330
1E
100
AcDbEntity
  8
0
  6
CONTINUOUS
 62
     5
100
AcDbLine
 10
21.033
 20
14.106
 30
0.0
 11
21.018
 21
14.123
 31
0.0
  0
LINE
  5
4AC
330
1E
100
AcDbEntity
  8
0
  6
CONTINUOUS
 62
     5
100
AcDbLine
 10
21.046
 20
14.086
 30
0.0
 11
21.033
 21
14.106
 31
0.0
  0
LINE
  5
4AD
330
1E
100
AcDbEntity
  8
0
  6
CONTINUOUS
 62
     5
100
AcDbLine
 10
21.055
 20
14.064
 30
0.0
 11
21.046
 21
14.086
 31
0.0
  0
LINE
  5
4AE
330
1E
100
AcDbEntity
  8
0
  6
CONTINUOUS
 62
     5
100
AcDbLine
 10
21.061
 20
14.03999999999999
 30
0.0
 11
21.055
 21
14.064
 31
0.0
  0
LINE
  5
4AF
330
1E
100
AcDbEntity
  8
0
  6
CONTINUOUS
 62
     5
100
AcDbLine
 10
21.062
 20
14.016
 30
0.0
 11
21.061
 21
14.03999999999999
 31
0.0
  0
LINE
  5
4B0
330
1E
100
AcDbEntity
  8
0
  6
CONTINUOUS
 62
     5
100
AcDbLine
 10
21.061
 20
13.992
 30
0.0
 11
21.062
 21
14.016
 31
0.0
  0
LINE
  5
4B1
330
1E
100
AcDbEntity
  8
0
  6
CONTINUOUS
 62
     5
100
AcDbLine
 10
21.055
 20
13.968
 30
0.0
 11
21.061
 21
13.992
 31
0.0
  0
LINE
  5
4B2
330
1E
100
AcDbEntity
  8
0
  6
CONTINUOUS
 62
     5
100
AcDbLine
 10
21.046
 20
13.946
 30
0.0
 11
21.055
 21
13.968
 31
0.0
  0
LINE
  5
4B3
330
1E
100
AcDbEntity
  8
0
  6
CONTINUOUS
 62
     5
100
AcDbLine
 10
21.033
 20
13.926
 30
0.0
 11
21.046
 21
13.946
 31
0.0
  0
LINE
  5
4B4
330
1E
100
AcDbEntity
  8
0
  6
CONTINUOUS
 62
     5
100
AcDbLine
 10
21.018
 20
13.909
 30
0.0
 11
21.033
 21
13.926
 31
0.0
  0
LINE
  5
4B5
330
1E
100
AcDbEntity
  8
0
  6
CONTINUOUS
 62
     5
100
AcDbLine
 10
21.0
 20
13.89499999999999
 30
0.0
 11
21.018
 21
13.909
 31
0.0
  0
LINE
  5
4B6
330
1E
100
AcDbEntity
  8
0
  6
CONTINUOUS
 62
     5
100
AcDbLine
 10
20.857
 20
13.909
 30
0.0
 11
20.87499999999999
 21
13.89499999999999
 31
0.0
  0
LINE
  5
4B7
330
1E
100
AcDbEntity
  8
0
  6
CONTINUOUS
 62
     5
100
AcDbLine
 10
20.842
 20
13.926
 30
0.0
 11
20.857
 21
13.909
 31
0.0
  0
LINE
  5
4B8
330
1E
100
AcDbEntity
  8
0
  6
CONTINUOUS
 62
     5
100
AcDbLine
 10
20.82899999999999
 20
13.946
 30
0.0
 11
20.842
 21
13.926
 31
0.0
  0
LINE
  5
4B9
330
1E
100
AcDbEntity
  8
0
  6
CONTINUOUS
 62
     5
100
AcDbLine
 10
20.82
 20
13.968
 30
0.0
 11
20.82899999999999
 21
13.946
 31
0.0
  0
LINE
  5
4BA
330
1E
100
AcDbEntity
  8
0
  6
CONTINUOUS
 62
     5
100
AcDbLine
 10
20.81399999999999
 20
13.992
 30
0.0
 11
20.82
 21
13.968
 31
0.0
  0
LINE
  5
4BB
330
1E
100
AcDbEntity
  8
0
  6
CONTINUOUS
 62
     5
100
AcDbLine
 10
20.812
 20
14.016
 30
0.0
 11
20.81399999999999
 21
13.992
 31
0.0
  0
LINE
  5
4BC
330
1E
100
AcDbEntity
  8
0
  6
CONTINUOUS
 62
     5
100
AcDbLine
 10
20.788
 20
14.016
 30
0.0
 11
21.088
 21
14.016
 31
0.0
  0
CIRCLE
  5
4BD
330
1E
100
AcDbEntity
  8
0
  6
CONTINUOUS
 62
     5
100
AcDbCircle
 10
21.141
 20
14.85999999999999
 30
0.0
 40
0.095
  0
CIRCLE
  5
4BE
330
1E
100
AcDbEntity
  8
0
  6
CONTINUOUS
 62
     5
100
AcDbCircle
 10
21.141
 20
14.85999999999999
 30
0.0
 40
0.075
  0
ARC
  5
4BF
330
1E
100
AcDbEntity
  8
0
  6
CONTINUOUS
 62
     5
100
AcDbCircle
 10
21.141
 20
14.85999999999999
 30
0.0
 40
0.087
100
AcDbArc
 50
85.00000099999999
 51
5.0
  0
LINE
  5
4C0
330
1E
100
AcDbEntity
  8
0
  6
CONTINUOUS
 62
     5
100
AcDbLine
 10
21.141
 20
14.746
 30
0.0
 11
21.141
 21
14.974
 31
0.0
  0
LINE
  5
4C1
330
1E
100
AcDbEntity
  8
0
  6
CONTINUOUS
 62
     5
100
AcDbLine
 10
21.027
 20
14.85999999999999
 30
0.0
 11
21.255
 21
14.85999999999999
 31
0.0
  0
CIRCLE
  5
4C2
330
1E
100
AcDbEntity
  8
0
  6
CONTINUOUS
 62
     5
100
AcDbCircle
 10
20.125
 20
14.016
 30
0.0
 40
0.14
  0
LINE
  5
4C3
330
1E
100
AcDbEntity
  8
0
  6
CONTINUOUS
 62
     5
100
AcDbLine
 10
19.95599999999999
 20
14.016
 30
0.0
 11
20.293
 21
14.016
 31
0.0
  0
CIRCLE
  5
4C4
330
1E
100
AcDbEntity
  8
0
  6
CONTINUOUS
 62
     5
100
AcDbCircle
 10
19.89099999999999
 20
13.266
 30
0.0
 40
0.095
  0
CIRCLE
  5
4C5
330
1E
100
AcDbEntity
  8
0
  6
CONTINUOUS
 62
     5
100
AcDbCircle
 10
19.89099999999999
 20
13.266
 30
0.0
 40
0.075
  0
ARC
  5
4C6
330
1E
100
AcDbEntity
  8
0
  6
CONTINUOUS
 62
     5
100
AcDbCircle
 10
19.89099999999999
 20
13.266
 30
0.0
 40
0.087
100
AcDbArc
 50
85.00000099999999
 51
5.0
  0
LINE
  5
4C7
330
1E
100
AcDbEntity
  8
0
  6
CONTINUOUS
 62
     5
100
AcDbLine
 10
19.777
 20
13.266
 30
0.0
 11
20.005
 21
13.266
 31
0.0
  0
CIRCLE
  5
4C8
330
1E
100
AcDbEntity
  8
0
  6
CONTINUOUS
 62
     5
100
AcDbCircle
 10
19.89
 20
13.561
 30
0.0
 40
0.078
  0
LINE
  5
4C9
330
1E
100
AcDbEntity
  8
0
  6
CONTINUOUS
 62
     5
100
AcDbLine
 10
19.797
 20
13.561
 30
0.0
 11
19.984
 21
13.561
 31
0.0
  0
CIRCLE
  5
4CA
330
1E
100
AcDbEntity
  8
0
  6
CONTINUOUS
 62
     5
100
AcDbCircle
 10
19.92099999999999
 20
14.85999999999999
 30
0.0
 40
0.095
  0
CIRCLE
  5
4CB
330
1E
100
AcDbEntity
  8
0
  6
CONTINUOUS
 62
     5
100
AcDbCircle
 10
19.92099999999999
 20
14.85999999999999
 30
0.0
 40
0.075
  0
ARC
  5
4CC
330
1E
100
AcDbEntity
  8
0
  6
CONTINUOUS
 62
     5
100
AcDbCircle
 10
19.92099999999999
 20
14.85999999999999
 30
0.0
 40
0.087
100
AcDbArc
 50
85.00000099999999
 51
5.0
  0
LINE
  5
4CD
330
1E
100
AcDbEntity
  8
0
  6
CONTINUOUS
 62
     5
100
AcDbLine
 10
19.92099999999999
 20
14.746
 30
0.0
 11
19.92099999999999
 21
14.974
 31
0.0
  0
LINE
  5
4CE
330
1E
100
AcDbEntity
  8
0
  6
CONTINUOUS
 62
     5
100
AcDbLine
 10
19.80699999999999
 20
14.85999999999999
 30
0.0
 11
20.035
 21
14.85999999999999
 31
0.0
  0
LINE
  5
4CF
330
1E
100
AcDbEntity
  8
0
  6
CONTINUOUS
 62
     5
100
AcDbLine
 10
19.89099999999999
 20
13.15199999999999
 30
0.0
 11
19.89099999999999
 21
13.38
 31
0.0
  0
LINE
  5
4D0
330
1E
100
AcDbEntity
  8
0
  6
CONTINUOUS
 62
     5
100
AcDbLine
 10
19.89
 20
13.467
 30
0.0
 11
19.89
 21
13.65499999999999
 31
0.0
  0
LINE
  5
4D1
330
1E
100
AcDbEntity
  8
0
  6
CONTINUOUS
 62
     5
100
AcDbLine
 10
20.125
 20
13.847
 30
0.0
 11
20.125
 21
14.185
 31
0.0
  0
LINE
  5
4D2
330
1E
100
AcDbEntity
  8
0
  6
CONTINUOUS
 62
     5
100
AcDbLine
 10
20.531
 20
14.191
 30
0.0
 11
20.531
 21
14.529
 31
0.0
  0
LINE
  5
4D3
330
1E
100
AcDbEntity
  8
0
  6
CONTINUOUS
 62
     5
100
AcDbLine
 10
20.531
 20
13.503
 30
0.0
 11
20.531
 21
13.841
 31
0.0
  0
CIRCLE
  5
4D4
330
1E
100
AcDbEntity
  8
0
  6
CONTINUOUS
 62
     5
100
AcDbCircle
 10
19.046
 20
13.266
 30
0.0
 40
0.095
  0
CIRCLE
  5
4D5
330
1E
100
AcDbEntity
  8
0
  6
CONTINUOUS
 62
     5
100
AcDbCircle
 10
19.046
 20
13.266
 30
0.0
 40
0.075
  0
ARC
  5
4D6
330
1E
100
AcDbEntity
  8
0
  6
CONTINUOUS
 62
     5
100
AcDbCircle
 10
19.046
 20
13.266
 30
0.0
 40
0.087
100
AcDbArc
 50
85.00000099999999
 51
5.0
  0
LINE
  5
4D7
330
1E
100
AcDbEntity
  8
0
  6
CONTINUOUS
 62
     5
100
AcDbLine
 10
19.046
 20
13.15199999999999
 30
0.0
 11
19.046
 21
13.38
 31
0.0
  0
LINE
  5
4D8
330
1E
100
AcDbEntity
  8
0
  6
CONTINUOUS
 62
     5
100
AcDbLine
 10
18.932
 20
13.266
 30
0.0
 11
19.16
 21
13.266
 31
0.0
  0
CIRCLE
  5
4D9
330
1E
100
AcDbEntity
  8
0
  6
CONTINUOUS
 62
     5
100
AcDbCircle
 10
18.406
 20
14.35999999999999
 30
0.0
 40
0.14
  0
LINE
  5
4DA
330
1E
100
AcDbEntity
  8
0
  6
CONTINUOUS
 62
     5
100
AcDbLine
 10
18.406
 20
14.191
 30
0.0
 11
18.406
 21
14.529
 31
0.0
  0
LINE
  5
4DB
330
1E
100
AcDbEntity
  8
0
  6
CONTINUOUS
 62
     5
100
AcDbLine
 10
18.406
 20
13.503
 30
0.0
 11
18.406
 21
13.841
 31
0.0
  0
CIRCLE
  5
4DC
330
1E
100
AcDbEntity
  8
0
  6
CONTINUOUS
 62
     5
100
AcDbCircle
 10
18.406
 20
13.672
 30
0.0
 40
0.14
  0
LINE
  5
4DD
330
1E
100
AcDbEntity
  8
0
  6
CONTINUOUS
 62
     5
100
AcDbLine
 10
18.23699999999999
 20
13.672
 30
0.0
 11
18.574
 21
13.672
 31
0.0
  0
LINE
  5
4DE
330
1E
100
AcDbEntity
  8
0
  6
CONTINUOUS
 62
     5
100
AcDbLine
 10
18.855
 20
13.884
 30
0.0
 11
18.875
 21
13.89499999999999
 31
0.0
  0
LINE
  5
4DF
330
1E
100
AcDbEntity
  8
0
  6
CONTINUOUS
 62
     5
100
AcDbLine
 10
18.83399999999999
 20
13.878
 30
0.0
 11
18.855
 21
13.884
 31
0.0
  0
LINE
  5
4E0
330
1E
100
AcDbEntity
  8
0
  6
CONTINUOUS
 62
     5
100
AcDbLine
 10
18.812
 20
13.87599999999999
 30
0.0
 11
18.83399999999999
 21
13.878
 31
0.0
  0
LINE
  5
4E1
330
1E
100
AcDbEntity
  8
0
  6
CONTINUOUS
 62
     5
100
AcDbLine
 10
18.791
 20
13.878
 30
0.0
 11
18.812
 21
13.87599999999999
 31
0.0
  0
LINE
  5
4E2
330
1E
100
AcDbEntity
  8
0
  6
CONTINUOUS
 62
     5
100
AcDbLine
 10
18.76999999999999
 20
13.884
 30
0.0
 11
18.791
 21
13.878
 31
0.0
  0
LINE
  5
4E3
330
1E
100
AcDbEntity
  8
0
  6
CONTINUOUS
 62
     5
100
AcDbLine
 10
18.75
 20
13.89499999999999
 30
0.0
 11
18.76999999999999
 21
13.884
 31
0.0
  0
LINE
  5
4E4
330
1E
100
AcDbEntity
  8
0
  6
CONTINUOUS
 62
     5
100
AcDbLine
 10
18.812
 20
13.866
 30
0.0
 11
18.812
 21
14.166
 31
0.0
  0
LINE
  5
4E5
330
1E
100
AcDbEntity
  8
0
  6
CONTINUOUS
 62
     5
100
AcDbLine
 10
18.689
 20
14.03999999999999
 30
0.0
 11
18.687
 21
14.016
 31
0.0
  0
LINE
  5
4E6
330
1E
100
AcDbEntity
  8
0
  6
CONTINUOUS
 62
     5
100
AcDbLine
 10
18.695
 20
14.064
 30
0.0
 11
18.689
 21
14.03999999999999
 31
0.0
  0
LINE
  5
4E7
330
1E
100
AcDbEntity
  8
0
  6
CONTINUOUS
 62
     5
100
AcDbLine
 10
18.704
 20
14.086
 30
0.0
 11
18.695
 21
14.064
 31
0.0
  0
LINE
  5
4E8
330
1E
100
AcDbEntity
  8
0
  6
CONTINUOUS
 62
     5
100
AcDbLine
 10
18.71699999999999
 20
14.106
 30
0.0
 11
18.704
 21
14.086
 31
0.0
  0
LINE
  5
4E9
330
1E
100
AcDbEntity
  8
0
  6
CONTINUOUS
 62
     5
100
AcDbLine
 10
18.73199999999999
 20
14.123
 30
0.0
 11
18.71699999999999
 21
14.106
 31
0.0
  0
LINE
  5
4EA
330
1E
100
AcDbEntity
  8
0
  6
CONTINUOUS
 62
     5
100
AcDbLine
 10
18.75
 20
14.137
 30
0.0
 11
18.73199999999999
 21
14.123
 31
0.0
  0
LINE
  5
4EB
330
1E
100
AcDbEntity
  8
0
  6
CONTINUOUS
 62
     5
100
AcDbLine
 10
18.76999999999999
 20
14.148
 30
0.0
 11
18.75
 21
14.137
 31
0.0
  0
LINE
  5
4EC
330
1E
100
AcDbEntity
  8
0
  6
CONTINUOUS
 62
     5
100
AcDbLine
 10
18.791
 20
14.15399999999999
 30
0.0
 11
18.76999999999999
 21
14.148
 31
0.0
  0
LINE
  5
4ED
330
1E
100
AcDbEntity
  8
0
  6
CONTINUOUS
 62
     5
100
AcDbLine
 10
18.812
 20
14.156
 30
0.0
 11
18.791
 21
14.15399999999999
 31
0.0
  0
LINE
  5
4EE
330
1E
100
AcDbEntity
  8
0
  6
CONTINUOUS
 62
     5
100
AcDbLine
 10
18.83399999999999
 20
14.15399999999999
 30
0.0
 11
18.812
 21
14.156
 31
0.0
  0
LINE
  5
4EF
330
1E
100
AcDbEntity
  8
0
  6
CONTINUOUS
 62
     5
100
AcDbLine
 10
18.855
 20
14.148
 30
0.0
 11
18.83399999999999
 21
14.15399999999999
 31
0.0
  0
LINE
  5
4F0
330
1E
100
AcDbEntity
  8
0
  6
CONTINUOUS
 62
     5
100
AcDbLine
 10
18.875
 20
14.137
 30
0.0
 11
18.855
 21
14.148
 31
0.0
  0
LINE
  5
4F1
330
1E
100
AcDbEntity
  8
0
  6
CONTINUOUS
 62
     5
100
AcDbLine
 10
18.893
 20
14.123
 30
0.0
 11
18.875
 21
14.137
 31
0.0
  0
LINE
  5
4F2
330
1E
100
AcDbEntity
  8
0
  6
CONTINUOUS
 62
     5
100
AcDbLine
 10
18.908
 20
14.106
 30
0.0
 11
18.893
 21
14.123
 31
0.0
  0
LINE
  5
4F3
330
1E
100
AcDbEntity
  8
0
  6
CONTINUOUS
 62
     5
100
AcDbLine
 10
18.921
 20
14.086
 30
0.0
 11
18.908
 21
14.106
 31
0.0
  0
LINE
  5
4F4
330
1E
100
AcDbEntity
  8
0
  6
CONTINUOUS
 62
     5
100
AcDbLine
 10
18.92999999999999
 20
14.064
 30
0.0
 11
18.921
 21
14.086
 31
0.0
  0
LINE
  5
4F5
330
1E
100
AcDbEntity
  8
0
  6
CONTINUOUS
 62
     5
100
AcDbLine
 10
18.936
 20
14.03999999999999
 30
0.0
 11
18.92999999999999
 21
14.064
 31
0.0
  0
LINE
  5
4F6
330
1E
100
AcDbEntity
  8
0
  6
CONTINUOUS
 62
     5
100
AcDbLine
 10
18.937
 20
14.016
 30
0.0
 11
18.936
 21
14.03999999999999
 31
0.0
  0
LINE
  5
4F7
330
1E
100
AcDbEntity
  8
0
  6
CONTINUOUS
 62
     5
100
AcDbLine
 10
18.936
 20
13.992
 30
0.0
 11
18.937
 21
14.016
 31
0.0
  0
LINE
  5
4F8
330
1E
100
AcDbEntity
  8
0
  6
CONTINUOUS
 62
     5
100
AcDbLine
 10
18.92999999999999
 20
13.968
 30
0.0
 11
18.936
 21
13.992
 31
0.0
  0
LINE
  5
4F9
330
1E
100
AcDbEntity
  8
0
  6
CONTINUOUS
 62
     5
100
AcDbLine
 10
18.921
 20
13.946
 30
0.0
 11
18.92999999999999
 21
13.968
 31
0.0
  0
LINE
  5
4FA
330
1E
100
AcDbEntity
  8
0
  6
CONTINUOUS
 62
     5
100
AcDbLine
 10
18.908
 20
13.926
 30
0.0
 11
18.921
 21
13.946
 31
0.0
  0
LINE
  5
4FB
330
1E
100
AcDbEntity
  8
0
  6
CONTINUOUS
 62
     5
100
AcDbLine
 10
18.893
 20
13.909
 30
0.0
 11
18.908
 21
13.926
 31
0.0
  0
LINE
  5
4FC
330
1E
100
AcDbEntity
  8
0
  6
CONTINUOUS
 62
     5
100
AcDbLine
 10
18.875
 20
13.89499999999999
 30
0.0
 11
18.893
 21
13.909
 31
0.0
  0
LINE
  5
4FD
330
1E
100
AcDbEntity
  8
0
  6
CONTINUOUS
 62
     5
100
AcDbLine
 10
18.73199999999999
 20
13.909
 30
0.0
 11
18.75
 21
13.89499999999999
 31
0.0
  0
LINE
  5
4FE
330
1E
100
AcDbEntity
  8
0
  6
CONTINUOUS
 62
     5
100
AcDbLine
 10
18.71699999999999
 20
13.926
 30
0.0
 11
18.73199999999999
 21
13.909
 31
0.0
  0
LINE
  5
4FF
330
1E
100
AcDbEntity
  8
0
  6
CONTINUOUS
 62
     5
100
AcDbLine
 10
18.704
 20
13.946
 30
0.0
 11
18.71699999999999
 21
13.926
 31
0.0
  0
LINE
  5
500
330
1E
100
AcDbEntity
  8
0
  6
CONTINUOUS
 62
     5
100
AcDbLine
 10
18.695
 20
13.968
 30
0.0
 11
18.704
 21
13.946
 31
0.0
  0
LINE
  5
501
330
1E
100
AcDbEntity
  8
0
  6
CONTINUOUS
 62
     5
100
AcDbLine
 10
18.689
 20
13.992
 30
0.0
 11
18.695
 21
13.968
 31
0.0
  0
LINE
  5
502
330
1E
100
AcDbEntity
  8
0
  6
CONTINUOUS
 62
     5
100
AcDbLine
 10
18.687
 20
14.016
 30
0.0
 11
18.689
 21
13.992
 31
0.0
  0
LINE
  5
503
330
1E
100
AcDbEntity
  8
0
  6
CONTINUOUS
 62
     5
100
AcDbLine
 10
18.663
 20
14.016
 30
0.0
 11
18.963
 21
14.016
 31
0.0
  0
LINE
  5
504
330
1E
100
AcDbEntity
  8
0
  6
CONTINUOUS
 62
     5
100
AcDbLine
 10
18.23699999999999
 20
14.35999999999999
 30
0.0
 11
18.574
 21
14.35999999999999
 31
0.0
  0
CIRCLE
  5
505
330
1E
100
AcDbEntity
  8
0
  6
CONTINUOUS
 62
     5
100
AcDbCircle
 10
19.016
 20
14.85999999999999
 30
0.0
 40
0.095
  0
CIRCLE
  5
506
330
1E
100
AcDbEntity
  8
0
  6
CONTINUOUS
 62
     5
100
AcDbCircle
 10
19.016
 20
14.85999999999999
 30
0.0
 40
0.075
  0
ARC
  5
507
330
1E
100
AcDbEntity
  8
0
  6
CONTINUOUS
 62
     5
100
AcDbCircle
 10
19.016
 20
14.85999999999999
 30
0.0
 40
0.087
100
AcDbArc
 50
85.00000099999999
 51
5.0
  0
LINE
  5
508
330
1E
100
AcDbEntity
  8
0
  6
CONTINUOUS
 62
     5
100
AcDbLine
 10
19.016
 20
14.746
 30
0.0
 11
19.016
 21
14.974
 31
0.0
  0
LINE
  5
509
330
1E
100
AcDbEntity
  8
0
  6
CONTINUOUS
 62
     5
100
AcDbLine
 10
18.902
 20
14.85999999999999
 30
0.0
 11
19.13
 21
14.85999999999999
 31
0.0
  0
CIRCLE
  5
50A
330
1E
100
AcDbEntity
  8
0
  6
CONTINUOUS
 62
     5
100
AcDbCircle
 10
20.531
 20
14.35999999999999
 30
0.0
 40
0.14
  0
CIRCLE
  5
50B
330
1E
100
AcDbEntity
  8
0
  6
CONTINUOUS
 62
     5
100
AcDbCircle
 10
20.531
 20
13.672
 30
0.0
 40
0.14
  0
LINE
  5
50C
330
1E
100
AcDbEntity
  8
0
  6
CONTINUOUS
 62
     5
100
AcDbLine
 10
20.362
 20
13.672
 30
0.0
 11
20.699
 21
13.672
 31
0.0
  0
LINE
  5
50D
330
1E
100
AcDbEntity
  8
0
  6
CONTINUOUS
 62
     5
100
AcDbLine
 10
20.362
 20
14.35999999999999
 30
0.0
 11
20.699
 21
14.35999999999999
 31
0.0
  0
TEXT
  5
50E
330
1E
100
AcDbEntity
  8
0
 62
     5
100
AcDbText
 10
21.08664025
 20
10.128125
 30
0.0
 40
0.2125
  1
GB
 41
0.825
 72
     4
 11
21.23273399999999
 21
10.234375
 31
0.0
100
AcDbText
  0
TEXT
  5
50F
330
1E
100
AcDbEntity
  8
0
 62
     5
100
AcDbText
 10
18.96164025
 20
10.128125
 30
0.0
 40
0.2125
  1
GB
 41
0.825
 72
     4
 11
19.107734
 21
10.234375
 31
0.0
100
AcDbText
  0
LINE
  5
517
330
1E
100
AcDbEntity
  8
0
  6
CONTINUOUS
 62
     5
100
AcDbLine
 10
16.90973999999999
 20
18.024062
 30
0.0
 11
16.82474
 21
18.024062
 31
0.0
  0
LWPOLYLINE
  5
518
330
1E
100
AcDbEntity
  8
0
  6
CONTINUOUS
 62
     5
100
AcDbPolyline
 90
       20
 70
     0
 43
0.0
 10
16.98942699999999
 20
17.9125
 10
16.99474
 20
17.901875
 10
17.005365
 20
17.89125
 10
17.026615
 20
17.88593699999999
 10
17.05848999999999
 20
17.88593699999999
 10
17.07974
 20
17.896562
 10
17.095677
 20
17.91781199999999
 10
17.10630199999999
 20
17.944375
 10
17.111615
 20
17.97625
 10
17.111615
 20
18.013437
 10
17.10630199999999
 20
18.04531199999999
 10
17.095677
 20
18.066562
 10
17.07974
 20
18.087812
 10
17.05848999999999
 20
18.098437
 10
17.021302
 20
18.098437
 10
17.005365
 20
18.093125
 10
16.99474
 20
18.0825
 10
16.98411499999999
 20
18.06125
 10
16.98411499999999
 20
18.00281199999999
 10
17.03724
 20
18.00281199999999
  0
LWPOLYLINE
  5
52E
330
1E
100
AcDbEntity
  8
0
  6
CONTINUOUS
 62
     5
100
AcDbPolyline
 90
        4
 70
     0
 43
0.0
 10
16.93098999999999
 20
18.098437
 10
16.872552
 20
17.88593699999999
 10
16.86192699999999
 20
17.88593699999999
 10
16.80349
 20
18.098437
  0
CIRCLE
  5
534
330
1E
100
AcDbEntity
  8
0
  6
CONTINUOUS
 62
     5
100
AcDbCircle
 10
16.28099999999999
 20
18.32799999999999
 30
0.0
 40
0.243
  0
CIRCLE
  5
535
330
1E
100
AcDbEntity
  8
0
  6
CONTINUOUS
 62
     5
100
AcDbCircle
 10
16.28099999999999
 20
18.32799999999999
 30
0.0
 40
0.219
  0
CIRCLE
  5
536
330
1E
100
AcDbEntity
  8
0
  6
CONTINUOUS
 62
     5
100
AcDbCircle
 10
16.28099999999999
 20
18.32799999999999
 30
0.0
 40
0.194
  0
ARC
  5
537
330
1E
100
AcDbEntity
  8
0
  6
CONTINUOUS
 62
     5
100
AcDbCircle
 10
16.28099999999999
 20
18.32799999999999
 30
0.0
 40
0.164
100
AcDbArc
 50
85.00000099999999
 51
5.0
  0
LINE
  5
538
330
1E
100
AcDbEntity
  8
0
  6
CONTINUOUS
 62
     5
100
AcDbLine
 10
15.778
 20
18.32799999999999
 30
0.0
 11
16.783
 21
18.32799999999999
 31
0.0
  0
CIRCLE
  5
539
330
1E
100
AcDbEntity
  8
0
  6
CONTINUOUS
 62
     5
100
AcDbCircle
 10
16.28099999999999
 20
18.32799999999999
 30
0.0
 40
0.14
  0
CIRCLE
  5
53A
330
1E
100
AcDbEntity
  8
0
  6
CONTINUOUS
 62
     5
100
AcDbCircle
 10
14.156
 20
18.32799999999999
 30
0.0
 40
0.14
  0
LINE
  5
53B
330
1E
100
AcDbEntity
  8
0
  6
CONTINUOUS
 62
     5
100
AcDbLine
 10
13.653
 20
18.32799999999999
 30
0.0
 11
14.65799999999999
 21
18.32799999999999
 31
0.0
  0
LINE
  5
53C
330
1E
100
AcDbEntity
  8
0
  6
CONTINUOUS
 62
     5
100
AcDbLine
 10
14.78474
 20
18.024062
 30
0.0
 11
14.69974
 21
18.024062
 31
0.0
  0
LWPOLYLINE
  5
53D
330
1E
100
AcDbEntity
  8
0
  6
CONTINUOUS
 62
     5
100
AcDbPolyline
 90
       20
 70
     0
 43
0.0
 10
14.864427
 20
17.9125
 10
14.86974
 20
17.901875
 10
14.88036499999999
 20
17.89125
 10
14.901615
 20
17.88593699999999
 10
14.93349
 20
17.88593699999999
 10
14.95473999999999
 20
17.896562
 10
14.97067699999999
 20
17.91781199999999
 10
14.981302
 20
17.944375
 10
14.98661499999999
 20
17.97625
 10
14.98661499999999
 20
18.013437
 10
14.981302
 20
18.04531199999999
 10
14.97067699999999
 20
18.066562
 10
14.95473999999999
 20
18.087812
 10
14.93349
 20
18.098437
 10
14.89630199999999
 20
18.098437
 10
14.88036499999999
 20
18.093125
 10
14.86974
 20
18.0825
 10
14.859115
 20
18.06125
 10
14.859115
 20
18.00281199999999
 10
14.91223999999999
 20
18.00281199999999
  0
LWPOLYLINE
  5
553
330
1E
100
AcDbEntity
  8
0
  6
CONTINUOUS
 62
     5
100
AcDbPolyline
 90
        4
 70
     0
 43
0.0
 10
14.80598999999999
 20
18.098437
 10
14.74755199999999
 20
17.88593699999999
 10
14.73692699999999
 20
17.88593699999999
 10
14.67849
 20
18.098437
  0
ARC
  5
559
330
1E
100
AcDbEntity
  8
0
  6
CONTINUOUS
 62
     5
100
AcDbCircle
 10
14.156
 20
18.32799999999999
 30
0.0
 40
0.164
100
AcDbArc
 50
85.00000099999999
 51
5.0
  0
CIRCLE
  5
55A
330
1E
100
AcDbEntity
  8
0
  6
CONTINUOUS
 62
     5
100
AcDbCircle
 10
14.156
 20
18.32799999999999
 30
0.0
 40
0.194
  0
CIRCLE
  5
55B
330
1E
100
AcDbEntity
  8
0
  6
CONTINUOUS
 62
     5
100
AcDbCircle
 10
14.156
 20
18.32799999999999
 30
0.0
 40
0.219
  0
CIRCLE
  5
55C
330
1E
100
AcDbEntity
  8
0
  6
CONTINUOUS
 62
     5
100
AcDbCircle
 10
14.156
 20
18.32799999999999
 30
0.0
 40
0.243
  0
CIRCLE
  5
55D
330
1E
100
AcDbEntity
  8
0
  6
CONTINUOUS
 62
     5
100
AcDbCircle
 10
16.28099999999999
 20
18.32799999999999
 30
0.0
 40
0.419
  0
LINE
  5
55E
330
1E
100
AcDbEntity
  8
0
  6
CONTINUOUS
 62
     5
100
AcDbLine
 10
16.28099999999999
 20
17.82499999999999
 30
0.0
 11
16.28099999999999
 21
18.83099999999999
 31
0.0
  0
LINE
  5
55F
330
1E
100
AcDbEntity
  8
0
  6
CONTINUOUS
 62
     5
100
AcDbLine
 10
14.156
 20
17.82499999999999
 30
0.0
 11
14.156
 21
18.83099999999999
 31
0.0
  0
CIRCLE
  5
560
330
1E
100
AcDbEntity
  8
0
  6
CONTINUOUS
 62
     5
100
AcDbCircle
 10
14.156
 20
18.32799999999999
 30
0.0
 40
0.419
  0
LINE
  5
561
330
1E
100
AcDbEntity
  8
0
  6
CONTINUOUS
 62
     5
100
AcDbLine
 10
8.375
 20
16.125
 30
0.0
 11
11.37499999999999
 21
16.125
 31
0.0
  0
LINE
  5
562
330
1E
100
AcDbEntity
  8
0
  6
CONTINUOUS
 62
     5
100
AcDbLine
 10
12.875
 20
20.625
 30
0.0
 11
12.875
 21
17.625
 31
0.0
  0
CIRCLE
  5
563
330
1E
100
AcDbEntity
  8
0
  6
CONTINUOUS
 62
     5
100
AcDbCircle
 10
17.766
 20
13.266
 30
0.0
 40
0.095
  0
CIRCLE
  5
564
330
1E
100
AcDbEntity
  8
0
  6
CONTINUOUS
 62
     5
100
AcDbCircle
 10
17.766
 20
13.266
 30
0.0
 40
0.075
  0
ARC
  5
565
330
1E
100
AcDbEntity
  8
0
  6
CONTINUOUS
 62
     5
100
AcDbCircle
 10
17.766
 20
13.266
 30
0.0
 40
0.087
100
AcDbArc
 50
85.00000099999999
 51
5.0
  0
LINE
  5
566
330
1E
100
AcDbEntity
  8
0
  6
CONTINUOUS
 62
     5
100
AcDbLine
 10
17.652
 20
13.266
 30
0.0
 11
17.88
 21
13.266
 31
0.0
  0
CIRCLE
  5
567
330
1E
100
AcDbEntity
  8
0
  6
CONTINUOUS
 62
     5
100
AcDbCircle
 10
17.765
 20
13.561
 30
0.0
 40
0.078
  0
LINE
  5
568
330
1E
100
AcDbEntity
  8
0
  6
CONTINUOUS
 62
     5
100
AcDbLine
 10
17.672
 20
13.561
 30
0.0
 11
17.859
 21
13.561
 31
0.0
  0
CIRCLE
  5
569
330
1E
100
AcDbEntity
  8
0
  6
CONTINUOUS
 62
     5
100
AcDbCircle
 10
17.796
 20
14.85999999999999
 30
0.0
 40
0.095
  0
CIRCLE
  5
56A
330
1E
100
AcDbEntity
  8
0
  6
CONTINUOUS
 62
     5
100
AcDbCircle
 10
17.796
 20
14.85999999999999
 30
0.0
 40
0.075
  0
ARC
  5
56B
330
1E
100
AcDbEntity
  8
0
  6
CONTINUOUS
 62
     5
100
AcDbCircle
 10
17.796
 20
14.85999999999999
 30
0.0
 40
0.087
100
AcDbArc
 50
85.00000099999999
 51
5.0
  0
LINE
  5
56C
330
1E
100
AcDbEntity
  8
0
  6
CONTINUOUS
 62
     5
100
AcDbLine
 10
17.796
 20
14.746
 30
0.0
 11
17.796
 21
14.974
 31
0.0
  0
LINE
  5
56D
330
1E
100
AcDbEntity
  8
0
  6
CONTINUOUS
 62
     5
100
AcDbLine
 10
17.682
 20
14.85999999999999
 30
0.0
 11
17.91
 21
14.85999999999999
 31
0.0
  0
LINE
  5
56E
330
1E
100
AcDbEntity
  8
0
  6
CONTINUOUS
 62
     5
100
AcDbLine
 10
17.766
 20
13.15199999999999
 30
0.0
 11
17.766
 21
13.38
 31
0.0
  0
LINE
  5
56F
330
1E
100
AcDbEntity
  8
0
  6
CONTINUOUS
 62
     5
100
AcDbLine
 10
17.765
 20
13.467
 30
0.0
 11
17.765
 21
13.65499999999999
 31
0.0
  0
LINE
  5
570
330
1E
100
AcDbEntity
  8
0
  6
CONTINUOUS
 62
     5
100
AcDbLine
 10
18.0
 20
13.847
 30
0.0
 11
18.0
 21
14.185
 31
0.0
  0
CIRCLE
  5
571
330
1E
100
AcDbEntity
  8
0
  6
CONTINUOUS
 62
     5
100
AcDbCircle
 10
16.92099999999999
 20
13.266
 30
0.0
 40
0.095
  0
CIRCLE
  5
572
330
1E
100
AcDbEntity
  8
0
  6
CONTINUOUS
 62
     5
100
AcDbCircle
 10
16.92099999999999
 20
13.266
 30
0.0
 40
0.075
  0
ARC
  5
573
330
1E
100
AcDbEntity
  8
0
  6
CONTINUOUS
 62
     5
100
AcDbCircle
 10
16.92099999999999
 20
13.266
 30
0.0
 40
0.087
100
AcDbArc
 50
85.00000099999999
 51
5.0
  0
LINE
  5
574
330
1E
100
AcDbEntity
  8
0
  6
CONTINUOUS
 62
     5
100
AcDbLine
 10
16.92099999999999
 20
13.15199999999999
 30
0.0
 11
16.92099999999999
 21
13.38
 31
0.0
  0
LINE
  5
575
330
1E
100
AcDbEntity
  8
0
  6
CONTINUOUS
 62
     5
100
AcDbLine
 10
16.80699999999999
 20
13.266
 30
0.0
 11
17.035
 21
13.266
 31
0.0
  0
CIRCLE
  5
576
330
1E
100
AcDbEntity
  8
0
  6
CONTINUOUS
 62
     5
100
AcDbCircle
 10
16.28099999999999
 20
14.35999999999999
 30
0.0
 40
0.14
  0
LINE
  5
577
330
1E
100
AcDbEntity
  8
0
  6
CONTINUOUS
 62
     5
100
AcDbLine
 10
16.28099999999999
 20
14.191
 30
0.0
 11
16.28099999999999
 21
14.529
 31
0.0
  0
LINE
  5
578
330
1E
100
AcDbEntity
  8
0
  6
CONTINUOUS
 62
     5
100
AcDbLine
 10
16.28099999999999
 20
13.503
 30
0.0
 11
16.28099999999999
 21
13.841
 31
0.0
  0
CIRCLE
  5
579
330
1E
100
AcDbEntity
  8
0
  6
CONTINUOUS
 62
     5
100
AcDbCircle
 10
15.875
 20
14.016
 30
0.0
 40
0.14
  0
LINE
  5
57A
330
1E
100
AcDbEntity
  8
0
  6
CONTINUOUS
 62
     5
100
AcDbLine
 10
15.70599999999999
 20
14.016
 30
0.0
 11
16.043
 21
14.016
 31
0.0
  0
LINE
  5
57B
330
1E
100
AcDbEntity
  8
0
  6
CONTINUOUS
 62
     5
100
AcDbLine
 10
15.875
 20
13.847
 30
0.0
 11
15.875
 21
14.185
 31
0.0
  0
CIRCLE
  5
57C
330
1E
100
AcDbEntity
  8
0
  6
CONTINUOUS
 62
     5
100
AcDbCircle
 10
16.28099999999999
 20
13.672
 30
0.0
 40
0.14
  0
LINE
  5
57D
330
1E
100
AcDbEntity
  8
0
  6
CONTINUOUS
 62
     5
100
AcDbLine
 10
16.112
 20
13.672
 30
0.0
 11
16.449
 21
13.672
 31
0.0
  0
LINE
  5
57E
330
1E
100
AcDbEntity
  8
0
  6
CONTINUOUS
 62
     5
100
AcDbLine
 10
16.73
 20
13.884
 30
0.0
 11
16.75
 21
13.89499999999999
 31
0.0
  0
LINE
  5
57F
330
1E
100
AcDbEntity
  8
0
  6
CONTINUOUS
 62
     5
100
AcDbLine
 10
16.709
 20
13.878
 30
0.0
 11
16.73
 21
13.884
 31
0.0
  0
LINE
  5
580
330
1E
100
AcDbEntity
  8
0
  6
CONTINUOUS
 62
     5
100
AcDbLine
 10
16.687
 20
13.87599999999999
 30
0.0
 11
16.709
 21
13.878
 31
0.0
  0
LINE
  5
581
330
1E
100
AcDbEntity
  8
0
  6
CONTINUOUS
 62
     5
100
AcDbLine
 10
16.666
 20
13.878
 30
0.0
 11
16.687
 21
13.87599999999999
 31
0.0
  0
LINE
  5
582
330
1E
100
AcDbEntity
  8
0
  6
CONTINUOUS
 62
     5
100
AcDbLine
 10
16.645
 20
13.884
 30
0.0
 11
16.666
 21
13.878
 31
0.0
  0
LINE
  5
583
330
1E
100
AcDbEntity
  8
0
  6
CONTINUOUS
 62
     5
100
AcDbLine
 10
16.625
 20
13.89499999999999
 30
0.0
 11
16.645
 21
13.884
 31
0.0
  0
LINE
  5
584
330
1E
100
AcDbEntity
  8
0
  6
CONTINUOUS
 62
     5
100
AcDbLine
 10
16.687
 20
13.866
 30
0.0
 11
16.687
 21
14.166
 31
0.0
  0
LINE
  5
585
330
1E
100
AcDbEntity
  8
0
  6
CONTINUOUS
 62
     5
100
AcDbLine
 10
16.564
 20
14.03999999999999
 30
0.0
 11
16.562
 21
14.016
 31
0.0
  0
LINE
  5
586
330
1E
100
AcDbEntity
  8
0
  6
CONTINUOUS
 62
     5
100
AcDbLine
 10
16.57
 20
14.064
 30
0.0
 11
16.564
 21
14.03999999999999
 31
0.0
  0
LINE
  5
587
330
1E
100
AcDbEntity
  8
0
  6
CONTINUOUS
 62
     5
100
AcDbLine
 10
16.579
 20
14.086
 30
0.0
 11
16.57
 21
14.064
 31
0.0
  0
LINE
  5
588
330
1E
100
AcDbEntity
  8
0
  6
CONTINUOUS
 62
     5
100
AcDbLine
 10
16.592
 20
14.106
 30
0.0
 11
16.579
 21
14.086
 31
0.0
  0
LINE
  5
589
330
1E
100
AcDbEntity
  8
0
  6
CONTINUOUS
 62
     5
100
AcDbLine
 10
16.607
 20
14.123
 30
0.0
 11
16.592
 21
14.106
 31
0.0
  0
LINE
  5
58A
330
1E
100
AcDbEntity
  8
0
  6
CONTINUOUS
 62
     5
100
AcDbLine
 10
16.625
 20
14.137
 30
0.0
 11
16.607
 21
14.123
 31
0.0
  0
LINE
  5
58B
330
1E
100
AcDbEntity
  8
0
  6
CONTINUOUS
 62
     5
100
AcDbLine
 10
16.645
 20
14.148
 30
0.0
 11
16.625
 21
14.137
 31
0.0
  0
LINE
  5
58C
330
1E
100
AcDbEntity
  8
0
  6
CONTINUOUS
 62
     5
100
AcDbLine
 10
16.666
 20
14.15399999999999
 30
0.0
 11
16.645
 21
14.148
 31
0.0
  0
LINE
  5
58D
330
1E
100
AcDbEntity
  8
0
  6
CONTINUOUS
 62
     5
100
AcDbLine
 10
16.687
 20
14.156
 30
0.0
 11
16.666
 21
14.15399999999999
 31
0.0
  0
LINE
  5
58E
330
1E
100
AcDbEntity
  8
0
  6
CONTINUOUS
 62
     5
100
AcDbLine
 10
16.709
 20
14.15399999999999
 30
0.0
 11
16.687
 21
14.156
 31
0.0
  0
LINE
  5
58F
330
1E
100
AcDbEntity
  8
0
  6
CONTINUOUS
 62
     5
100
AcDbLine
 10
16.73
 20
14.148
 30
0.0
 11
16.709
 21
14.15399999999999
 31
0.0
  0
LINE
  5
590
330
1E
100
AcDbEntity
  8
0
  6
CONTINUOUS
 62
     5
100
AcDbLine
 10
16.75
 20
14.137
 30
0.0
 11
16.73
 21
14.148
 31
0.0
  0
LINE
  5
591
330
1E
100
AcDbEntity
  8
0
  6
CONTINUOUS
 62
     5
100
AcDbLine
 10
16.768
 20
14.123
 30
0.0
 11
16.75
 21
14.137
 31
0.0
  0
LINE
  5
592
330
1E
100
AcDbEntity
  8
0
  6
CONTINUOUS
 62
     5
100
AcDbLine
 10
16.783
 20
14.106
 30
0.0
 11
16.768
 21
14.123
 31
0.0
  0
LINE
  5
593
330
1E
100
AcDbEntity
  8
0
  6
CONTINUOUS
 62
     5
100
AcDbLine
 10
16.79599999999999
 20
14.086
 30
0.0
 11
16.783
 21
14.106
 31
0.0
  0
LINE
  5
594
330
1E
100
AcDbEntity
  8
0
  6
CONTINUOUS
 62
     5
100
AcDbLine
 10
16.805
 20
14.064
 30
0.0
 11
16.79599999999999
 21
14.086
 31
0.0
  0
LINE
  5
595
330
1E
100
AcDbEntity
  8
0
  6
CONTINUOUS
 62
     5
100
AcDbLine
 10
16.81099999999999
 20
14.03999999999999
 30
0.0
 11
16.805
 21
14.064
 31
0.0
  0
LINE
  5
596
330
1E
100
AcDbEntity
  8
0
  6
CONTINUOUS
 62
     5
100
AcDbLine
 10
16.812
 20
14.016
 30
0.0
 11
16.81099999999999
 21
14.03999999999999
 31
0.0
  0
LINE
  5
597
330
1E
100
AcDbEntity
  8
0
  6
CONTINUOUS
 62
     5
100
AcDbLine
 10
16.81099999999999
 20
13.992
 30
0.0
 11
16.812
 21
14.016
 31
0.0
  0
LINE
  5
598
330
1E
100
AcDbEntity
  8
0
  6
CONTINUOUS
 62
     5
100
AcDbLine
 10
16.805
 20
13.968
 30
0.0
 11
16.81099999999999
 21
13.992
 31
0.0
  0
LINE
  5
599
330
1E
100
AcDbEntity
  8
0
  6
CONTINUOUS
 62
     5
100
AcDbLine
 10
16.79599999999999
 20
13.946
 30
0.0
 11
16.805
 21
13.968
 31
0.0
  0
LINE
  5
59A
330
1E
100
AcDbEntity
  8
0
  6
CONTINUOUS
 62
     5
100
AcDbLine
 10
16.783
 20
13.926
 30
0.0
 11
16.79599999999999
 21
13.946
 31
0.0
  0
LINE
  5
59B
330
1E
100
AcDbEntity
  8
0
  6
CONTINUOUS
 62
     5
100
AcDbLine
 10
16.768
 20
13.909
 30
0.0
 11
16.783
 21
13.926
 31
0.0
  0
LINE
  5
59C
330
1E
100
AcDbEntity
  8
0
  6
CONTINUOUS
 62
     5
100
AcDbLine
 10
16.75
 20
13.89499999999999
 30
0.0
 11
16.768
 21
13.909
 31
0.0
  0
LINE
  5
59D
330
1E
100
AcDbEntity
  8
0
  6
CONTINUOUS
 62
     5
100
AcDbLine
 10
16.607
 20
13.909
 30
0.0
 11
16.625
 21
13.89499999999999
 31
0.0
  0
LINE
  5
59E
330
1E
100
AcDbEntity
  8
0
  6
CONTINUOUS
 62
     5
100
AcDbLine
 10
16.592
 20
13.926
 30
0.0
 11
16.607
 21
13.909
 31
0.0
  0
LINE
  5
59F
330
1E
100
AcDbEntity
  8
0
  6
CONTINUOUS
 62
     5
100
AcDbLine
 10
16.579
 20
13.946
 30
0.0
 11
16.592
 21
13.926
 31
0.0
  0
LINE
  5
5A0
330
1E
100
AcDbEntity
  8
0
  6
CONTINUOUS
 62
     5
100
AcDbLine
 10
16.57
 20
13.968
 30
0.0
 11
16.579
 21
13.946
 31
0.0
  0
LINE
  5
5A1
330
1E
100
AcDbEntity
  8
0
  6
CONTINUOUS
 62
     5
100
AcDbLine
 10
16.564
 20
13.992
 30
0.0
 11
16.57
 21
13.968
 31
0.0
  0
LINE
  5
5A2
330
1E
100
AcDbEntity
  8
0
  6
CONTINUOUS
 62
     5
100
AcDbLine
 10
16.562
 20
14.016
 30
0.0
 11
16.564
 21
13.992
 31
0.0
  0
LINE
  5
5A3
330
1E
100
AcDbEntity
  8
0
  6
CONTINUOUS
 62
     5
100
AcDbLine
 10
16.538
 20
14.016
 30
0.0
 11
16.838
 21
14.016
 31
0.0
  0
LINE
  5
5A4
330
1E
100
AcDbEntity
  8
0
  6
CONTINUOUS
 62
     5
100
AcDbLine
 10
16.112
 20
14.35999999999999
 30
0.0
 11
16.449
 21
14.35999999999999
 31
0.0
  0
CIRCLE
  5
5A5
330
1E
100
AcDbEntity
  8
0
  6
CONTINUOUS
 62
     5
100
AcDbCircle
 10
16.89099999999999
 20
14.85999999999999
 30
0.0
 40
0.095
  0
CIRCLE
  5
5A6
330
1E
100
AcDbEntity
  8
0
  6
CONTINUOUS
 62
     5
100
AcDbCircle
 10
16.89099999999999
 20
14.85999999999999
 30
0.0
 40
0.075
  0
ARC
  5
5A7
330
1E
100
AcDbEntity
  8
0
  6
CONTINUOUS
 62
     5
100
AcDbCircle
 10
16.89099999999999
 20
14.85999999999999
 30
0.0
 40
0.087
100
AcDbArc
 50
85.00000099999999
 51
5.0
  0
LINE
  5
5A8
330
1E
100
AcDbEntity
  8
0
  6
CONTINUOUS
 62
     5
100
AcDbLine
 10
16.89099999999999
 20
14.746
 30
0.0
 11
16.89099999999999
 21
14.974
 31
0.0
  0
LINE
  5
5A9
330
1E
100
AcDbEntity
  8
0
  6
CONTINUOUS
 62
     5
100
AcDbLine
 10
16.777
 20
14.85999999999999
 30
0.0
 11
17.00499999999999
 21
14.85999999999999
 31
0.0
  0
LINE
  5
5AA
330
1E
100
AcDbEntity
  8
0
  6
CONTINUOUS
 62
     5
100
AcDbLine
 10
15.641
 20
13.15199999999999
 30
0.0
 11
15.641
 21
13.38
 31
0.0
  0
LINE
  5
5AB
330
1E
100
AcDbEntity
  8
0
  6
CONTINUOUS
 62
     5
100
AcDbLine
 10
15.64
 20
13.467
 30
0.0
 11
15.64
 21
13.65499999999999
 31
0.0
  0
LINE
  5
5AC
330
1E
100
AcDbEntity
  8
0
  6
CONTINUOUS
 62
     5
100
AcDbLine
 10
14.766
 20
14.746
 30
0.0
 11
14.766
 21
14.974
 31
0.0
  0
ARC
  5
5AD
330
1E
100
AcDbEntity
  8
0
  6
CONTINUOUS
 62
     5
100
AcDbCircle
 10
14.766
 20
14.85999999999999
 30
0.0
 40
0.087
100
AcDbArc
 50
85.00000099999999
 51
5.0
  0
CIRCLE
  5
5AE
330
1E
100
AcDbEntity
  8
0
  6
CONTINUOUS
 62
     5
100
AcDbCircle
 10
14.766
 20
14.85999999999999
 30
0.0
 40
0.075
  0
CIRCLE
  5
5AF
330
1E
100
AcDbEntity
  8
0
  6
CONTINUOUS
 62
     5
100
AcDbCircle
 10
14.766
 20
14.85999999999999
 30
0.0
 40
0.095
  0
LINE
  5
5B0
330
1E
100
AcDbEntity
  8
0
  6
CONTINUOUS
 62
     5
100
AcDbLine
 10
14.652
 20
14.85999999999999
 30
0.0
 11
14.88
 21
14.85999999999999
 31
0.0
  0
LINE
  5
5B1
330
1E
100
AcDbEntity
  8
0
  6
CONTINUOUS
 62
     5
100
AcDbLine
 10
13.987
 20
14.35999999999999
 30
0.0
 11
14.324
 21
14.35999999999999
 31
0.0
  0
LINE
  5
5B2
330
1E
100
AcDbEntity
  8
0
  6
CONTINUOUS
 62
     5
100
AcDbLine
 10
14.413
 20
14.016
 30
0.0
 11
14.713
 21
14.016
 31
0.0
  0
LINE
  5
5B3
330
1E
100
AcDbEntity
  8
0
  6
CONTINUOUS
 62
     5
100
AcDbLine
 10
14.43699999999999
 20
14.016
 30
0.0
 11
14.439
 21
13.992
 31
0.0
  0
LINE
  5
5B4
330
1E
100
AcDbEntity
  8
0
  6
CONTINUOUS
 62
     5
100
AcDbLine
 10
14.439
 20
13.992
 30
0.0
 11
14.445
 21
13.968
 31
0.0
  0
LINE
  5
5B5
330
1E
100
AcDbEntity
  8
0
  6
CONTINUOUS
 62
     5
100
AcDbLine
 10
14.445
 20
13.968
 30
0.0
 11
14.454
 21
13.946
 31
0.0
  0
LINE
  5
5B6
330
1E
100
AcDbEntity
  8
0
  6
CONTINUOUS
 62
     5
100
AcDbLine
 10
14.454
 20
13.946
 30
0.0
 11
14.467
 21
13.926
 31
0.0
  0
LINE
  5
5B7
330
1E
100
AcDbEntity
  8
0
  6
CONTINUOUS
 62
     5
100
AcDbLine
 10
14.467
 20
13.926
 30
0.0
 11
14.48199999999999
 21
13.909
 31
0.0
  0
LINE
  5
5B8
330
1E
100
AcDbEntity
  8
0
  6
CONTINUOUS
 62
     5
100
AcDbLine
 10
14.48199999999999
 20
13.909
 30
0.0
 11
14.5
 21
13.89499999999999
 31
0.0
  0
LINE
  5
5B9
330
1E
100
AcDbEntity
  8
0
  6
CONTINUOUS
 62
     5
100
AcDbLine
 10
14.625
 20
13.89499999999999
 30
0.0
 11
14.643
 21
13.909
 31
0.0
  0
LINE
  5
5BA
330
1E
100
AcDbEntity
  8
0
  6
CONTINUOUS
 62
     5
100
AcDbLine
 10
14.643
 20
13.909
 30
0.0
 11
14.65799999999999
 21
13.926
 31
0.0
  0
LINE
  5
5BB
330
1E
100
AcDbEntity
  8
0
  6
CONTINUOUS
 62
     5
100
AcDbLine
 10
14.65799999999999
 20
13.926
 30
0.0
 11
14.671
 21
13.946
 31
0.0
  0
LINE
  5
5BC
330
1E
100
AcDbEntity
  8
0
  6
CONTINUOUS
 62
     5
100
AcDbLine
 10
14.671
 20
13.946
 30
0.0
 11
14.67999999999999
 21
13.968
 31
0.0
  0
LINE
  5
5BD
330
1E
100
AcDbEntity
  8
0
  6
CONTINUOUS
 62
     5
100
AcDbLine
 10
14.67999999999999
 20
13.968
 30
0.0
 11
14.686
 21
13.992
 31
0.0
  0
LINE
  5
5BE
330
1E
100
AcDbEntity
  8
0
  6
CONTINUOUS
 62
     5
100
AcDbLine
 10
14.686
 20
13.992
 30
0.0
 11
14.687
 21
14.016
 31
0.0
  0
LINE
  5
5BF
330
1E
100
AcDbEntity
  8
0
  6
CONTINUOUS
 62
     5
100
AcDbLine
 10
14.687
 20
14.016
 30
0.0
 11
14.686
 21
14.03999999999999
 31
0.0
  0
LINE
  5
5C0
330
1E
100
AcDbEntity
  8
0
  6
CONTINUOUS
 62
     5
100
AcDbLine
 10
14.686
 20
14.03999999999999
 30
0.0
 11
14.67999999999999
 21
14.064
 31
0.0
  0
LINE
  5
5C1
330
1E
100
AcDbEntity
  8
0
  6
CONTINUOUS
 62
     5
100
AcDbLine
 10
14.67999999999999
 20
14.064
 30
0.0
 11
14.671
 21
14.086
 31
0.0
  0
LINE
  5
5C2
330
1E
100
AcDbEntity
  8
0
  6
CONTINUOUS
 62
     5
100
AcDbLine
 10
14.671
 20
14.086
 30
0.0
 11
14.65799999999999
 21
14.106
 31
0.0
  0
LINE
  5
5C3
330
1E
100
AcDbEntity
  8
0
  6
CONTINUOUS
 62
     5
100
AcDbLine
 10
14.65799999999999
 20
14.106
 30
0.0
 11
14.643
 21
14.123
 31
0.0
  0
LINE
  5
5C4
330
1E
100
AcDbEntity
  8
0
  6
CONTINUOUS
 62
     5
100
AcDbLine
 10
14.643
 20
14.123
 30
0.0
 11
14.625
 21
14.137
 31
0.0
  0
LINE
  5
5C5
330
1E
100
AcDbEntity
  8
0
  6
CONTINUOUS
 62
     5
100
AcDbLine
 10
14.625
 20
14.137
 30
0.0
 11
14.605
 21
14.148
 31
0.0
  0
LINE
  5
5C6
330
1E
100
AcDbEntity
  8
0
  6
CONTINUOUS
 62
     5
100
AcDbLine
 10
14.605
 20
14.148
 30
0.0
 11
14.584
 21
14.15399999999999
 31
0.0
  0
LINE
  5
5C7
330
1E
100
AcDbEntity
  8
0
  6
CONTINUOUS
 62
     5
100
AcDbLine
 10
14.584
 20
14.15399999999999
 30
0.0
 11
14.56199999999999
 21
14.156
 31
0.0
  0
LINE
  5
5C8
330
1E
100
AcDbEntity
  8
0
  6
CONTINUOUS
 62
     5
100
AcDbLine
 10
14.56199999999999
 20
14.156
 30
0.0
 11
14.541
 21
14.15399999999999
 31
0.0
  0
LINE
  5
5C9
330
1E
100
AcDbEntity
  8
0
  6
CONTINUOUS
 62
     5
100
AcDbLine
 10
14.541
 20
14.15399999999999
 30
0.0
 11
14.51999999999999
 21
14.148
 31
0.0
  0
LINE
  5
5CA
330
1E
100
AcDbEntity
  8
0
  6
CONTINUOUS
 62
     5
100
AcDbLine
 10
14.51999999999999
 20
14.148
 30
0.0
 11
14.5
 21
14.137
 31
0.0
  0
LINE
  5
5CB
330
1E
100
AcDbEntity
  8
0
  6
CONTINUOUS
 62
     5
100
AcDbLine
 10
14.5
 20
14.137
 30
0.0
 11
14.48199999999999
 21
14.123
 31
0.0
  0
LINE
  5
5CC
330
1E
100
AcDbEntity
  8
0
  6
CONTINUOUS
 62
     5
100
AcDbLine
 10
14.48199999999999
 20
14.123
 30
0.0
 11
14.467
 21
14.106
 31
0.0
  0
LINE
  5
5CD
330
1E
100
AcDbEntity
  8
0
  6
CONTINUOUS
 62
     5
100
AcDbLine
 10
14.467
 20
14.106
 30
0.0
 11
14.454
 21
14.086
 31
0.0
  0
LINE
  5
5CE
330
1E
100
AcDbEntity
  8
0
  6
CONTINUOUS
 62
     5
100
AcDbLine
 10
14.454
 20
14.086
 30
0.0
 11
14.445
 21
14.064
 31
0.0
  0
LINE
  5
5CF
330
1E
100
AcDbEntity
  8
0
  6
CONTINUOUS
 62
     5
100
AcDbLine
 10
14.445
 20
14.064
 30
0.0
 11
14.439
 21
14.03999999999999
 31
0.0
  0
LINE
  5
5D0
330
1E
100
AcDbEntity
  8
0
  6
CONTINUOUS
 62
     5
100
AcDbLine
 10
14.439
 20
14.03999999999999
 30
0.0
 11
14.43699999999999
 21
14.016
 31
0.0
  0
LINE
  5
5D1
330
1E
100
AcDbEntity
  8
0
  6
CONTINUOUS
 62
     5
100
AcDbLine
 10
14.56199999999999
 20
13.866
 30
0.0
 11
14.56199999999999
 21
14.166
 31
0.0
  0
LINE
  5
5D2
330
1E
100
AcDbEntity
  8
0
  6
CONTINUOUS
 62
     5
100
AcDbLine
 10
14.5
 20
13.89499999999999
 30
0.0
 11
14.51999999999999
 21
13.884
 31
0.0
  0
LINE
  5
5D3
330
1E
100
AcDbEntity
  8
0
  6
CONTINUOUS
 62
     5
100
AcDbLine
 10
14.51999999999999
 20
13.884
 30
0.0
 11
14.541
 21
13.878
 31
0.0
  0
LINE
  5
5D4
330
1E
100
AcDbEntity
  8
0
  6
CONTINUOUS
 62
     5
100
AcDbLine
 10
14.541
 20
13.878
 30
0.0
 11
14.56199999999999
 21
13.87599999999999
 31
0.0
  0
LINE
  5
5D5
330
1E
100
AcDbEntity
  8
0
  6
CONTINUOUS
 62
     5
100
AcDbLine
 10
14.56199999999999
 20
13.87599999999999
 30
0.0
 11
14.584
 21
13.878
 31
0.0
  0
LINE
  5
5D6
330
1E
100
AcDbEntity
  8
0
  6
CONTINUOUS
 62
     5
100
AcDbLine
 10
14.584
 20
13.878
 30
0.0
 11
14.605
 21
13.884
 31
0.0
  0
LINE
  5
5D7
330
1E
100
AcDbEntity
  8
0
  6
CONTINUOUS
 62
     5
100
AcDbLine
 10
14.605
 20
13.884
 30
0.0
 11
14.625
 21
13.89499999999999
 31
0.0
  0
LINE
  5
5D8
330
1E
100
AcDbEntity
  8
0
  6
CONTINUOUS
 62
     5
100
AcDbLine
 10
13.987
 20
13.672
 30
0.0
 11
14.324
 21
13.672
 31
0.0
  0
CIRCLE
  5
5D9
330
1E
100
AcDbEntity
  8
0
  6
CONTINUOUS
 62
     5
100
AcDbCircle
 10
14.156
 20
13.672
 30
0.0
 40
0.14
  0
LINE
  5
5DA
330
1E
100
AcDbEntity
  8
0
  6
CONTINUOUS
 62
     5
100
AcDbLine
 10
13.75
 20
13.847
 30
0.0
 11
13.75
 21
14.185
 31
0.0
  0
LINE
  5
5DB
330
1E
100
AcDbEntity
  8
0
  6
CONTINUOUS
 62
     5
100
AcDbLine
 10
14.156
 20
13.503
 30
0.0
 11
14.156
 21
13.841
 31
0.0
  0
LINE
  5
5DC
330
1E
100
AcDbEntity
  8
0
  6
CONTINUOUS
 62
     5
100
AcDbLine
 10
14.156
 20
14.191
 30
0.0
 11
14.156
 21
14.529
 31
0.0
  0
CIRCLE
  5
5DD
330
1E
100
AcDbEntity
  8
0
  6
CONTINUOUS
 62
     5
100
AcDbCircle
 10
14.156
 20
14.35999999999999
 30
0.0
 40
0.14
  0
LINE
  5
5DE
330
1E
100
AcDbEntity
  8
0
  6
CONTINUOUS
 62
     5
100
AcDbLine
 10
13.546
 20
14.746
 30
0.0
 11
13.546
 21
14.974
 31
0.0
  0
LINE
  5
5DF
330
1E
100
AcDbEntity
  8
0
  6
CONTINUOUS
 62
     5
100
AcDbLine
 10
13.515
 20
13.467
 30
0.0
 11
13.515
 21
13.65499999999999
 31
0.0
  0
CIRCLE
  5
5E0
330
1E
100
AcDbEntity
  8
0
  6
CONTINUOUS
 62
     5
100
AcDbCircle
 10
13.515
 20
13.561
 30
0.0
 40
0.078
  0
LINE
  5
5E1
330
1E
100
AcDbEntity
  8
0
  6
CONTINUOUS
 62
     5
100
AcDbLine
 10
13.432
 20
14.85999999999999
 30
0.0
 11
13.661
 21
14.85999999999999
 31
0.0
  0
ARC
  5
5E2
330
1E
100
AcDbEntity
  8
0
  6
CONTINUOUS
 62
     5
100
AcDbCircle
 10
13.546
 20
14.85999999999999
 30
0.0
 40
0.087
100
AcDbArc
 50
85.00000099999999
 51
5.0
  0
CIRCLE
  5
5E3
330
1E
100
AcDbEntity
  8
0
  6
CONTINUOUS
 62
     5
100
AcDbCircle
 10
13.546
 20
14.85999999999999
 30
0.0
 40
0.075
  0
CIRCLE
  5
5E4
330
1E
100
AcDbEntity
  8
0
  6
CONTINUOUS
 62
     5
100
AcDbCircle
 10
13.546
 20
14.85999999999999
 30
0.0
 40
0.095
  0
LINE
  5
5E5
330
1E
100
AcDbEntity
  8
0
  6
CONTINUOUS
 62
     5
100
AcDbLine
 10
13.422
 20
13.561
 30
0.0
 11
13.60899999999999
 21
13.561
 31
0.0
  0
LINE
  5
5E6
330
1E
100
AcDbEntity
  8
0
  6
CONTINUOUS
 62
     5
100
AcDbLine
 10
13.581
 20
14.016
 30
0.0
 11
13.91799999999999
 21
14.016
 31
0.0
  0
CIRCLE
  5
5E7
330
1E
100
AcDbEntity
  8
0
  6
CONTINUOUS
 62
     5
100
AcDbCircle
 10
13.75
 20
14.016
 30
0.0
 40
0.14
  0
LINE
  5
5E8
330
1E
100
AcDbEntity
  8
0
  6
CONTINUOUS
 62
     5
100
AcDbLine
 10
14.796
 20
13.15199999999999
 30
0.0
 11
14.796
 21
13.38
 31
0.0
  0
LINE
  5
5E9
330
1E
100
AcDbEntity
  8
0
  6
CONTINUOUS
 62
     5
100
AcDbLine
 10
14.682
 20
13.266
 30
0.0
 11
14.911
 21
13.266
 31
0.0
  0
ARC
  5
5EA
330
1E
100
AcDbEntity
  8
0
  6
CONTINUOUS
 62
     5
100
AcDbCircle
 10
14.796
 20
13.266
 30
0.0
 40
0.087
100
AcDbArc
 50
85.00000099999999
 51
5.0
  0
CIRCLE
  5
5EB
330
1E
100
AcDbEntity
  8
0
  6
CONTINUOUS
 62
     5
100
AcDbCircle
 10
14.796
 20
13.266
 30
0.0
 40
0.075
  0
CIRCLE
  5
5EC
330
1E
100
AcDbEntity
  8
0
  6
CONTINUOUS
 62
     5
100
AcDbCircle
 10
14.796
 20
13.266
 30
0.0
 40
0.095
  0
LINE
  5
5ED
330
1E
100
AcDbEntity
  8
0
  6
CONTINUOUS
 62
     5
100
AcDbLine
 10
13.515
 20
13.15199999999999
 30
0.0
 11
13.515
 21
13.38
 31
0.0
  0
CIRCLE
  5
5EE
330
1E
100
AcDbEntity
  8
0
  6
CONTINUOUS
 62
     5
100
AcDbCircle
 10
13.515
 20
13.266
 30
0.0
 40
0.075
  0
LINE
  5
5EF
330
1E
100
AcDbEntity
  8
0
  6
CONTINUOUS
 62
     5
100
AcDbLine
 10
13.402
 20
13.266
 30
0.0
 11
13.63
 21
13.266
 31
0.0
  0
ARC
  5
5F0
330
1E
100
AcDbEntity
  8
0
  6
CONTINUOUS
 62
     5
100
AcDbCircle
 10
13.515
 20
13.266
 30
0.0
 40
0.087
100
AcDbArc
 50
85.00000099999999
 51
5.0
  0
CIRCLE
  5
5F1
330
1E
100
AcDbEntity
  8
0
  6
CONTINUOUS
 62
     5
100
AcDbCircle
 10
13.515
 20
13.266
 30
0.0
 40
0.095
  0
CIRCLE
  5
5F2
330
1E
100
AcDbEntity
  8
0
  6
CONTINUOUS
 62
     5
100
AcDbCircle
 10
15.641
 20
13.266
 30
0.0
 40
0.095
  0
CIRCLE
  5
5F3
330
1E
100
AcDbEntity
  8
0
  6
CONTINUOUS
 62
     5
100
AcDbCircle
 10
15.641
 20
13.266
 30
0.0
 40
0.075
  0
ARC
  5
5F4
330
1E
100
AcDbEntity
  8
0
  6
CONTINUOUS
 62
     5
100
AcDbCircle
 10
15.641
 20
13.266
 30
0.0
 40
0.087
100
AcDbArc
 50
85.00000099999999
 51
5.0
  0
LINE
  5
5F5
330
1E
100
AcDbEntity
  8
0
  6
CONTINUOUS
 62
     5
100
AcDbLine
 10
15.52699999999999
 20
13.266
 30
0.0
 11
15.755
 21
13.266
 31
0.0
  0
CIRCLE
  5
5F6
330
1E
100
AcDbEntity
  8
0
  6
CONTINUOUS
 62
     5
100
AcDbCircle
 10
15.64
 20
13.561
 30
0.0
 40
0.078
  0
LINE
  5
5F7
330
1E
100
AcDbEntity
  8
0
  6
CONTINUOUS
 62
     5
100
AcDbLine
 10
15.547
 20
13.561
 30
0.0
 11
15.734
 21
13.561
 31
0.0
  0
CIRCLE
  5
5F8
330
1E
100
AcDbEntity
  8
0
  6
CONTINUOUS
 62
     5
100
AcDbCircle
 10
15.67099999999999
 20
14.85999999999999
 30
0.0
 40
0.095
  0
CIRCLE
  5
5F9
330
1E
100
AcDbEntity
  8
0
  6
CONTINUOUS
 62
     5
100
AcDbCircle
 10
15.67099999999999
 20
14.85999999999999
 30
0.0
 40
0.075
  0
ARC
  5
5FA
330
1E
100
AcDbEntity
  8
0
  6
CONTINUOUS
 62
     5
100
AcDbCircle
 10
15.67099999999999
 20
14.85999999999999
 30
0.0
 40
0.087
100
AcDbArc
 50
85.00000099999999
 51
5.0
  0
LINE
  5
5FB
330
1E
100
AcDbEntity
  8
0
  6
CONTINUOUS
 62
     5
100
AcDbLine
 10
15.67099999999999
 20
14.746
 30
0.0
 11
15.67099999999999
 21
14.974
 31
0.0
  0
LINE
  5
5FC
330
1E
100
AcDbEntity
  8
0
  6
CONTINUOUS
 62
     5
100
AcDbLine
 10
15.557
 20
14.85999999999999
 30
0.0
 11
15.785
 21
14.85999999999999
 31
0.0
  0
TEXT
  5
5FD
330
1E
100
AcDbEntity
  8
0
 62
     5
100
AcDbText
 10
16.83664025
 20
10.128125
 30
0.0
 40
0.2125
  1
GB
 41
0.825
 72
     4
 11
16.982734
 21
10.234375
 31
0.0
100
AcDbText
  0
TEXT
  5
5FE
330
1E
100
AcDbEntity
  8
0
 62
     5
100
AcDbText
 10
14.71164025
 20
10.128125
 30
0.0
 40
0.2125
  1
GB
 41
0.825
 72
     4
 11
14.857734
 21
10.234375
 31
0.0
100
AcDbText
  0
TEXT
  5
5FF
330
1E
100
AcDbEntity
  8
0
 62
     5
100
AcDbText
 10
10.919028
 20
15.7389935
 30
0.0
 40
0.2125
  1
T
 50
270.0
 41
0.825
 72
     4
 11
11.025278
 21
15.680556
 31
0.0
100
AcDbText
  0
ARC
  5
600
330
1E
100
AcDbEntity
  8
0
  6
CONTINUOUS
 62
     5
100
AcDbCircle
 10
9.875
 20
15.25
 30
0.0
 40
0.475
100
AcDbArc
 50
85.00000099999999
 51
5.0
  0
CIRCLE
  5
601
330
1E
100
AcDbEntity
  8
0
  6
CONTINUOUS
 62
     5
100
AcDbCircle
 10
9.875
 20
15.25
 30
0.0
 40
0.4060000000000001
  0
CIRCLE
  5
602
330
1E
100
AcDbEntity
  8
0
  6
CONTINUOUS
 62
     5
100
AcDbCircle
 10
9.875
 20
15.25
 30
0.0
 40
0.4910000000000001
  0
CIRCLE
  5
603
330
1E
100
AcDbEntity
  8
0
  6
CONTINUOUS
 62
     5
100
AcDbCircle
 10
9.875
 20
15.25
 30
0.0
 40
0.5310000000000001
  0
ARC
  5
604
330
1E
100
AcDbEntity
  8
0
  6
CONTINUOUS
 62
     5
100
AcDbCircle
 10
9.875
 20
13.59399999999999
 30
0.0
 40
0.475
100
AcDbArc
 50
85.00000099999999
 51
5.0
  0
CIRCLE
  5
605
330
1E
100
AcDbEntity
  8
0
  6
CONTINUOUS
 62
     5
100
AcDbCircle
 10
9.875
 20
13.59399999999999
 30
0.0
 40
0.4060000000000001
  0
CIRCLE
  5
606
330
1E
100
AcDbEntity
  8
0
  6
CONTINUOUS
 62
     5
100
AcDbCircle
 10
9.875
 20
13.59399999999999
 30
0.0
 40
0.4910000000000001
  0
CIRCLE
  5
607
330
1E
100
AcDbEntity
  8
0
  6
CONTINUOUS
 62
     5
100
AcDbCircle
 10
9.875
 20
13.59399999999999
 30
0.0
 40
0.5310000000000001
  0
CIRCLE
  5
608
330
1E
100
AcDbEntity
  8
0
  6
CONTINUOUS
 62
     5
100
AcDbCircle
 10
9.875
 20
13.59399999999999
 30
0.0
 40
0.575
  0
LINE
  5
609
330
1E
100
AcDbEntity
  8
0
  6
CONTINUOUS
 62
     5
100
AcDbLine
 10
8.894999999999999
 20
15.25
 30
0.0
 11
10.85399999999999
 21
15.25
 31
0.0
  0
LINE
  5
60A
330
1E
100
AcDbEntity
  8
0
  6
CONTINUOUS
 62
     5
100
AcDbLine
 10
8.894999999999999
 20
13.59399999999999
 30
0.0
 11
10.85399999999999
 21
13.59399999999999
 31
0.0
  0
TEXT
  5
60B
330
1E
100
AcDbEntity
  8
0
 62
     5
100
AcDbText
 10
10.919028
 20
12.9056595
 30
0.0
 40
0.2125
  1
P
 50
270.0
 41
0.825
 72
     4
 11
11.025278
 21
12.847222
 31
0.0
100
AcDbText
  0
LINE
  5
60C
330
1E
100
AcDbEntity
  8
0
  6
CONTINUOUS
 62
     5
100
AcDbLine
 10
11.37499999999999
 20
12.125
 30
0.0
 11
8.375
 21
12.125
 31
0.0
  0
LINE
  5
60D
330
1E
100
AcDbEntity
  8
0
  6
CONTINUOUS
 62
     5
100
AcDbLine
 10
9.875
 20
12.615
 30
0.0
 11
9.875
 21
14.573
 31
0.0
  0
CIRCLE
  5
60E
330
1E
100
AcDbEntity
  8
0
  6
CONTINUOUS
 62
     5
100
AcDbCircle
 10
9.875
 20
13.59399999999999
 30
0.0
 40
0.816
  0
LINE
  5
60F
330
1E
100
AcDbEntity
  8
0
  6
CONTINUOUS
 62
     5
100
AcDbLine
 10
9.875
 20
14.271
 30
0.0
 11
9.875
 21
16.229
 31
0.0
  0
CIRCLE
  5
610
330
1E
100
AcDbEntity
  8
0
  6
CONTINUOUS
 62
     5
100
AcDbCircle
 10
9.875
 20
15.25
 30
0.0
 40
0.575
  0
CIRCLE
  5
611
330
1E
100
AcDbEntity
  8
0
  6
CONTINUOUS
 62
     5
100
AcDbCircle
 10
9.875
 20
15.25
 30
0.0
 40
0.816
  0
LINE
  5
612
330
1E
100
AcDbEntity
  8
0
  6
CONTINUOUS
 62
     5
100
AcDbLine
 10
11.37499999999999
 20
16.125
 30
0.0
 11
11.37499999999999
 21
12.125
 31
0.0
  0
LINE
  5
613
330
1E
100
AcDbEntity
  8
0
  6
CONTINUOUS
 62
     5
100
AcDbLine
 10
12.875
 20
16.125
 30
0.0
 11
12.875
 21
12.125
 31
0.0
  0
LINE
  5
614
330
1E
100
AcDbEntity
  8
0
  6
CONTINUOUS
 62
     5
100
AcDbLine
 10
8.375
 20
12.125
 30
0.0
 11
8.375
 21
16.125
 31
0.0
  0
CIRCLE
  5
615
330
1E
100
AcDbEntity
  8
0
  6
CONTINUOUS
 62
     5
100
AcDbCircle
 10
18.0
 20
14.016
 30
0.0
 40
0.14
  0
LINE
  5
616
330
1E
100
AcDbEntity
  8
0
  6
CONTINUOUS
 62
     5
100
AcDbLine
 10
17.831
 20
14.016
 30
0.0
 11
18.16799999999999
 21
14.016
 31
0.0
  0
CIRCLE
  5
617
330
1E
100
AcDbEntity
  8
0
  6
CONTINUOUS
 62
     5
100
AcDbCircle
 10
18.406
 20
18.32799999999999
 30
0.0
 40
0.419
  0
LINE
  5
618
330
1E
100
AcDbEntity
  8
0
  6
CONTINUOUS
 62
     5
100
AcDbLine
 10
17.903
 20
18.32799999999999
 30
0.0
 11
18.908
 21
18.32799999999999
 31
0.0
  0
CIRCLE
  5
639
330
1E
100
AcDbEntity
  8
0
  6
CONTINUOUS
 62
     5
100
AcDbCircle
 10
18.406
 20
9.906
 30
0.0
 40
0.14
  0
ARC
  5
63A
330
1E
100
AcDbEntity
  8
0
  6
CONTINUOUS
 62
     5
100
AcDbCircle
 10
18.406
 20
9.906
 30
0.0
 40
0.164
100
AcDbArc
 50
85.00000099999999
 51
5.0
  0
LINE
  5
63B
330
1E
100
AcDbEntity
  8
0
  6
CONTINUOUS
 62
     5
100
AcDbLine
 10
20.028
 20
9.906
 30
0.0
 11
21.033
 21
9.906
 31
0.0
  0
CIRCLE
  5
63C
330
1E
100
AcDbEntity
  8
0
  6
CONTINUOUS
 62
     5
100
AcDbCircle
 10
20.531
 20
9.906
 30
0.0
 40
0.14
  0
ARC
  5
63D
330
1E
100
AcDbEntity
  8
0
  6
CONTINUOUS
 62
     5
100
AcDbCircle
 10
20.531
 20
9.906
 30
0.0
 40
0.164
100
AcDbArc
 50
85.00000099999999
 51
5.0
  0
TEXT
  5
640
330
1E
100
AcDbEntity
  8
0
 62
     5
100
AcDbText
 10
21.0670935
 20
4.54523
 30
0.0
 40
0.2125
  1
B
 41
0.825
 72
     4
 11
21.12553099999999
 21
4.65148
 31
0.0
100
AcDbText
  0
LINE
  5
641
330
1E
100
AcDbEntity
  8
0
  6
CONTINUOUS
 62
     5
100
AcDbLine
 10
20.531
 20
4.535
 30
0.0
 11
20.531
 21
5.964999999999999
 31
0.0
  0
LINE
  5
642
330
1E
100
AcDbEntity
  8
0
  6
CONTINUOUS
 62
     5
100
AcDbLine
 10
18.406
 20
4.535
 30
0.0
 11
18.406
 21
5.964999999999999
 31
0.0
  0
TEXT
  5
643
330
1E
100
AcDbEntity
  8
0
 62
     5
100
AcDbText
 10
18.94209349999999
 20
4.54523
 30
0.0
 40
0.2125
  1
B
 41
0.825
 72
     4
 11
19.000531
 21
4.65148
 31
0.0
100
AcDbText
  0
CIRCLE
  5
644
330
1E
100
AcDbEntity
  8
0
  6
CONTINUOUS
 62
     5
100
AcDbCircle
 10
20.531
 20
5.25
 30
0.0
 40
0.595
  0
LINE
  5
645
330
1E
100
AcDbEntity
  8
0
  6
CONTINUOUS
 62
     5
100
AcDbLine
 10
19.816
 20
5.25
 30
0.0
 11
21.245
 21
5.25
 31
0.0
  0
CIRCLE
  5
646
330
1E
100
AcDbEntity
  8
0
  6
CONTINUOUS
 62
     5
100
AcDbCircle
 10
20.531
 20
5.25
 30
0.0
 40
0.4050000000000001
  0
CIRCLE
  5
647
330
1E
100
AcDbEntity
  8
0
  6
CONTINUOUS
 62
     5
100
AcDbCircle
 10
20.531
 20
5.25
 30
0.0
 40
0.375
  0
CIRCLE
  5
648
330
1E
100
AcDbEntity
  8
0
  6
CONTINUOUS
 62
     5
100
AcDbCircle
 10
20.531
 20
5.25
 30
0.0
 40
0.345
  0
ARC
  5
649
330
1E
100
AcDbEntity
  8
0
  6
CONTINUOUS
 62
     5
100
AcDbCircle
 10
20.531
 20
5.25
 30
0.0
 40
0.366
100
AcDbArc
 50
85.00000099999999
 51
5.0
  0
CIRCLE
  5
64A
330
1E
100
AcDbEntity
  8
0
  6
CONTINUOUS
 62
     5
100
AcDbCircle
 10
20.531
 20
5.25
 30
0.0
 40
0.313
  0
TEXT
  5
669
330
1E
100
AcDbEntity
  8
0
 62
     5
100
AcDbText
 10
21.0670935
 20
3.015619999999999
 30
0.0
 40
0.2125
  1
A
 41
0.825
 72
     4
 11
21.12553099999999
 21
3.121869999999999
 31
0.0
100
AcDbText
  0
TEXT
  5
66A
330
1E
100
AcDbEntity
  8
0
 62
     5
100
AcDbText
 10
18.94209349999999
 20
3.015619999999999
 30
0.0
 40
0.2125
  1
A
 41
0.825
 72
     4
 11
19.000531
 21
3.121869999999999
 31
0.0
100
AcDbText
  0
CIRCLE
  5
66B
330
1E
100
AcDbEntity
  8
0
  6
CONTINUOUS
 62
     5
100
AcDbCircle
 10
20.531
 20
3.75
 30
0.0
 40
0.595
  0
LINE
  5
66C
330
1E
100
AcDbEntity
  8
0
  6
CONTINUOUS
 62
     5
100
AcDbLine
 10
19.816
 20
3.75
 30
0.0
 11
21.245
 21
3.75
 31
0.0
  0
CIRCLE
  5
66D
330
1E
100
AcDbEntity
  8
0
  6
CONTINUOUS
 62
     5
100
AcDbCircle
 10
20.531
 20
3.75
 30
0.0
 40
0.4050000000000001
  0
CIRCLE
  5
66E
330
1E
100
AcDbEntity
  8
0
  6
CONTINUOUS
 62
     5
100
AcDbCircle
 10
20.531
 20
3.75
 30
0.0
 40
0.375
  0
CIRCLE
  5
66F
330
1E
100
AcDbEntity
  8
0
  6
CONTINUOUS
 62
     5
100
AcDbCircle
 10
20.531
 20
3.75
 30
0.0
 40
0.345
  0
CIRCLE
  5
670
330
1E
100
AcDbEntity
  8
0
  6
CONTINUOUS
 62
     5
100
AcDbCircle
 10
20.531
 20
3.75
 30
0.0
 40
0.313
  0
ARC
  5
671
330
1E
100
AcDbEntity
  8
0
  6
CONTINUOUS
 62
     5
100
AcDbCircle
 10
20.531
 20
3.75
 30
0.0
 40
0.366
100
AcDbArc
 50
85.00000099999999
 51
5.0
  0
LINE
  5
67B
330
1E
100
AcDbEntity
  8
0
  6
CONTINUOUS
 62
     5
100
AcDbLine
 10
20.531
 20
3.035
 30
0.0
 11
20.531
 21
4.464999999999999
 31
0.0
  0
LINE
  5
67C
330
1E
100
AcDbEntity
  8
0
  6
CONTINUOUS
 62
     5
100
AcDbLine
 10
18.406
 20
3.035
 30
0.0
 11
18.406
 21
4.464999999999999
 31
0.0
  0
CIRCLE
  5
67D
330
1E
100
AcDbEntity
  8
0
  6
CONTINUOUS
 62
     5
100
AcDbCircle
 10
16.28099999999999
 20
9.906
 30
0.0
 40
0.14
  0
ARC
  5
67E
330
1E
100
AcDbEntity
  8
0
  6
CONTINUOUS
 62
     5
100
AcDbCircle
 10
16.28099999999999
 20
9.906
 30
0.0
 40
0.164
100
AcDbArc
 50
85.00000099999999
 51
5.0
  0
LINE
  5
67F
330
1E
100
AcDbEntity
  8
0
  6
CONTINUOUS
 62
     5
100
AcDbLine
 10
15.778
 20
9.906
 30
0.0
 11
16.783
 21
9.906
 31
0.0
  0
LINE
  5
680
330
1E
100
AcDbEntity
  8
0
  6
CONTINUOUS
 62
     5
100
AcDbLine
 10
13.653
 20
9.906
 30
0.0
 11
14.65799999999999
 21
9.906
 31
0.0
  0
ARC
  5
681
330
1E
100
AcDbEntity
  8
0
  6
CONTINUOUS
 62
     5
100
AcDbCircle
 10
14.156
 20
9.906
 30
0.0
 40
0.164
100
AcDbArc
 50
85.00000099999999
 51
5.0
  0
CIRCLE
  5
682
330
1E
100
AcDbEntity
  8
0
  6
CONTINUOUS
 62
     5
100
AcDbCircle
 10
14.156
 20
9.906
 30
0.0
 40
0.14
  0
TEXT
  5
683
330
1E
100
AcDbEntity
  8
0
 62
     5
100
AcDbText
 10
14.387415
 20
9.156399999999999
 30
0.0
 40
0.1872
  1
DAMAN ****
 41
0.825
 72
     4
 11
15.133875
 21
9.25
 31
0.0
100
AcDbText
  0
LINE
  5
684
330
1E
100
AcDbEntity
  8
0
  6
CONTINUOUS
 62
     5
100
AcDbLine
 10
16.28099999999999
 20
4.535
 30
0.0
 11
16.28099999999999
 21
5.964999999999999
 31
0.0
  0
CIRCLE
  5
685
330
1E
100
AcDbEntity
  8
0
  6
CONTINUOUS
 62
     5
100
AcDbCircle
 10
16.28099999999999
 20
5.25
 30
0.0
 40
0.4050000000000001
  0
CIRCLE
  5
686
330
1E
100
AcDbEntity
  8
0
  6
CONTINUOUS
 62
     5
100
AcDbCircle
 10
16.28099999999999
 20
5.25
 30
0.0
 40
0.375
  0
TEXT
  5
687
330
1E
100
AcDbEntity
  8
0
 62
     5
100
AcDbText
 10
16.8170935
 20
4.54523
 30
0.0
 40
0.2125
  1
B
 41
0.825
 72
     4
 11
16.87553099999999
 21
4.65148
 31
0.0
100
AcDbText
  0
CIRCLE
  5
688
330
1E
100
AcDbEntity
  8
0
  6
CONTINUOUS
 62
     5
100
AcDbCircle
 10
16.28099999999999
 20
5.25
 30
0.0
 40
0.345
  0
ARC
  5
689
330
1E
100
AcDbEntity
  8
0
  6
CONTINUOUS
 62
     5
100
AcDbCircle
 10
16.28099999999999
 20
5.25
 30
0.0
 40
0.366
100
AcDbArc
 50
85.00000099999999
 51
5.0
  0
CIRCLE
  5
68A
330
1E
100
AcDbEntity
  8
0
  6
CONTINUOUS
 62
     5
100
AcDbCircle
 10
16.28099999999999
 20
5.25
 30
0.0
 40
0.313
  0
CIRCLE
  5
68B
330
1E
100
AcDbEntity
  8
0
  6
CONTINUOUS
 62
     5
100
AcDbCircle
 10
14.156
 20
5.25
 30
0.0
 40
0.313
  0
CIRCLE
  5
68C
330
1E
100
AcDbEntity
  8
0
  6
CONTINUOUS
 62
     5
100
AcDbCircle
 10
14.156
 20
5.25
 30
0.0
 40
0.345
  0
ARC
  5
68D
330
1E
100
AcDbEntity
  8
0
  6
CONTINUOUS
 62
     5
100
AcDbCircle
 10
14.156
 20
5.25
 30
0.0
 40
0.366
100
AcDbArc
 50
85.00000099999999
 51
5.0
  0
LINE
  5
68E
330
1E
100
AcDbEntity
  8
0
  6
CONTINUOUS
 62
     5
100
AcDbLine
 10
13.25
 20
5.525
 30
0.0
 11
13.25
 21
5.974999999999999
 31
0.0
  0
LINE
  5
68F
330
1E
100
AcDbEntity
  8
0
  6
CONTINUOUS
 62
     5
100
AcDbLine
 10
13.441
 20
5.25
 30
0.0
 11
14.87
 21
5.25
 31
0.0
  0
TEXT
  5
690
330
1E
100
AcDbEntity
  8
0
 62
     5
100
AcDbText
 10
14.6920935
 20
4.54523
 30
0.0
 40
0.2125
  1
B
 41
0.825
 72
     4
 11
14.750531
 21
4.65148
 31
0.0
100
AcDbText
  0
CIRCLE
  5
691
330
1E
100
AcDbEntity
  8
0
  6
CONTINUOUS
 62
     5
100
AcDbCircle
 10
14.156
 20
5.25
 30
0.0
 40
0.375
  0
CIRCLE
  5
692
330
1E
100
AcDbEntity
  8
0
  6
CONTINUOUS
 62
     5
100
AcDbCircle
 10
14.156
 20
5.25
 30
0.0
 40
0.4050000000000001
  0
LINE
  5
693
330
1E
100
AcDbEntity
  8
0
  6
CONTINUOUS
 62
     5
100
AcDbLine
 10
14.156
 20
4.535
 30
0.0
 11
14.156
 21
5.964999999999999
 31
0.0
  0
CIRCLE
  5
694
330
1E
100
AcDbEntity
  8
0
  6
CONTINUOUS
 62
     5
100
AcDbCircle
 10
14.156
 20
5.25
 30
0.0
 40
0.595
  0
CIRCLE
  5
695
330
1E
100
AcDbEntity
  8
0
  6
CONTINUOUS
 62
     5
100
AcDbCircle
 10
16.28099999999999
 20
5.25
 30
0.0
 40
0.595
  0
LINE
  5
696
330
1E
100
AcDbEntity
  8
0
  6
CONTINUOUS
 62
     5
100
AcDbLine
 10
15.566
 20
5.25
 30
0.0
 11
16.995
 21
5.25
 31
0.0
  0
LINE
  5
697
330
1E
100
AcDbEntity
  8
0
  6
CONTINUOUS
 62
     5
100
AcDbLine
 10
13.024
 20
5.75
 30
0.0
 11
13.475
 21
5.75
 31
0.0
  0
ARC
  5
698
330
1E
100
AcDbEntity
  8
0
  6
CONTINUOUS
 62
     5
100
AcDbCircle
 10
13.25
 20
5.75
 30
0.0
 40
0.183
100
AcDbArc
 50
85.00000099999999
 51
5.0
  0
CIRCLE
  5
699
330
1E
100
AcDbEntity
  8
0
  6
CONTINUOUS
 62
     5
100
AcDbCircle
 10
13.25
 20
5.75
 30
0.0
 40
0.156
  0
CIRCLE
  5
69A
330
1E
100
AcDbEntity
  8
0
  6
CONTINUOUS
 62
     5
100
AcDbCircle
 10
13.25
 20
5.75
 30
0.0
 40
0.188
  0
CIRCLE
  5
69B
330
1E
100
AcDbEntity
  8
0
  6
CONTINUOUS
 62
     5
100
AcDbCircle
 10
16.28099999999999
 20
3.75
 30
0.0
 40
0.4050000000000001
  0
CIRCLE
  5
69C
330
1E
100
AcDbEntity
  8
0
  6
CONTINUOUS
 62
     5
100
AcDbCircle
 10
16.28099999999999
 20
3.75
 30
0.0
 40
0.375
  0
CIRCLE
  5
69D
330
1E
100
AcDbEntity
  8
0
  6
CONTINUOUS
 62
     5
100
AcDbCircle
 10
16.28099999999999
 20
3.75
 30
0.0
 40
0.345
  0
CIRCLE
  5
69E
330
1E
100
AcDbEntity
  8
0
  6
CONTINUOUS
 62
     5
100
AcDbCircle
 10
16.28099999999999
 20
3.75
 30
0.0
 40
0.313
  0
ARC
  5
69F
330
1E
100
AcDbEntity
  8
0
  6
CONTINUOUS
 62
     5
100
AcDbCircle
 10
16.28099999999999
 20
3.75
 30
0.0
 40
0.366
100
AcDbArc
 50
85.00000099999999
 51
5.0
  0
TEXT
  5
6A0
330
1E
100
AcDbEntity
  8
0
 62
     5
100
AcDbText
 10
16.8170935
 20
3.015619999999999
 30
0.0
 40
0.2125
  1
A
 41
0.825
 72
     4
 11
16.87553099999999
 21
3.121869999999999
 31
0.0
100
AcDbText
  0
TEXT
  5
6A1
330
1E
100
AcDbEntity
  8
0
 62
     5
100
AcDbText
 10
14.6920935
 20
3.015619999999999
 30
0.0
 40
0.2125
  1
A
 41
0.825
 72
     4
 11
14.750531
 21
3.121869999999999
 31
0.0
100
AcDbText
  0
CIRCLE
  5
6A2
330
1E
100
AcDbEntity
  8
0
  6
CONTINUOUS
 62
     5
100
AcDbCircle
 10
14.156
 20
3.75
 30
0.0
 40
0.313
  0
CIRCLE
  5
6A3
330
1E
100
AcDbEntity
  8
0
  6
CONTINUOUS
 62
     5
100
AcDbCircle
 10
14.156
 20
3.75
 30
0.0
 40
0.345
  0
ARC
  5
6A4
330
1E
100
AcDbEntity
  8
0
  6
CONTINUOUS
 62
     5
100
AcDbCircle
 10
14.156
 20
3.75
 30
0.0
 40
0.366
100
AcDbArc
 50
85.00000099999999
 51
5.0
  0
CIRCLE
  5
6A5
330
1E
100
AcDbEntity
  8
0
  6
CONTINUOUS
 62
     5
100
AcDbCircle
 10
14.156
 20
3.75
 30
0.0
 40
0.375
  0
CIRCLE
  5
6A6
330
1E
100
AcDbEntity
  8
0
  6
CONTINUOUS
 62
     5
100
AcDbCircle
 10
14.156
 20
3.75
 30
0.0
 40
0.4050000000000001
  0
LINE
  5
6A7
330
1E
100
AcDbEntity
  8
0
  6
CONTINUOUS
 62
     5
100
AcDbLine
 10
13.25
 20
2.274999999999999
 30
0.0
 11
13.25
 21
2.725
 31
0.0
  0
LINE
  5
6A8
330
1E
100
AcDbEntity
  8
0
  6
CONTINUOUS
 62
     5
100
AcDbLine
 10
13.441
 20
3.75
 30
0.0
 11
14.87
 21
3.75
 31
0.0
  0
CIRCLE
  5
6A9
330
1E
100
AcDbEntity
  8
0
  6
CONTINUOUS
 62
     5
100
AcDbCircle
 10
14.156
 20
3.75
 30
0.0
 40
0.595
  0
CIRCLE
  5
6AA
330
1E
100
AcDbEntity
  8
0
  6
CONTINUOUS
 62
     5
100
AcDbCircle
 10
16.28099999999999
 20
3.75
 30
0.0
 40
0.595
  0
LINE
  5
6AB
330
1E
100
AcDbEntity
  8
0
  6
CONTINUOUS
 62
     5
100
AcDbLine
 10
15.566
 20
3.75
 30
0.0
 11
16.995
 21
3.75
 31
0.0
  0
LINE
  5
6AC
330
1E
100
AcDbEntity
  8
0
  6
CONTINUOUS
 62
     5
100
AcDbLine
 10
13.024
 20
2.5
 30
0.0
 11
13.475
 21
2.5
 31
0.0
  0
ARC
  5
6AD
330
1E
100
AcDbEntity
  8
0
  6
CONTINUOUS
 62
     5
100
AcDbCircle
 10
13.25
 20
2.5
 30
0.0
 40
0.183
100
AcDbArc
 50
85.00000099999999
 51
5.0
  0
CIRCLE
  5
6AE
330
1E
100
AcDbEntity
  8
0
  6
CONTINUOUS
 62
     5
100
AcDbCircle
 10
13.25
 20
2.5
 30
0.0
 40
0.156
  0
CIRCLE
  5
6AF
330
1E
100
AcDbEntity
  8
0
  6
CONTINUOUS
 62
     5
100
AcDbCircle
 10
13.25
 20
2.5
 30
0.0
 40
0.188
  0
LINE
  5
6B0
330
1E
100
AcDbEntity
  8
0
  6
CONTINUOUS
 62
     5
100
AcDbLine
 10
16.28099999999999
 20
3.035
 30
0.0
 11
16.28099999999999
 21
4.464999999999999
 31
0.0
  0
LINE
  5
6B1
330
1E
100
AcDbEntity
  8
0
  6
CONTINUOUS
 62
     5
100
AcDbLine
 10
14.156
 20
3.035
 30
0.0
 11
14.156
 21
4.464999999999999
 31
0.0
  0
LINE
  5
6B2
330
1E
100
AcDbEntity
  8
0
  6
CONTINUOUS
 62
     5
100
AcDbLine
 10
12.875
 20
2.125
 30
0.0
 11
12.875
 21
6.125
 31
0.0
  0
CIRCLE
  5
6B3
330
1E
100
AcDbEntity
  8
0
  6
CONTINUOUS
 62
     5
100
AcDbCircle
 10
18.406
 20
3.75
 30
0.0
 40
0.595
  0
LINE
  5
6B4
330
1E
100
AcDbEntity
  8
0
  6
CONTINUOUS
 62
     5
100
AcDbLine
 10
17.69099999999999
 20
3.75
 30
0.0
 11
19.12
 21
3.75
 31
0.0
  0
CIRCLE
  5
6B5
330
1E
100
AcDbEntity
  8
0
  6
CONTINUOUS
 62
     5
100
AcDbCircle
 10
18.406
 20
3.75
 30
0.0
 40
0.4050000000000001
  0
CIRCLE
  5
6B6
330
1E
100
AcDbEntity
  8
0
  6
CONTINUOUS
 62
     5
100
AcDbCircle
 10
18.406
 20
3.75
 30
0.0
 40
0.375
  0
CIRCLE
  5
6B7
330
1E
100
AcDbEntity
  8
0
  6
CONTINUOUS
 62
     5
100
AcDbCircle
 10
18.406
 20
3.75
 30
0.0
 40
0.345
  0
CIRCLE
  5
6B8
330
1E
100
AcDbEntity
  8
0
  6
CONTINUOUS
 62
     5
100
AcDbCircle
 10
18.406
 20
3.75
 30
0.0
 40
0.313
  0
ARC
  5
6B9
330
1E
100
AcDbEntity
  8
0
  6
CONTINUOUS
 62
     5
100
AcDbCircle
 10
18.406
 20
3.75
 30
0.0
 40
0.366
100
AcDbArc
 50
85.00000099999999
 51
5.0
  0
CIRCLE
  5
6BA
330
1E
100
AcDbEntity
  8
0
  6
CONTINUOUS
 62
     5
100
AcDbCircle
 10
18.406
 20
5.25
 30
0.0
 40
0.595
  0
LINE
  5
6BB
330
1E
100
AcDbEntity
  8
0
  6
CONTINUOUS
 62
     5
100
AcDbLine
 10
17.69099999999999
 20
5.25
 30
0.0
 11
19.12
 21
5.25
 31
0.0
  0
CIRCLE
  5
6BC
330
1E
100
AcDbEntity
  8
0
  6
CONTINUOUS
 62
     5
100
AcDbCircle
 10
18.406
 20
5.25
 30
0.0
 40
0.4050000000000001
  0
CIRCLE
  5
6BD
330
1E
100
AcDbEntity
  8
0
  6
CONTINUOUS
 62
     5
100
AcDbCircle
 10
18.406
 20
5.25
 30
0.0
 40
0.375
  0
CIRCLE
  5
6BE
330
1E
100
AcDbEntity
  8
0
  6
CONTINUOUS
 62
     5
100
AcDbCircle
 10
18.406
 20
5.25
 30
0.0
 40
0.345
  0
ARC
  5
6BF
330
1E
100
AcDbEntity
  8
0
  6
CONTINUOUS
 62
     5
100
AcDbCircle
 10
18.406
 20
5.25
 30
0.0
 40
0.366
100
AcDbArc
 50
85.00000099999999
 51
5.0
  0
CIRCLE
  5
6C0
330
1E
100
AcDbEntity
  8
0
  6
CONTINUOUS
 62
     5
100
AcDbCircle
 10
18.406
 20
5.25
 30
0.0
 40
0.313
  0
LINE
  5
6C1
330
1E
100
AcDbEntity
  8
0
  6
CONTINUOUS
 62
     5
100
AcDbLine
 10
17.903
 20
9.906
 30
0.0
 11
18.908
 21
9.906
 31
0.0
  0
CIRCLE
  5
6D1
330
1E
100
AcDbEntity
  8
0
  6
CONTINUOUS
 62
     5
100
AcDbCircle
 10
20.531
 20
9.906
 30
0.0
 40
0.419
  0
LINE
  5
6D2
330
1E
100
AcDbEntity
  8
0
  6
CONTINUOUS
 62
     5
100
AcDbLine
 10
20.531
 20
9.403
 30
0.0
 11
20.531
 21
10.409
 31
0.0
  0
CIRCLE
  5
6D3
330
1E
100
AcDbEntity
  8
0
  6
CONTINUOUS
 62
     5
100
AcDbCircle
 10
20.531
 20
9.906
 30
0.0
 40
0.243
  0
CIRCLE
  5
6D4
330
1E
100
AcDbEntity
  8
0
  6
CONTINUOUS
 62
     5
100
AcDbCircle
 10
20.531
 20
9.906
 30
0.0
 40
0.219
  0
CIRCLE
  5
6D5
330
1E
100
AcDbEntity
  8
0
  6
CONTINUOUS
 62
     5
100
AcDbCircle
 10
20.531
 20
9.906
 30
0.0
 40
0.194
  0
CIRCLE
  5
6D6
330
1E
100
AcDbEntity
  8
0
  6
CONTINUOUS
 62
     5
100
AcDbCircle
 10
18.406
 20
9.906
 30
0.0
 40
0.419
  0
LINE
  5
6D7
330
1E
100
AcDbEntity
  8
0
  6
CONTINUOUS
 62
     5
100
AcDbLine
 10
18.406
 20
9.403
 30
0.0
 11
18.406
 21
10.409
 31
0.0
  0
CIRCLE
  5
6D8
330
1E
100
AcDbEntity
  8
0
  6
CONTINUOUS
 62
     5
100
AcDbCircle
 10
18.406
 20
9.906
 30
0.0
 40
0.243
  0
CIRCLE
  5
6D9
330
1E
100
AcDbEntity
  8
0
  6
CONTINUOUS
 62
     5
100
AcDbCircle
 10
18.406
 20
9.906
 30
0.0
 40
0.219
  0
CIRCLE
  5
6DA
330
1E
100
AcDbEntity
  8
0
  6
CONTINUOUS
 62
     5
100
AcDbCircle
 10
18.406
 20
9.906
 30
0.0
 40
0.194
  0
CIRCLE
  5
6DB
330
1E
100
AcDbEntity
  8
0
  6
CONTINUOUS
 62
     5
100
AcDbCircle
 10
16.28099999999999
 20
9.906
 30
0.0
 40
0.419
  0
LINE
  5
6DC
330
1E
100
AcDbEntity
  8
0
  6
CONTINUOUS
 62
     5
100
AcDbLine
 10
16.28099999999999
 20
9.403
 30
0.0
 11
16.28099999999999
 21
10.409
 31
0.0
  0
CIRCLE
  5
6DD
330
1E
100
AcDbEntity
  8
0
  6
CONTINUOUS
 62
     5
100
AcDbCircle
 10
16.28099999999999
 20
9.906
 30
0.0
 40
0.243
  0
CIRCLE
  5
6DE
330
1E
100
AcDbEntity
  8
0
  6
CONTINUOUS
 62
     5
100
AcDbCircle
 10
16.28099999999999
 20
9.906
 30
0.0
 40
0.219
  0
CIRCLE
  5
6DF
330
1E
100
AcDbEntity
  8
0
  6
CONTINUOUS
 62
     5
100
AcDbCircle
 10
16.28099999999999
 20
9.906
 30
0.0
 40
0.194
  0
CIRCLE
  5
6E0
330
1E
100
AcDbEntity
  8
0
  6
CONTINUOUS
 62
     5
100
AcDbCircle
 10
14.156
 20
9.906
 30
0.0
 40
0.194
  0
CIRCLE
  5
6E1
330
1E
100
AcDbEntity
  8
0
  6
CONTINUOUS
 62
     5
100
AcDbCircle
 10
14.156
 20
9.906
 30
0.0
 40
0.219
  0
CIRCLE
  5
6E2
330
1E
100
AcDbEntity
  8
0
  6
CONTINUOUS
 62
     5
100
AcDbCircle
 10
14.156
 20
9.906
 30
0.0
 40
0.243
  0
LINE
  5
6E3
330
1E
100
AcDbEntity
  8
0
  6
CONTINUOUS
 62
     5
100
AcDbLine
 10
14.156
 20
9.403
 30
0.0
 11
14.156
 21
10.409
 31
0.0
  0
CIRCLE
  5
6E4
330
1E
100
AcDbEntity
  8
0
  6
CONTINUOUS
 62
     5
100
AcDbCircle
 10
14.156
 20
9.906
 30
0.0
 40
0.419
  0
LINE
  5
6E5
330
1E
100
AcDbEntity
  8
0
  6
CONTINUOUS
 62
     5
100
AcDbLine
 10
12.875
 20
7.625
 30
0.0
 11
12.875
 21
10.625
 31
0.0
  0
LWPOLYLINE
  5
6E6
330
1E
100
AcDbEntity
  8
0
  6
CONTINUOUS
 62
     5
100
AcDbPolyline
 90
        3
 70
     0
 43
0.0
 10
12.875
 20
6.125
 10
21.806911
 20
6.125
 10
21.933
 20
6.125
  0
LINE
  5
6EB
330
1E
100
AcDbEntity
  8
0
  6
CONTINUOUS
 62
     5
100
AcDbLine
 10
21.933
 20
6.125
 30
0.0
 11
25.75
 21
6.125
 31
0.0
  0
LINE
  5
6EC
330
1E
100
AcDbEntity
  8
0
  6
CONTINUOUS
 62
     5
100
AcDbLine
 10
25.75
 20
2.125
 30
0.0
 11
22.02224
 21
2.125
 31
0.0
  0
LWPOLYLINE
  5
6ED
330
1E
100
AcDbEntity
  8
0
  6
CONTINUOUS
 62
     5
100
AcDbPolyline
 90
        3
 70
     0
 43
0.0
 10
21.89724
 20
2.125
 10
22.02224
 20
2.125
 10
12.875
 20
2.125
  0
LINE
  5
6F2
330
1E
100
AcDbEntity
  8
0
  6
CONTINUOUS
 62
     5
100
AcDbLine
 10
25.75
 20
7.625
 30
0.0
 11
21.933
 21
7.625
 31
0.0
  0
LWPOLYLINE
  5
6F3
330
1E
100
AcDbEntity
  8
0
  6
CONTINUOUS
 62
     5
100
AcDbPolyline
 90
        3
 70
     0
 43
0.0
 10
21.808
 20
7.625
 10
21.933
 20
7.625
 10
12.875
 20
7.625
  0
LWPOLYLINE
  5
6F8
330
1E
100
AcDbEntity
  8
0
  6
CONTINUOUS
 62
     5
100
AcDbPolyline
 90
        3
 70
     0
 43
0.0
 10
12.875
 20
10.625
 10
21.89724
 20
10.625
 10
22.02224
 20
10.625
  0
LINE
  5
6FD
330
1E
100
AcDbEntity
  8
0
  6
CONTINUOUS
 62
     5
100
AcDbLine
 10
22.02224
 20
10.625
 30
0.0
 11
25.75
 21
10.625
 31
0.0
  0
LWPOLYLINE
  5
6FE
330
1E
100
AcDbEntity
  8
0
  6
CONTINUOUS
 62
     5
100
AcDbPolyline
 90
        3
 70
     0
 43
0.0
 10
12.875
 20
12.125
 10
21.77224
 20
12.125
 10
21.89724
 20
12.125
  0
LINE
  5
703
330
1E
100
AcDbEntity
  8
0
  6
CONTINUOUS
 62
     5
100
AcDbLine
 10
21.89724
 20
12.125
 30
0.0
 11
25.75
 21
12.125
 31
0.0
  0
LINE
  5
704
330
1E
100
AcDbEntity
  8
0
  6
CONTINUOUS
 62
     5
100
AcDbLine
 10
25.75
 20
16.125
 30
0.0
 11
21.808
 21
16.125
 31
0.0
  0
LWPOLYLINE
  5
705
330
1E
100
AcDbEntity
  8
0
  6
CONTINUOUS
 62
     5
100
AcDbPolyline
 90
        3
 70
     0
 43
0.0
 10
21.68299999999999
 20
16.125
 10
21.808
 20
16.125
 10
12.875
 20
16.125
  0
LINE
  5
70A
330
1E
100
AcDbEntity
  8
0
  6
CONTINUOUS
 62
     5
100
AcDbLine
 10
25.75
 20
20.625
 30
0.0
 11
22.02224
 21
20.625
 31
0.0
  0
LWPOLYLINE
  5
70B
330
1E
100
AcDbEntity
  8
0
  6
CONTINUOUS
 62
     5
100
AcDbPolyline
 90
        3
 70
     0
 43
0.0
 10
21.89724
 20
20.625
 10
22.02224
 20
20.625
 10
12.875
 20
20.625
  0
LWPOLYLINE
  5
710
330
1E
100
AcDbEntity
  8
0
  6
CONTINUOUS
 62
     5
100
AcDbPolyline
 90
        3
 70
     0
 43
0.0
 10
12.875
 20
17.625
 10
21.808
 20
17.625
 10
21.933
 20
17.625
  0
LINE
  5
715
330
1E
100
AcDbEntity
  8
0
  6
CONTINUOUS
 62
     5
100
AcDbLine
 10
21.933
 20
17.625
 30
0.0
 11
25.75
 21
17.625
 31
0.0
  0
ENDSEC
  0
SECTION
  2
OBJECTS
  0
DICTIONARY
  5
C
330
0
100
AcDbDictionary
  3
ACAD_GROUP
350
D
  3
ACAD_LAYOUT
350
19
  3
ACAD_MLINESTYLE
350
16
  3
ACAD_PLOTSETTINGS
350
18
  3
ACAD_PLOTSTYLENAME
350
E
  3
ACDBHEADERROUNDTRIPXREC
350
81C
  0
DICTIONARY
  5
83E
330
1E
100
AcDbDictionary
280
     1
  3
ACAD_LAYOUTSELFREF
360
83F
  0
DICTIONARY
  5
83C
330
1A
100
AcDbDictionary
280
     1
  3
ACAD_LAYOUTSELFREF
360
83D
  0
DICTIONARY
  5
D
102
{ACAD_REACTORS
330
C
102
}
330
C
100
AcDbDictionary
  0
DICTIONARY
  5
19
102
{ACAD_REACTORS
330
C
102
}
330
C
100
AcDbDictionary
  0
DICTIONARY
  5
16
102
{ACAD_REACTORS
330
C
102
}
330
C
100
AcDbDictionary
  3
STANDARD
350
17
  0
DICTIONARY
  5
18
102
{ACAD_REACTORS
330
C
102
}
330
C
100
AcDbDictionary
  0
ACDBDICTIONARYWDFLT
  5
E
102
{ACAD_REACTORS
330
C
102
}
330
C
100
AcDbDictionary
281
     1
  3
Normal
350
F
100
AcDbDictionaryWithDefault
340
F
  0
DICTIONARY
  5
81C
102
{ACAD_REACTORS
330
C
102
}
330
C
100
AcDbDictionary
  3
CEPSNTYPE
350
826
  3
FINGERPRINTGUID
350
827
  3
HYPERLINKBASE
350
81F
  3
INSUNITS
350
825
  3
LAYOUTDICT
350
821
  3
LWETCUNION
350
824
  3
PLOTSETDICT
350
822
  3
PLOTSTYLNAMDICT
350
823
  3
PSVPSCALE
350
829
  3
PUCSBASE
350
82C
  3
PUCSORGBACK
350
832
  3
PUCSORGBOTTOM
350
82E
  3
PUCSORGFRONT
350
831
  3
PUCSORGLEFT
350
82F
  3
PUCSORGRIGHT
350
830
  3
PUCSORGTOP
350
82D
  3
PUCSORTHOREF
350
82A
  3
PUCSORTHOVIEW
350
82B
  3
STYLESHEET
350
820
  3
TSTACKALIGN
350
81D
  3
TSTACKSIZE
350
81E
  3
UCSBASE
350
835
  3
UCSORGBACK
350
83B
  3
UCSORGBOTTOM
350
837
  3
UCSORGFRONT
350
83A
  3
UCSORGLEFT
350
838
  3
UCSORGRIGHT
350
839
  3
UCSORGTOP
350
836
  3
UCSORTHOREF
350
833
  3
UCSORTHOVIEW
350
834
  3
VERSIONGUID
350
828
  0
XRECORD
  5
83F
102
{ACAD_REACTORS
330
83E
102
}
330
83E
100
AcDbXrecord
340
1E
  0
XRECORD
  5
83D
102
{ACAD_REACTORS
330
83C
102
}
330
83C
100
AcDbXrecord
340
1A
  0
MLINESTYLE
  5
17
102
{ACAD_REACTORS
330
16
102
}
330
16
100
AcDbMlineStyle
  2
STANDARD
 70
     0
  3

 62
   256
 51
90.0
 52
90.0
 71
     2
 49
0.5
 62
   256
  6
BYLAYER
 49
-0.5
 62
   256
  6
BYLAYER
  0
ACDBPLACEHOLDER
  5
F
102
{ACAD_REACTORS
330
E
102
}
330
E
100
AcDbPlaceHolder
280
     0
  0
XRECORD
  5
826
102
{ACAD_REACTORS
330
81C
102
}
330
81C
100
AcDbXrecord
 90
        0
  0
XRECORD
  5
827
102
{ACAD_REACTORS
330
81C
102
}
330
81C
100
AcDbXrecord
  1
{DA3A0ADF-A18E-4AE0-B415-5FCE138A8C56}
  0
XRECORD
  5
81F
102
{ACAD_REACTORS
330
81C
102
}
330
81C
100
AcDbXrecord
  1

  0
XRECORD
  5
825
102
{ACAD_REACTORS
330
81C
102
}
330
81C
100
AcDbXrecord
 90
        0
  0
XRECORD
  5
821
102
{ACAD_REACTORS
330
81C
102
}
330
81C
100
AcDbXrecord
340
19
  0
XRECORD
  5
824
102
{ACAD_REACTORS
330
81C
102
}
330
81C
100
AcDbXrecord
 90
    10781
  0
XRECORD
  5
822
102
{ACAD_REACTORS
330
81C
102
}
330
81C
100
AcDbXrecord
340
18
  0
XRECORD
  5
823
102
{ACAD_REACTORS
330
81C
102
}
330
81C
100
AcDbXrecord
340
E
  0
XRECORD
  5
829
102
{ACAD_REACTORS
330
81C
102
}
330
81C
100
AcDbXrecord
 40
0.0
  0
XRECORD
  5
82C
102
{ACAD_REACTORS
330
81C
102
}
330
81C
100
AcDbXrecord
340
0
  0
XRECORD
  5
832
102
{ACAD_REACTORS
330
81C
102
}
330
81C
100
AcDbXrecord
 10
0.0
 20
0.0
 30
0.0
  0
XRECORD
  5
82E
102
{ACAD_REACTORS
330
81C
102
}
330
81C
100
AcDbXrecord
 10
0.0
 20
0.0
 30
0.0
  0
XRECORD
  5
831
102
{ACAD_REACTORS
330
81C
102
}
330
81C
100
AcDbXrecord
 10
0.0
 20
0.0
 30
0.0
  0
XRECORD
  5
82F
102
{ACAD_REACTORS
330
81C
102
}
330
81C
100
AcDbXrecord
 10
0.0
 20
0.0
 30
0.0
  0
XRECORD
  5
830
102
{ACAD_REACTORS
330
81C
102
}
330
81C
100
AcDbXrecord
 10
0.0
 20
0.0
 30
0.0
  0
XRECORD
  5
82D
102
{ACAD_REACTORS
330
81C
102
}
330
81C
100
AcDbXrecord
 10
0.0
 20
0.0
 30
0.0
  0
XRECORD
  5
82A
102
{ACAD_REACTORS
330
81C
102
}
330
81C
100
AcDbXrecord
340
0
  0
XRECORD
  5
82B
102
{ACAD_REACTORS
330
81C
102
}
330
81C
100
AcDbXrecord
 70
     0
  0
XRECORD
  5
820
102
{ACAD_REACTORS
330
81C
102
}
330
81C
100
AcDbXrecord
  1

  0
XRECORD
  5
81D
102
{ACAD_REACTORS
330
81C
102
}
330
81C
100
AcDbXrecord
 90
        1
  0
XRECORD
  5
81E
102
{ACAD_REACTORS
330
81C
102
}
330
81C
100
AcDbXrecord
 90
       70
  0
XRECORD
  5
835
102
{ACAD_REACTORS
330
81C
102
}
330
81C
100
AcDbXrecord
340
0
  0
XRECORD
  5
83B
102
{ACAD_REACTORS
330
81C
102
}
330
81C
100
AcDbXrecord
 10
0.0
 20
0.0
 30
0.0
  0
XRECORD
  5
837
102
{ACAD_REACTORS
330
81C
102
}
330
81C
100
AcDbXrecord
 10
0.0
 20
0.0
 30
0.0
  0
XRECORD
  5
83A
102
{ACAD_REACTORS
330
81C
102
}
330
81C
100
AcDbXrecord
 10
0.0
 20
0.0
 30
0.0
  0
XRECORD
  5
838
102
{ACAD_REACTORS
330
81C
102
}
330
81C
100
AcDbXrecord
 10
0.0
 20
0.0
 30
0.0
  0
XRECORD
  5
839
102
{ACAD_REACTORS
330
81C
102
}
330
81C
100
AcDbXrecord
 10
0.0
 20
0.0
 30
0.0
  0
XRECORD
  5
836
102
{ACAD_REACTORS
330
81C
102
}
330
81C
100
AcDbXrecord
 10
0.0
 20
0.0
 30
0.0
  0
XRECORD
  5
833
102
{ACAD_REACTORS
330
81C
102
}
330
81C
100
AcDbXrecord
340
0
  0
XRECORD
  5
834
102
{ACAD_REACTORS
330
81C
102
}
330
81C
100
AcDbXrecord
 70
     0
  0
XRECORD
  5
828
102
{ACAD_REACTORS
330
81C
102
}
330
81C
100
AcDbXrecord
  1
{27E9A620-5ABC-4E85-9CC5-B2ED8BA52FE5}
  0
ENDSEC
  0
EOF
