  0
SECTION
  2
HEADER
  9
$ACADVER
  1
AC1009
  9
$INSBASE
 10
0.0
 20
0.0
 30
0.0
  9
$EXTMIN
 10
-1.03075
 20
-1.03125
 30
0.0
  9
$EXTMAX
 10
21.65575
 20
7.0005
 30
0.0
  9
$LIMMIN
 10
0.0
 20
0.0
  9
$LIMMAX
 10
12.0
 20
9.0
  9
$ORTHOMODE
 70
     0
  9
$REGENMODE
 70
     1
  9
$FILLMODE
 70
     1
  9
$QTEXTMODE
 70
     0
  9
$MIRRTEXT
 70
     1
  9
$DRAGMODE
 70
     2
  9
$LTSCALE
 40
1.0
  9
$OSMODE
 70
     0
  9
$ATTMODE
 70
     1
  9
$TEXTSIZE
 40
0.188
  9
$TRACEWID
 40
0.05
  9
$TEXTSTYLE
  7
STANDARD
  9
$CLAYER
  8
DAMAN
  9
$CELTYPE
  6
BYLAYER
  9
$CECOLOR
 62
   256
  9
$DIMSCALE
 40
1.0
  9
$DIMASZ
 40
0.18
  9
$DIMEXO
 40
0.0625
  9
$DIMDLI
 40
0.38
  9
$DIMRND
 40
0.0
  9
$DIMDLE
 40
0.0
  9
$DIMEXE
 40
0.18
  9
$DIMTP
 40
0.0
  9
$DIMTM
 40
0.0
  9
$DIMTXT
 40
0.18
  9
$DIMCEN
 40
0.09
  9
$DIMTSZ
 40
0.0
  9
$DIMTOL
 70
     0
  9
$DIMLIM
 70
     0
  9
$DIMTIH
 70
     1
  9
$DIMTOH
 70
     1
  9
$DIMSE1
 70
     0
  9
$DIMSE2
 70
     0
  9
$DIMTAD
 70
     0
  9
$DIMZIN
 70
     0
  9
$DIMBLK
  1

  9
$DIMASO
 70
     1
  9
$DIMSHO
 70
     1
  9
$DIMPOST
  1

  9
$DIMAPOST
  1

  9
$DIMALT
 70
     0
  9
$DIMALTD
 70
     2
  9
$DIMALTF
 40
25.4
  9
$DIMLFAC
 40
1.0
  9
$DIMTOFL
 70
     0
  9
$DIMTVP
 40
0.0
  9
$DIMTIX
 70
     0
  9
$DIMSOXD
 70
     0
  9
$DIMSAH
 70
     0
  9
$DIMBLK1
  1

  9
$DIMBLK2
  1

  9
$DIMSTYLE
  2
*UNNAMED
  9
$DIMCLRD
 70
     0
  9
$DIMCLRE
 70
     0
  9
$DIMCLRT
 70
     0
  9
$DIMTFAC
 40
1.0
  9
$DIMGAP
 40
0.09
  9
$LUNITS
 70
     2
  9
$LUPREC
 70
     4
  9
$SKETCHINC
 40
0.1
  9
$FILLETRAD
 40
0.0
  9
$AUNITS
 70
     0
  9
$AUPREC
 70
     0
  9
$MENU
  1
tom
  9
$ELEVATION
 40
0.0
  9
$PELEVATION
 40
0.0
  9
$THICKNESS
 40
0.0
  9
$LIMCHECK
 70
     0
  9
$BLIPMODE
 70
     0
  9
$CHAMFERA
 40
0.0
  9
$CHAMFERB
 40
0.0
  9
$SKPOLY
 70
     0
  9
$TDCREATE
 40
2449871.667248229
  9
$TDUPDATE
 40
2449871.667248229
  9
$TDINDWG
 40
0.0000000000
  9
$TDUSRTIMER
 40
0.0000000000
  9
$USRTIMER
 70
     1
  9
$ANGBASE
 50
0.0
  9
$ANGDIR
 70
     0
  9
$PDMODE
 70
     0
  9
$PDSIZE
 40
0.0
  9
$PLINEWID
 40
0.0
  9
$COORDS
 70
     1
  9
$SPLFRAME
 70
     0
  9
$SPLINETYPE
 70
     6
  9
$SPLINESEGS
 70
     8
  9
$ATTDIA
 70
     0
  9
$ATTREQ
 70
     1
  9
$HANDLING
 70
     0
  9
$HANDSEED
  5
0
  9
$SURFTAB1
 70
     6
  9
$SURFTAB2
 70
     6
  9
$SURFTYPE
 70
     6
  9
$SURFU
 70
     6
  9
$SURFV
 70
     6
  9
$UCSNAME
  2

  9
$UCSORG
 10
0.0
 20
0.0
 30
0.0
  9
$UCSXDIR
 10
1.0
 20
0.0
 30
0.0
  9
$UCSYDIR
 10
0.0
 20
1.0
 30
0.0
  9
$PUCSNAME
  2

  9
$PUCSORG
 10
0.0
 20
0.0
 30
0.0
  9
$PUCSXDIR
 10
1.0
 20
0.0
 30
0.0
  9
$PUCSYDIR
 10
0.0
 20
1.0
 30
0.0
  9
$USERI1
 70
     0
  9
$USERI2
 70
     0
  9
$USERI3
 70
     0
  9
$USERI4
 70
     0
  9
$USERI5
 70
     0
  9
$USERR1
 40
0.0
  9
$USERR2
 40
0.0
  9
$USERR3
 40
0.0
  9
$USERR4
 40
0.0
  9
$USERR5
 40
0.0
  9
$WORLDVIEW
 70
     1
  9
$SHADEDGE
 70
     3
  9
$SHADEDIF
 70
    70
  9
$TILEMODE
 70
     1
  9
$MAXACTVP
 70
    16
  9
$PINSBASE
 10
0.0
 20
0.0
 30
0.0
  9
$PLIMCHECK
 70
     0
  9
$PEXTMIN
 10
1.000000E+20
 20
1.000000E+20
 30
1.000000E+20
  9
$PEXTMAX
 10
-1.000000E+20
 20
-1.000000E+20
 30
-1.000000E+20
  9
$PLIMMIN
 10
0.0
 20
0.0
  9
$PLIMMAX
 10
12.0
 20
9.0
  9
$UNITMODE
 70
     0
  9
$VISRETAIN
 70
     0
  9
$PLINEGEN
 70
     0
  9
$PSLTSCALE
 70
     1
  9
$TREEDEPTH
 70
  3020
  9
$DWGCODEPAGE
  3
ascii
  0
ENDSEC
  0
SECTION
  2
TABLES
  0
TABLE
  2
VPORT
 70
     2
  0
VPORT
  2
*ACTIVE
 70
     0
 10
0.0
 20
0.0
 11
1.0
 21
1.0
 12
10.3125
 22
7.274796
 13
0.0
 23
0.0
 14
0.125
 24
0.125
 15
0.0
 25
0.0
 16
0.0
 26
0.0
 36
1.0
 17
0.0
 27
0.0
 37
0.0
 40
16.612092
 41
1.365662
 42
50.0
 43
0.0
 44
0.0
 50
0.0
 51
0.0
 71
     0
 72
   100
 73
     1
 74
     1
 75
     0
 76
     0
 77
     0
 78
     0
  0
ENDTAB
  0
TABLE
  2
LTYPE
 70
     4
  0
LTYPE
  2
CONTINUOUS
 70
    64
  3
Solid line
 72
    65
 73
     0
 40
0.0
  0
LTYPE
  2
HIDDEN
 70
    64
  3
__ __ __ __ __ __ __ __ __ __ __ __ __ __ __ __
 72
    65
 73
     2
 40
0.375
 49
0.25
 49
-0.125
  0
LTYPE
  2
DOT
 70
     0
  3
. . . . . . . . . . . . . . . . . . . . . . . .
 72
    65
 73
     2
 40
0.25
 49
0.0
 49
-0.25
  0
LTYPE
  2
DASHED
 70
     0
  3
__ __ __ __ __ __ __ __ __ __ __ __ __ __ __ __
 72
    65
 73
     2
 40
0.75
 49
0.5
 49
-0.25
  0
ENDTAB
  0
TABLE
  2
LAYER
 70
     3
  0
LAYER
  2
0
 70
    64
 62
     7
  6
CONTINUOUS
  0
LAYER
  2
DAMAN
 70
    64
 62
     5
  6
CONTINUOUS
  0
LAYER
  2
CSOLID
 70
    64
 62
     5
  6
CONTINUOUS
  0
ENDTAB
  0
TABLE
  2
STYLE
 70
     1
  0
STYLE
  2
STANDARD
 70
    64
 40
0.0
 41
1.0
 50
0.0
 71
     0
 42
0.188
  3
txt
  4

  0
ENDTAB
  0
TABLE
  2
VIEW
 70
     0
  0
ENDTAB
  0
TABLE
  2
UCS
 70
     0
  0
ENDTAB
  0
TABLE
  2
APPID
 70
     1
  0
APPID
  2
ACAD
 70
    64
  0
ENDTAB
  0
TABLE
  2
DIMSTYLE
 70
     0
  0
ENDTAB
  0
ENDSEC
  0
SECTION
  2
BLOCKS
  0
BLOCK
  8
0
  2
300MKT
 70
    64
 10
0.0
 20
0.0
 30
0.0
  3
300MKT
  0
LINE
  8
DAMAN
 10
0.6245
 20
0.0005
 30
0.0
 11
0.6245
 21
3.0005
 31
0.0
  0
INSERT
  8
DAMAN
  2
100CROSS
 10
0.312
 20
0.313
 30
0.0
 41
-0.34
 42
0.34
 50
270.0
 43
0.34
  0
POLYLINE
  8
DAMAN
 66
     1
 10
0.0
 20
0.0
 30
0.0
 70
   129
  0
VERTEX
  8
DAMAN
 10
0.0625
 20
0.456838
 30
0.0
  0
VERTEX
  8
DAMAN
 10
0.0625
 20
0.168162
 30
0.0
  0
VERTEX
  8
DAMAN
 10
0.3125
 20
0.023825
 30
0.0
  0
VERTEX
  8
DAMAN
 10
0.5625
 20
0.168162
 30
0.0
  0
VERTEX
  8
DAMAN
 10
0.5625
 20
0.456838
 30
0.0
  0
VERTEX
  8
DAMAN
 10
0.3125
 20
0.601175
 30
0.0
  0
SEQEND
  8
DAMAN
  0
CIRCLE
  8
DAMAN
 10
0.313
 20
0.313
 30
0.0
 40
0.249501
  0
LINE
  8
DAMAN
 10
-0.84325
 20
2.53175
 30
0.0
 11
-0.3745
 21
2.53175
 31
0.0
  0
LINE
  8
DAMAN
 10
-0.3745
 20
2.84425
 30
0.0
 11
-0.84325
 21
2.84425
 31
0.0
  0
LINE
  8
DAMAN
  6
HIDDEN
 10
-0.8745
 20
2.813
 30
0.0
 11
-0.3745
 21
2.813
 31
0.0
  0
LINE
  8
DAMAN
  6
HIDDEN
 10
-0.3745
 20
2.563
 30
0.0
 11
-0.8745
 21
2.563
 31
0.0
  0
LINE
  8
DAMAN
 10
0.1255
 20
2.688
 30
0.0
 11
-1.03075
 21
2.688
 31
0.0
  0
LINE
  8
DAMAN
 10
-0.84325
 20
2.84425
 30
0.0
 11
-0.84325
 21
2.53175
 31
0.0
  0
LINE
  8
DAMAN
 10
-0.84325
 20
2.84425
 30
0.0
 11
-0.8745
 21
2.813
 31
0.0
  0
LINE
  8
DAMAN
 10
-0.8745
 20
2.563
 30
0.0
 11
-0.84325
 21
2.53175
 31
0.0
  0
LINE
  8
DAMAN
 10
-0.8745
 20
2.813
 30
0.0
 11
-0.8745
 21
2.563
 31
0.0
  0
INSERT
  8
DAMAN
  2
100CROSS
 10
0.312
 20
2.688
 30
0.0
 41
-0.34
 42
0.34
 50
270.0
 43
0.34
  0
POLYLINE
  8
DAMAN
 66
     1
 10
0.0
 20
0.0
 30
0.0
 70
   129
  0
VERTEX
  8
DAMAN
 10
0.0625
 20
2.831838
 30
0.0
  0
VERTEX
  8
DAMAN
 10
0.0625
 20
2.543162
 30
0.0
  0
VERTEX
  8
DAMAN
 10
0.3125
 20
2.398825
 30
0.0
  0
VERTEX
  8
DAMAN
 10
0.5625
 20
2.543162
 30
0.0
  0
VERTEX
  8
DAMAN
 10
0.5625
 20
2.831838
 30
0.0
  0
VERTEX
  8
DAMAN
 10
0.3125
 20
2.976175
 30
0.0
  0
SEQEND
  8
DAMAN
  0
CIRCLE
  8
DAMAN
 10
0.313
 20
2.688
 30
0.0
 40
0.249501
  0
LINE
  8
DAMAN
 10
0.0005
 20
2.438
 30
0.0
 11
0.0005
 21
2.938
 31
0.0
  0
ARC
  8
DAMAN
 10
-0.098458
 20
2.471494
 30
0.0
 40
0.098958
 50
313.173551
 51
46.826449
  0
LINE
  8
DAMAN
 10
-0.2495
 20
2.399325
 30
0.0
 11
-0.03075
 21
2.399325
 31
0.0
  0
LINE
  8
DAMAN
 10
-0.03075
 20
2.399325
 30
0.0
 11
0.0005
 21
2.438
 31
0.0
  0
LINE
  8
DAMAN
 10
0.6245
 20
3.0005
 30
0.0
 11
-0.3755
 21
3.0005
 31
0.0
  0
LINE
  8
DAMAN
 10
-0.2495
 20
2.832338
 30
0.0
 11
-0.03075
 21
2.832338
 31
0.0
  0
LINE
  8
DAMAN
 10
-0.03075
 20
2.543662
 30
0.0
 11
-0.2495
 21
2.543662
 31
0.0
  0
LINE
  8
DAMAN
 10
-0.03075
 20
2.976675
 30
0.0
 11
-0.2495
 21
2.976675
 31
0.0
  0
ARC
  8
DAMAN
 10
-0.348458
 20
2.688
 30
0.0
 40
0.348958
 50
335.567302
 51
24.432698
  0
ARC
  8
DAMAN
 10
-0.098458
 20
2.904506
 30
0.0
 40
0.098958
 50
313.173551
 51
46.826449
  0
LINE
  8
DAMAN
 10
-0.03075
 20
2.976675
 30
0.0
 11
0.0005
 21
2.938
 31
0.0
  0
LINE
  8
DAMAN
 10
-0.3745
 20
0.46925
 30
0.0
 11
-0.84325
 21
0.46925
 31
0.0
  0
LINE
  8
DAMAN
  6
HIDDEN
 10
-0.8745
 20
0.438
 30
0.0
 11
-0.3745
 21
0.438
 31
0.0
  0
LINE
  8
DAMAN
 10
-0.84325
 20
0.15675
 30
0.0
 11
-0.3745
 21
0.15675
 31
0.0
  0
LINE
  8
DAMAN
  6
HIDDEN
 10
-0.3745
 20
0.188
 30
0.0
 11
-0.8745
 21
0.188
 31
0.0
  0
LINE
  8
DAMAN
 10
0.1255
 20
0.313
 30
0.0
 11
-1.03075
 21
0.313
 31
0.0
  0
LINE
  8
DAMAN
 10
-0.84325
 20
0.46925
 30
0.0
 11
-0.84325
 21
0.15675
 31
0.0
  0
LINE
  8
DAMAN
 10
-0.8745
 20
0.188
 30
0.0
 11
-0.84325
 21
0.15675
 31
0.0
  0
LINE
  8
DAMAN
 10
-0.8745
 20
0.438
 30
0.0
 11
-0.8745
 21
0.188
 31
0.0
  0
LINE
  8
DAMAN
 10
-0.84325
 20
0.46925
 30
0.0
 11
-0.8745
 21
0.438
 31
0.0
  0
LINE
  8
DAMAN
 10
0.0005
 20
0.063
 30
0.0
 11
0.0005
 21
0.563
 31
0.0
  0
ARC
  8
DAMAN
 10
-0.098458
 20
0.529506
 30
0.0
 40
0.098958
 50
313.173551
 51
46.826449
  0
LINE
  8
DAMAN
 10
-0.2495
 20
0.457338
 30
0.0
 11
-0.03075
 21
0.457338
 31
0.0
  0
LINE
  8
DAMAN
 10
-0.2495
 20
0.024325
 30
0.0
 11
-0.03075
 21
0.024325
 31
0.0
  0
LINE
  8
DAMAN
 10
-0.03075
 20
0.168662
 30
0.0
 11
-0.2495
 21
0.168662
 31
0.0
  0
ARC
  8
DAMAN
 10
-0.098458
 20
0.096494
 30
0.0
 40
0.098958
 50
313.173551
 51
46.826449
  0
LINE
  8
DAMAN
 10
-0.03075
 20
0.024325
 30
0.0
 11
0.0005
 21
0.063
 31
0.0
  0
ARC
  8
DAMAN
 10
-0.348458
 20
0.313
 30
0.0
 40
0.348958
 50
335.567302
 51
24.432698
  0
LINE
  8
DAMAN
 10
-0.03075
 20
0.601675
 30
0.0
 11
-0.2495
 21
0.601675
 31
0.0
  0
LINE
  8
DAMAN
 10
-0.03075
 20
0.601675
 30
0.0
 11
0.0005
 21
0.563
 31
0.0
  0
LINE
  8
DAMAN
 10
-0.2555
 20
3.0005
 30
0.0
 11
-0.2555
 21
0.0005
 31
0.0
  0
LINE
  8
DAMAN
 10
-0.3755
 20
3.0005
 30
0.0
 11
-0.3755
 21
0.0005
 31
0.0
  0
LINE
  8
DAMAN
 10
-0.3755
 20
0.0005
 30
0.0
 11
0.6245
 21
0.0005
 31
0.0
  0
ENDBLK
  8
0
  0
BLOCK
  8
0
  2
100CROSS
 70
    64
 10
5.625
 20
4.59375
 30
0.0
  3
100CROSS
  0
INSERT
  8
0
  2
050CROSS
 10
5.625
 20
4.59375
 30
0.0
 43
0.0
  0
ENDBLK
  8
0
  0
BLOCK
  8
0
  2
050CROSS
 70
    64
 10
5.0
 20
5.0
 30
0.0
  3
050CROSS
  0
LINE
  8
0
 10
5.0
 20
5.28125
 30
0.0
 11
5.0
 21
5.78125
 31
0.0
  0
LINE
  8
0
 10
5.0
 20
4.875
 30
0.0
 11
5.0
 21
5.125
 31
0.0
  0
LINE
  8
0
 10
5.0
 20
4.15625
 30
0.0
 11
5.0
 21
4.71875
 31
0.0
  0
LINE
  8
0
 10
5.25
 20
5.0
 30
0.0
 11
5.8125
 21
5.0
 31
0.0
  0
LINE
  8
0
 10
4.90625
 20
5.0
 30
0.0
 11
5.09375
 21
5.0
 31
0.0
  0
LINE
  8
0
 10
4.1875
 20
5.0
 30
0.0
 11
4.75
 21
5.0
 31
0.0
  0
ENDBLK
  8
0
  0
BLOCK
  8
0
  2
D03
 70
    64
 10
0.0
 20
0.0
 30
0.0
  3
D03
  0
INSERT
  8
DAMAN
  2
100CROSS
 10
0.61
 20
-1.1875
 30
0.0
 41
0.25
 42
0.25
 43
0.0
  0
INSERT
  8
DAMAN
  2
100CROSS
 10
0.61
 20
-0.5
 30
0.0
 41
0.25
 42
0.25
 43
0.0
  0
CIRCLE
  8
DAMAN
 10
0.61
 20
-0.5
 30
0.0
 40
0.141125
  0
CIRCLE
  8
DAMAN
 10
0.61
 20
-1.1875
 30
0.0
 40
0.141125
  0
INSERT
  8
DAMAN
  2
100CROSS
 10
0.2035
 20
-0.844
 30
0.0
 41
0.25
 42
0.25
 43
0.0
  0
CIRCLE
  8
DAMAN
 10
0.2035
 20
-0.844
 30
0.0
 40
0.141375
  0
INSERT
  8
DAMAN
  2
100CROSS
 10
-0.03
 20
-1.3
 30
0.0
 41
0.171
 42
0.171
 43
0.0
  0
INSERT
  8
DAMAN
  2
100CROSS
 10
-0.03
 20
-1.594
 30
0.0
 41
0.188
 42
0.188
 43
0.0
  0
CIRCLE
  8
DAMAN
  6
HIDDEN
 10
-0.03
 20
-1.594
 30
0.0
 40
0.095
  0
CIRCLE
  8
DAMAN
 10
-0.03
 20
-1.59375
 30
0.0
 40
0.078
  0
CIRCLE
  8
DAMAN
 10
-0.03
 20
-1.3
 30
0.0
 40
0.0855
  0
POINT
  8
DAMAN
  6
BYBLOCK
 62
     0
 10
0.20425
 20
-0.75
 30
0.0
  0
POINT
  8
DAMAN
  6
BYBLOCK
 62
     0
 10
0.20425
 20
-0.75
 30
0.0
  0
INSERT
  8
DAMAN
  2
100CROSS
 10
0.0
 20
0.0
 30
0.0
 41
0.188
 42
0.188
 43
0.0
  0
CIRCLE
  8
DAMAN
 10
0.0
 20
0.0
 30
0.0
 40
0.078
  0
CIRCLE
  8
DAMAN
  6
HIDDEN
 10
0.0
 20
0.0
 30
0.0
 40
0.095
  0
INSERT
  8
DAMAN
  2
100CROSS
 10
1.016
 20
-0.844
 30
0.0
 41
0.25
 42
0.25
 43
0.0
  0
CIRCLE
  8
DAMAN
 10
1.016
 20
-0.844
 30
0.0
 40
0.141375
  0
INSERT
  8
DAMAN
  2
100CROSS
 10
1.25
 20
-1.594
 30
0.0
 41
0.188
 42
0.188
 43
0.0
  0
CIRCLE
  8
DAMAN
  6
HIDDEN
 10
1.25
 20
-1.594
 30
0.0
 40
0.095
  0
CIRCLE
  8
DAMAN
 10
1.25
 20
-1.59375
 30
0.0
 40
0.078
  0
CIRCLE
  8
DAMAN
 10
1.22
 20
0.0
 30
0.0
 40
0.078
  0
INSERT
  8
DAMAN
  2
100CROSS
 10
1.22
 20
0.0
 30
0.0
 41
0.188
 42
0.188
 43
0.0
  0
CIRCLE
  8
DAMAN
  6
HIDDEN
 10
1.22
 20
0.0
 30
0.0
 40
0.095
  0
ENDBLK
  8
0
  0
BLOCK
  8
0
  2
10SAET
 70
     0
 10
0.0
 20
0.0
 30
0.0
  3
10SAET
  0
CIRCLE
  8
DAMAN
 10
0.0
 20
0.0
 30
0.0
 40
0.344
  0
INSERT
  8
DAMAN
  2
100CROSS
 10
0.0
 20
0.0
 30
0.0
 41
1.2
 42
1.2
 43
0.0
  0
CIRCLE
  8
DAMAN
 10
0.0
 20
0.0
 30
0.0
 40
0.6875
  0
CIRCLE
  8
DAMAN
  6
HIDDEN
 10
0.0
 20
0.0
 30
0.0
 40
0.406
  0
CIRCLE
  8
DAMAN
 10
0.0
 20
0.0
 30
0.0
 40
0.4375
  0
ENDBLK
  8
0
  0
BLOCK
  8
0
  2
08SAET
 70
     0
 10
0.0
 20
0.0
 30
0.0
  3
08SAET
  0
CIRCLE
  8
DAMAN
 10
0.0
 20
0.0
 30
0.0
 40
0.375
  0
CIRCLE
  8
DAMAN
 10
0.0
 20
0.0
 30
0.0
 40
0.3125
  0
CIRCLE
  8
DAMAN
  6
HIDDEN
 10
0.0
 20
0.0
 30
0.0
 40
0.344
  0
INSERT
  8
DAMAN
  2
100CROSS
 10
0.0
 20
0.0
 30
0.0
 41
0.88
 42
0.88
  0
CIRCLE
  8
DAMAN
 10
0.0
 20
0.0
 30
0.0
 40
0.594
  0
ENDBLK
  8
0
  0
BLOCK
  8
0
  2
300MKS
 70
    64
 10
0.0
 20
0.0
 30
0.0
  3
300MKS
  0
LINE
  8
DAMAN
 10
-1.0
 20
-0.375
 30
0.0
 11
-0.25
 21
-0.375
 31
0.0
  0
LINE
  8
DAMAN
 10
-0.25
 20
-0.25
 30
0.0
 11
-1.0
 21
-0.25
 31
0.0
  0
LINE
  8
DAMAN
 10
-0.84375
 20
-0.84375
 30
0.0
 11
-0.53125
 21
-0.84375
 31
0.0
  0
LINE
  8
DAMAN
 10
-0.8125
 20
-0.875
 30
0.0
 11
-0.5625
 21
-0.875
 31
0.0
  0
LINE
  8
DAMAN
 10
-0.4375
 20
0.0
 30
0.0
 11
-0.9375
 21
0.0
 31
0.0
  0
ARC
  8
DAMAN
 10
-0.6875
 20
-0.348958
 30
0.0
 40
0.348958
 50
65.567302
 51
114.432698
  0
LINE
  8
DAMAN
 10
-0.6875
 20
0.125
 30
0.0
 11
-0.6875
 21
-1.03125
 31
0.0
  0
LINE
  8
DAMAN
  6
HIDDEN
 10
-0.8125
 20
-0.875
 30
0.0
 11
-0.8125
 21
-0.375
 31
0.0
  0
LINE
  8
DAMAN
 10
-0.84375
 20
-0.375
 30
0.0
 11
-0.84375
 21
-0.84375
 31
0.0
  0
LINE
  8
DAMAN
 10
-0.84375
 20
-0.84375
 30
0.0
 11
-0.8125
 21
-0.875
 31
0.0
  0
LINE
  8
DAMAN
 10
-1.0
 20
-0.25
 30
0.0
 11
-1.0
 21
-0.375
 31
0.0
  0
ARC
  8
DAMAN
 10
-0.904006
 20
-0.098958
 30
0.0
 40
0.098958
 50
43.173551
 51
136.826449
  0
LINE
  8
DAMAN
 10
-0.976175
 20
-0.03125
 30
0.0
 11
-0.976175
 21
-0.25
 31
0.0
  0
LINE
  8
DAMAN
 10
-0.976175
 20
-0.03125
 30
0.0
 11
-0.9375
 21
0.0
 31
0.0
  0
LINE
  8
DAMAN
 10
-0.831838
 20
-0.25
 30
0.0
 11
-0.831838
 21
-0.03125
 31
0.0
  0
LINE
  8
DAMAN
 10
0.0
 20
-0.125
 30
0.0
 11
0.0
 21
0.625
 31
0.0
  0
LINE
  8
DAMAN
 10
-0.125
 20
0.625
 30
0.0
 11
-0.125
 21
-0.125
 31
0.0
  0
LINE
  8
DAMAN
  6
HIDDEN
 10
-0.5625
 20
-0.375
 30
0.0
 11
-0.5625
 21
-0.875
 31
0.0
  0
LINE
  8
DAMAN
 10
-0.53125
 20
-0.84375
 30
0.0
 11
-0.53125
 21
-0.375
 31
0.0
  0
LINE
  8
DAMAN
 10
-0.5625
 20
-0.875
 30
0.0
 11
-0.53125
 21
-0.84375
 31
0.0
  0
ARC
  8
DAMAN
 10
-0.25
 20
-0.125
 30
0.0
 40
0.25
 50
270.0
 51
0.0
  0
ARC
  8
DAMAN
 10
-0.25
 20
-0.125
 30
0.0
 40
0.125
 50
270.0
 51
0.0
  0
LINE
  8
DAMAN
 10
-0.543162
 20
-0.03125
 30
0.0
 11
-0.543162
 21
-0.25
 31
0.0
  0
LINE
  8
DAMAN
 10
-0.398825
 20
-0.25
 30
0.0
 11
-0.398825
 21
-0.03125
 31
0.0
  0
ARC
  8
DAMAN
 10
-0.470994
 20
-0.098958
 30
0.0
 40
0.098958
 50
43.173551
 51
136.826449
  0
LINE
  8
DAMAN
 10
-0.398825
 20
-0.03125
 30
0.0
 11
-0.4375
 21
0.0
 31
0.0
  0
LINE
  8
DAMAN
 10
-0.125
 20
0.168162
 30
0.0
 11
-0.34375
 21
0.168162
 31
0.0
  0
LINE
  8
DAMAN
 10
-0.34375
 20
0.023825
 30
0.0
 11
-0.125
 21
0.023825
 31
0.0
  0
LINE
  8
DAMAN
 10
-0.34375
 20
0.456838
 30
0.0
 11
-0.125
 21
0.456838
 31
0.0
  0
LINE
  8
DAMAN
 10
-0.125
 20
0.601175
 30
0.0
 11
-0.34375
 21
0.601175
 31
0.0
  0
ARC
  8
DAMAN
 10
-0.026042
 20
0.3125
 30
0.0
 40
0.348958
 50
155.567302
 51
204.432698
  0
LINE
  8
DAMAN
 10
-0.375
 20
0.5625
 30
0.0
 11
-0.375
 21
0.0625
 31
0.0
  0
LINE
  8
DAMAN
 10
-0.34375
 20
0.023825
 30
0.0
 11
-0.375
 21
0.0625
 31
0.0
  0
ARC
  8
DAMAN
 10
-0.276042
 20
0.095994
 30
0.0
 40
0.098958
 50
133.173551
 51
226.826449
  0
LINE
  8
DAMAN
 10
-0.34375
 20
0.601175
 30
0.0
 11
-0.375
 21
0.5625
 31
0.0
  0
ARC
  8
DAMAN
 10
-0.276042
 20
0.529006
 30
0.0
 40
0.098958
 50
133.173551
 51
226.826449
  0
LINE
  8
DAMAN
 10
0.0
 20
0.625
 30
0.0
 11
-0.125
 21
0.625
 31
0.0
  0
LINE
  8
DAMAN
 10
-0.5
 20
0.3125
 30
0.0
 11
0.375
 21
0.3125
 31
0.0
  0
ENDBLK
  8
0
  0
BLOCK
  8
0
  2
M20
 70
     0
 10
0.0
 20
0.0
 30
0.0
  3
M20
  0
CIRCLE
  8
CSOLID
  6
HIDDEN
 10
0.0
 20
0.0
 30
0.0
 40
0.3937
  0
CIRCLE
  8
CSOLID
 10
0.0
 20
0.0
 30
0.0
 40
0.429134
  0
CIRCLE
  8
CSOLID
 10
0.0
 20
0.0
 30
0.0
 40
0.365
  0
CIRCLE
  8
CSOLID
 10
0.0
 20
0.0
 30
0.0
 40
0.62992
  0
INSERT
  8
DAMAN
  2
100CROSS
 10
0.0
 20
0.0
 30
0.0
 41
0.88
 42
0.88
 43
0.0
  0
CIRCLE
  8
CSOLID
 10
0.0
 20
0.0
 30
0.0
 40
0.531496
  0
ENDBLK
  8
0
  0
BLOCK
  8
0
  2
M18
 70
    64
 10
0.0
 20
0.0
 30
0.0
  3
M18
  0
CIRCLE
  8
CSOLID
  6
HIDDEN
 10
0.0
 20
0.0
 30
0.0
 40
0.35433
  0
CIRCLE
  8
CSOLID
 10
0.0
 20
0.0
 30
0.0
 40
0.38976
  0
CIRCLE
  8
CSOLID
 10
0.0
 20
0.0
 30
0.0
 40
0.32555
  0
CIRCLE
  8
CSOLID
 10
0.0
 20
0.0
 30
0.0
 40
0.5911
  0
INSERT
  8
DAMAN
  2
100CROSS
 10
0.0
 20
0.0
 30
0.0
 41
0.88
 42
0.88
 43
0.0
  0
CIRCLE
  8
CSOLID
 10
0.0
 20
0.0
 30
0.0
 40
0.51181
  0
ENDBLK
  8
0
  0
BLOCK
  8
0
  2
M22T
 70
    64
 10
0.0
 20
0.0
 30
0.0
  3
M22T
  0
CIRCLE
  8
CSOLID
  6
HIDDEN
 10
0.0
 20
0.0
 30
0.0
 40
0.4331
  0
CIRCLE
  8
CSOLID
 10
0.0
 20
0.0
 30
0.0
 40
0.4685
  0
CIRCLE
  8
CSOLID
 10
0.0
 20
0.0
 30
0.0
 40
0.406
  0
CIRCLE
  8
CSOLID
 10
0.0
 20
0.0
 30
0.0
 40
0.6695
  0
INSERT
  8
DAMAN
  2
100CROSS
 10
0.0
 20
0.0
 30
0.0
 41
0.88
 42
0.88
 43
0.0
  0
CIRCLE
  8
CSOLID
 10
0.0
 20
0.0
 30
0.0
 40
0.571
  0
ENDBLK
  8
0
  0
ENDSEC
  0
SECTION
  2
ENTITIES
  0
LINE
  8
DAMAN
 10
0.0
 20
7.0
 30
0.0
 11
3.0
 21
7.0
 31
0.0
  0
LINE
  8
DAMAN
 10
3.0
 20
7.0
 30
0.0
 11
3.0
 21
4.0
 31
0.0
  0
LINE
  8
DAMAN
 10
3.0
 20
4.0
 30
0.0
 11
0.0
 21
4.0
 31
0.0
  0
LINE
  8
DAMAN
  6
HIDDEN
 10
0.0
 20
4.0
 30
0.0
 11
0.0
 21
7.0
 31
0.0
  0
LINE
  8
DAMAN
 10
5.0
 20
7.0
 30
0.0
 11
5.0
 21
4.0
 31
0.0
  0
LINE
  8
DAMAN
 10
5.0
 20
4.0
 30
0.0
 11
15.625
 21
4.0
 31
0.0
  0
LINE
  8
DAMAN
 10
15.625
 20
4.0
 30
0.0
 11
15.625
 21
7.0
 31
0.0
  0
LINE
  8
DAMAN
 10
15.625
 20
7.0
 30
0.0
 11
5.0
 21
7.0
 31
0.0
  0
LINE
  8
DAMAN
 10
17.625
 20
7.0
 30
0.0
 11
17.625
 21
4.0
 31
0.0
  0
LINE
  8
DAMAN
 10
17.625
 20
4.0
 30
0.0
 11
20.625
 21
4.0
 31
0.0
  0
LINE
  8
DAMAN
 10
20.625
 20
7.0
 30
0.0
 11
17.625
 21
7.0
 31
0.0
  0
LINE
  8
DAMAN
 10
5.0
 20
3.0
 30
0.0
 11
15.625
 21
3.0
 31
0.0
  0
LINE
  8
DAMAN
 10
15.625
 20
3.0
 30
0.0
 11
15.625
 21
0.0
 31
0.0
  0
LINE
  8
DAMAN
 10
15.625
 20
0.0
 30
0.0
 11
5.0
 21
0.0
 31
0.0
  0
LINE
  8
DAMAN
 10
5.0
 20
0.0
 30
0.0
 11
5.0
 21
3.0
 31
0.0
  0
INSERT
  8
DAMAN
  2
300MKT
 10
0.0
 20
4.0
 30
0.0
  0
LINE
  8
DAMAN
  6
HIDDEN
 10
20.625
 20
4.0
 30
0.0
 11
20.625
 21
7.0
 31
0.0
  0
INSERT
  8
DAMAN
  2
300MKT
 10
20.625
 20
4.0
 30
0.0
 41
-1.0
  0
INSERT
  8
DAMAN
  2
D03
 10
5.453
 20
6.0
 30
0.0
  0
LINE
  8
DAMAN
 10
16.6245
 20
4.0005
 30
0.0
 11
16.6245
 21
7.0005
 31
0.0
  0
INSERT
  8
DAMAN
  2
100CROSS
 10
16.312
 20
4.313
 30
0.0
 41
-0.34
 42
0.34
 50
270.0
 43
0.34
  0
POLYLINE
  8
DAMAN
 66
     1
 10
0.0
 20
0.0
 30
0.0
 70
   129
  0
VERTEX
  8
DAMAN
 10
16.0625
 20
4.456838
 30
0.0
  0
VERTEX
  8
DAMAN
 10
16.0625
 20
4.168162
 30
0.0
  0
VERTEX
  8
DAMAN
 10
16.3125
 20
4.023825
 30
0.0
  0
VERTEX
  8
DAMAN
 10
16.5625
 20
4.168162
 30
0.0
  0
VERTEX
  8
DAMAN
 10
16.5625
 20
4.456838
 30
0.0
  0
VERTEX
  8
DAMAN
 10
16.3125
 20
4.601175
 30
0.0
  0
SEQEND
  8
DAMAN
  0
CIRCLE
  8
DAMAN
 10
16.313
 20
4.313
 30
0.0
 40
0.249501
  0
INSERT
  8
DAMAN
  2
100CROSS
 10
16.312
 20
6.688
 30
0.0
 41
-0.34
 42
0.34
 50
270.0
 43
0.34
  0
POLYLINE
  8
DAMAN
 66
     1
 10
0.0
 20
0.0
 30
0.0
 70
   129
  0
VERTEX
  8
DAMAN
 10
16.0625
 20
6.831838
 30
0.0
  0
VERTEX
  8
DAMAN
 10
16.0625
 20
6.543162
 30
0.0
  0
VERTEX
  8
DAMAN
 10
16.3125
 20
6.398825
 30
0.0
  0
VERTEX
  8
DAMAN
 10
16.5625
 20
6.543162
 30
0.0
  0
VERTEX
  8
DAMAN
 10
16.5625
 20
6.831838
 30
0.0
  0
VERTEX
  8
DAMAN
 10
16.3125
 20
6.976175
 30
0.0
  0
SEQEND
  8
DAMAN
  0
CIRCLE
  8
DAMAN
 10
16.313
 20
6.688
 30
0.0
 40
0.249501
  0
LINE
  8
DAMAN
 10
16.0005
 20
6.438
 30
0.0
 11
16.0005
 21
6.938
 31
0.0
  0
ARC
  8
DAMAN
 10
15.901542
 20
6.471494
 30
0.0
 40
0.098958
 50
313.173551
 51
46.826449
  0
LINE
  8
DAMAN
 10
15.7505
 20
6.399325
 30
0.0
 11
15.96925
 21
6.399325
 31
0.0
  0
LINE
  8
DAMAN
 10
15.96925
 20
6.399325
 30
0.0
 11
16.0005
 21
6.438
 31
0.0
  0
LINE
  8
DAMAN
 10
16.6245
 20
7.0005
 30
0.0
 11
15.6245
 21
7.0005
 31
0.0
  0
LINE
  8
DAMAN
 10
15.7505
 20
6.832338
 30
0.0
 11
15.96925
 21
6.832338
 31
0.0
  0
LINE
  8
DAMAN
 10
15.96925
 20
6.543662
 30
0.0
 11
15.7505
 21
6.543662
 31
0.0
  0
LINE
  8
DAMAN
 10
15.96925
 20
6.976675
 30
0.0
 11
15.7505
 21
6.976675
 31
0.0
  0
ARC
  8
DAMAN
 10
15.651542
 20
6.688
 30
0.0
 40
0.348958
 50
335.567302
 51
24.432698
  0
ARC
  8
DAMAN
 10
15.901542
 20
6.904506
 30
0.0
 40
0.098958
 50
313.173551
 51
46.826449
  0
LINE
  8
DAMAN
 10
15.96925
 20
6.976675
 30
0.0
 11
16.0005
 21
6.938
 31
0.0
  0
LINE
  8
DAMAN
 10
16.0005
 20
4.063
 30
0.0
 11
16.0005
 21
4.563
 31
0.0
  0
ARC
  8
DAMAN
 10
15.901542
 20
4.529506
 30
0.0
 40
0.098958
 50
313.173551
 51
46.826449
  0
LINE
  8
DAMAN
 10
15.7505
 20
4.457338
 30
0.0
 11
15.96925
 21
4.457338
 31
0.0
  0
LINE
  8
DAMAN
 10
15.7505
 20
4.024325
 30
0.0
 11
15.96925
 21
4.024325
 31
0.0
  0
LINE
  8
DAMAN
 10
15.96925
 20
4.168662
 30
0.0
 11
15.7505
 21
4.168662
 31
0.0
  0
ARC
  8
DAMAN
 10
15.901542
 20
4.096494
 30
0.0
 40
0.098958
 50
313.173551
 51
46.826449
  0
LINE
  8
DAMAN
 10
15.96925
 20
4.024325
 30
0.0
 11
16.0005
 21
4.063
 31
0.0
  0
ARC
  8
DAMAN
 10
15.651542
 20
4.313
 30
0.0
 40
0.348958
 50
335.567302
 51
24.432698
  0
LINE
  8
DAMAN
 10
15.96925
 20
4.601675
 30
0.0
 11
15.7505
 21
4.601675
 31
0.0
  0
LINE
  8
DAMAN
 10
15.96925
 20
4.601675
 30
0.0
 11
16.0005
 21
4.563
 31
0.0
  0
LINE
  8
DAMAN
 10
15.7445
 20
7.0005
 30
0.0
 11
15.7445
 21
4.0005
 31
0.0
  0
LINE
  8
DAMAN
 10
15.6245
 20
4.0005
 30
0.0
 11
16.6245
 21
4.0005
 31
0.0
  0
LINE
  8
DAMAN
 10
4.8805
 20
7.0005
 30
0.0
 11
4.8805
 21
4.0005
 31
0.0
  0
ARC
  8
DAMAN
 10
4.973458
 20
4.313
 30
0.0
 40
0.348958
 50
155.567302
 51
204.432698
  0
LINE
  8
DAMAN
 10
4.6245
 20
4.063
 30
0.0
 11
4.6245
 21
4.563
 31
0.0
  0
CIRCLE
  8
DAMAN
 10
4.312
 20
4.313
 30
0.0
 40
0.249501
  0
POLYLINE
  8
DAMAN
 66
     1
 10
0.0
 20
0.0
 30
0.0
 70
   129
  0
VERTEX
  8
DAMAN
 10
4.5625
 20
4.456838
 30
0.0
  0
VERTEX
  8
DAMAN
 10
4.5625
 20
4.168162
 30
0.0
  0
VERTEX
  8
DAMAN
 10
4.3125
 20
4.023825
 30
0.0
  0
VERTEX
  8
DAMAN
 10
4.0625
 20
4.168162
 30
0.0
  0
VERTEX
  8
DAMAN
 10
4.0625
 20
4.456838
 30
0.0
  0
VERTEX
  8
DAMAN
 10
4.3125
 20
4.601175
 30
0.0
  0
SEQEND
  8
DAMAN
  0
INSERT
  8
DAMAN
  2
100CROSS
 10
4.313
 20
4.313
 30
0.0
 41
0.34
 42
0.34
 50
90.0
 43
0.34
  0
LINE
  8
DAMAN
 10
4.0005
 20
4.0005
 30
0.0
 11
4.0005
 21
7.0005
 31
0.0
  0
LINE
  8
DAMAN
 10
4.4995
 20
4.313
 30
0.0
 11
5.069581
 21
4.313
 31
0.0
  0
LINE
  8
DAMAN
 10
5.0005
 20
4.0005
 30
0.0
 11
4.0005
 21
4.0005
 31
0.0
  0
ARC
  8
DAMAN
 10
4.723458
 20
4.096494
 30
0.0
 40
0.098958
 50
133.173551
 51
226.826449
  0
LINE
  8
DAMAN
 10
4.8745
 20
4.024325
 30
0.0
 11
4.65575
 21
4.024325
 31
0.0
  0
LINE
  8
DAMAN
 10
4.65575
 20
4.024325
 30
0.0
 11
4.6245
 21
4.063
 31
0.0
  0
LINE
  8
DAMAN
 10
4.65575
 20
4.168662
 30
0.0
 11
4.8745
 21
4.168662
 31
0.0
  0
LINE
  8
DAMAN
 10
4.65575
 20
4.601675
 30
0.0
 11
4.8745
 21
4.601675
 31
0.0
  0
LINE
  8
DAMAN
 10
4.8745
 20
4.457338
 30
0.0
 11
4.65575
 21
4.457338
 31
0.0
  0
LINE
  8
DAMAN
 10
4.65575
 20
4.601675
 30
0.0
 11
4.6245
 21
4.563
 31
0.0
  0
ARC
  8
DAMAN
 10
4.723458
 20
4.529506
 30
0.0
 40
0.098958
 50
133.173551
 51
226.826449
  0
LINE
  8
DAMAN
 10
4.4995
 20
6.688
 30
0.0
 11
5.069581
 21
6.688
 31
0.0
  0
LINE
  8
DAMAN
 10
4.0005
 20
7.0005
 30
0.0
 11
5.0005
 21
7.0005
 31
0.0
  0
ARC
  8
DAMAN
 10
4.973458
 20
6.688
 30
0.0
 40
0.348958
 50
155.567302
 51
204.432698
  0
LINE
  8
DAMAN
 10
4.6245
 20
6.438
 30
0.0
 11
4.6245
 21
6.938
 31
0.0
  0
CIRCLE
  8
DAMAN
 10
4.312
 20
6.688
 30
0.0
 40
0.249501
  0
POLYLINE
  8
DAMAN
 66
     1
 10
0.0
 20
0.0
 30
0.0
 70
   129
  0
VERTEX
  8
DAMAN
 10
4.5625
 20
6.831838
 30
0.0
  0
VERTEX
  8
DAMAN
 10
4.5625
 20
6.543162
 30
0.0
  0
VERTEX
  8
DAMAN
 10
4.3125
 20
6.398825
 30
0.0
  0
VERTEX
  8
DAMAN
 10
4.0625
 20
6.543162
 30
0.0
  0
VERTEX
  8
DAMAN
 10
4.0625
 20
6.831838
 30
0.0
  0
VERTEX
  8
DAMAN
 10
4.3125
 20
6.976175
 30
0.0
  0
SEQEND
  8
DAMAN
  0
INSERT
  8
DAMAN
  2
100CROSS
 10
4.313
 20
6.688
 30
0.0
 41
0.34
 42
0.34
 50
90.0
 43
0.34
  0
LINE
  8
DAMAN
 10
4.65575
 20
6.543662
 30
0.0
 11
4.8745
 21
6.543662
 31
0.0
  0
LINE
  8
DAMAN
 10
4.8745
 20
6.399325
 30
0.0
 11
4.65575
 21
6.399325
 31
0.0
  0
LINE
  8
DAMAN
 10
4.65575
 20
6.399325
 30
0.0
 11
4.6245
 21
6.438
 31
0.0
  0
ARC
  8
DAMAN
 10
4.723458
 20
6.471494
 30
0.0
 40
0.098958
 50
133.173551
 51
226.826449
  0
ARC
  8
DAMAN
 10
4.723458
 20
6.904506
 30
0.0
 40
0.098958
 50
133.173551
 51
226.826449
  0
LINE
  8
DAMAN
 10
4.8745
 20
6.832338
 30
0.0
 11
4.65575
 21
6.832338
 31
0.0
  0
LINE
  8
DAMAN
 10
4.65575
 20
6.976675
 30
0.0
 11
4.8745
 21
6.976675
 31
0.0
  0
LINE
  8
DAMAN
 10
4.65575
 20
6.976675
 30
0.0
 11
4.6245
 21
6.938
 31
0.0
  0
INSERT
  8
DAMAN
  2
300MKS
 10
5.0
 20
0.0
 30
0.0
  0
INSERT
  8
DAMAN
  2
300MKS
 10
15.625
 20
0.0
 30
0.0
 41
-1.0
  0
TEXT
  8
DAMAN
 10
6.701777
 20
2.741879
 30
0.0
 40
0.188
  1
B
  0
TEXT
  8
DAMAN
 10
6.701777
 20
0.96069
 30
0.0
 40
0.188
  1
A
  0
TEXT
  8
DAMAN
 10
2.104426
 20
6.820938
 30
0.0
 40
0.188
  1
T
 50
270.0
  0
TEXT
  8
DAMAN
 10
2.145231
 20
4.291922
 30
0.0
 40
0.188
  1
P
 50
270.0
  0
TEXT
  8
DAMAN
 10
18.452566
 20
4.183147
 30
0.0
 40
0.188
  1
P
 50
90.0
  0
TEXT
  8
DAMAN
 10
18.452566
 20
6.671373
 30
0.0
 40
0.188
  1
T
 50
90.0
  0
INSERT
  8
DAMAN
  2
M18
 10
6.0625
 20
2.375
 30
0.0
  0
INSERT
  8
DAMAN
  2
M18
 10
6.0625
 20
0.625
 30
0.0
  0
INSERT
  8
DAMAN
  2
M18
 10
8.1875
 20
0.625
 30
0.0
  0
INSERT
  8
DAMAN
  2
M18
 10
8.1875
 20
2.375
 30
0.0
  0
INSERT
  8
DAMAN
  2
D03
 10
7.578
 20
6.0
 30
0.0
  0
TEXT
  8
DAMAN
 10
8.826777
 20
0.96069
 30
0.0
 40
0.188
  1
A
  0
TEXT
  8
DAMAN
 10
8.826777
 20
2.741879
 30
0.0
 40
0.188
  1
B
  0
TEXT
  8
DAMAN
 10
6.389966
 20
1.384132
 30
0.0
 40
0.188
  1
DAMAN ****
  0
INSERT
  8
DAMAN
  2
M22T
 10
1.5
 20
4.8125
 30
0.0
  0
INSERT
  8
DAMAN
  2
M22T
 10
1.5
 20
6.1875
 30
0.0
  0
INSERT
  8
DAMAN
  2
M22T
 10
19.125
 20
4.8125
 30
0.0
  0
INSERT
  8
DAMAN
  2
M22T
 10
19.125
 20
6.1875
 30
0.0
  0
INSERT
  8
DAMAN
  2
D03
 10
9.703
 20
6.0
 30
0.0
  0
INSERT
  8
DAMAN
  2
M18
 10
10.3125
 20
0.625
 30
0.0
  0
INSERT
  8
DAMAN
  2
M18
 10
10.3125
 20
2.375
 30
0.0
  0
TEXT
  8
DAMAN
 10
10.951777
 20
0.96069
 30
0.0
 40
0.188
  1
A
  0
TEXT
  8
DAMAN
 10
10.951777
 20
2.741879
 30
0.0
 40
0.188
  1
B
  0
INSERT
  8
DAMAN
  2
D03
 10
11.828
 20
6.0
 30
0.0
  0
INSERT
  8
DAMAN
  2
M18
 10
12.4375
 20
0.625
 30
0.0
  0
INSERT
  8
DAMAN
  2
M18
 10
12.4375
 20
2.375
 30
0.0
  0
TEXT
  8
DAMAN
 10
13.076777
 20
0.96069
 30
0.0
 40
0.188
  1
A
  0
TEXT
  8
DAMAN
 10
13.076777
 20
2.741879
 30
0.0
 40
0.188
  1
B
  0
INSERT
  8
DAMAN
  2
M18
 10
14.5625
 20
0.625
 30
0.0
  0
INSERT
  8
DAMAN
  2
M18
 10
14.5625
 20
2.375
 30
0.0
  0
TEXT
  8
DAMAN
 10
15.201777
 20
0.96069
 30
0.0
 40
0.188
  1
A
  0
TEXT
  8
DAMAN
 10
15.201777
 20
2.741879
 30
0.0
 40
0.188
  1
B
  0
INSERT
  8
DAMAN
  2
D03
 10
13.953
 20
6.0
 30
0.0
  0
ENDSEC
  0
EOF
