  0
SECTION
  2
HEADER
  9
$ACADVER
  1
AC1014
  9
$ACADMAINTVER
 70
     9
  9
$DWGCODEPAGE
  3
ANSI_1252
  9
$INSBASE
 10
0.0
 20
0.0
 30
0.0
  9
$EXTMIN
 10
-1.031247749497993
 20
-1.031556106100101
 30
-0.0015258207003583
  9
$EXTMAX
 10
15.28124782545433
 20
7.12526323528467
 30
0.0000000349246037
  9
$LIMMIN
 10
0.0
 20
0.0
  9
$LIMMAX
 10
12.0
 20
9.0
  9
$ORTHOMODE
 70
     0
  9
$REGENMODE
 70
     1
  9
$FILLMODE
 70
     1
  9
$QTEXTMODE
 70
     0
  9
$MIRRTEXT
 70
     1
  9
$DRAGMODE
 70
     2
  9
$LTSCALE
 40
1.0
  9
$OSMODE
 70
    37
  9
$ATTMODE
 70
     1
  9
$TEXTSIZE
 40
0.15
  9
$TRACEWID
 40
0.05
  9
$TEXTSTYLE
  7
STANDARD
  9
$CLAYER
  8
DAMAN
  9
$CELTYPE
  6
BYLAYER
  9
$CECOLOR
 62
   256
  9
$CELTSCALE
 40
1.0
  9
$DELOBJ
 70
     1
  9
$DISPSILH
 70
     0
  9
$DIMSCALE
 40
1.0
  9
$DIMASZ
 40
0.18
  9
$DIMEXO
 40
0.0625
  9
$DIMDLI
 40
0.38
  9
$DIMRND
 40
0.0
  9
$DIMDLE
 40
0.0
  9
$DIMEXE
 40
0.18
  9
$DIMTP
 40
0.0
  9
$DIMTM
 40
0.0
  9
$DIMTXT
 40
0.18
  9
$DIMCEN
 40
0.09
  9
$DIMTSZ
 40
0.0
  9
$DIMTOL
 70
     0
  9
$DIMLIM
 70
     0
  9
$DIMTIH
 70
     1
  9
$DIMTOH
 70
     1
  9
$DIMSE1
 70
     0
  9
$DIMSE2
 70
     0
  9
$DIMTAD
 70
     0
  9
$DIMZIN
 70
     0
  9
$DIMBLK
  1

  9
$DIMASO
 70
     1
  9
$DIMSHO
 70
     1
  9
$DIMPOST
  1

  9
$DIMAPOST
  1

  9
$DIMALT
 70
     0
  9
$DIMALTD
 70
     2
  9
$DIMALTF
 40
25.4
  9
$DIMLFAC
 40
1.0
  9
$DIMTOFL
 70
     0
  9
$DIMTVP
 40
0.0
  9
$DIMTIX
 70
     0
  9
$DIMSOXD
 70
     0
  9
$DIMSAH
 70
     0
  9
$DIMBLK1
  1

  9
$DIMBLK2
  1

  9
$DIMSTYLE
  2
STANDARD
  9
$DIMCLRD
 70
     0
  9
$DIMCLRE
 70
     0
  9
$DIMCLRT
 70
     0
  9
$DIMTFAC
 40
1.0
  9
$DIMGAP
 40
0.09
  9
$DIMJUST
 70
     0
  9
$DIMSD1
 70
     0
  9
$DIMSD2
 70
     0
  9
$DIMTOLJ
 70
     1
  9
$DIMTZIN
 70
     0
  9
$DIMALTZ
 70
     0
  9
$DIMALTTZ
 70
     0
  9
$DIMFIT
 70
     3
  9
$DIMUPT
 70
     0
  9
$DIMUNIT
 70
     2
  9
$DIMDEC
 70
     4
  9
$DIMTDEC
 70
     4
  9
$DIMALTU
 70
     2
  9
$DIMALTTD
 70
     2
  9
$DIMTXSTY
  7
STANDARD
  9
$DIMAUNIT
 70
     0
  9
$LUNITS
 70
     2
  9
$LUPREC
 70
     4
  9
$SKETCHINC
 40
0.1
  9
$FILLETRAD
 40
0.0
  9
$AUNITS
 70
     0
  9
$AUPREC
 70
     0
  9
$MENU
  1
tom
  9
$ELEVATION
 40
0.0
  9
$PELEVATION
 40
0.0
  9
$THICKNESS
 40
0.0
  9
$LIMCHECK
 70
     0
  9
$BLIPMODE
 70
     0
  9
$CHAMFERA
 40
0.0
  9
$CHAMFERB
 40
0.0
  9
$CHAMFERC
 40
0.0
  9
$CHAMFERD
 40
0.0
  9
$SKPOLY
 70
     0
  9
$TDCREATE
 40
2448986.483944456
  9
$TDUPDATE
 40
2453410.657516955
  9
$TDINDWG
 40
0.0063547685
  9
$TDUSRTIMER
 40
0.0063547685
  9
$USRTIMER
 70
     1
  9
$ANGBASE
 50
0.0
  9
$ANGDIR
 70
     0
  9
$PDMODE
 70
     0
  9
$PDSIZE
 40
0.0
  9
$PLINEWID
 40
0.0
  9
$COORDS
 70
     1
  9
$SPLFRAME
 70
     0
  9
$SPLINETYPE
 70
     6
  9
$SPLINESEGS
 70
     8
  9
$ATTDIA
 70
     0
  9
$ATTREQ
 70
     1
  9
$HANDLING
 70
-16383
  9
$HANDSEED
  5
180
  9
$SURFTAB1
 70
     6
  9
$SURFTAB2
 70
     6
  9
$SURFTYPE
 70
     6
  9
$SURFU
 70
     6
  9
$SURFV
 70
     6
  9
$UCSNAME
  2

  9
$UCSORG
 10
0.0
 20
0.0
 30
0.0
  9
$UCSXDIR
 10
1.0
 20
0.0
 30
0.0
  9
$UCSYDIR
 10
0.0
 20
1.0
 30
0.0
  9
$PUCSNAME
  2

  9
$PUCSORG
 10
0.0
 20
0.0
 30
0.0
  9
$PUCSXDIR
 10
1.0
 20
0.0
 30
0.0
  9
$PUCSYDIR
 10
0.0
 20
1.0
 30
0.0
  9
$USERI1
 70
     0
  9
$USERI2
 70
     0
  9
$USERI3
 70
     0
  9
$USERI4
 70
     0
  9
$USERI5
 70
     0
  9
$USERR1
 40
0.0
  9
$USERR2
 40
0.0
  9
$USERR3
 40
0.0
  9
$USERR4
 40
0.0
  9
$USERR5
 40
0.0
  9
$WORLDVIEW
 70
     1
  9
$SHADEDGE
 70
     3
  9
$SHADEDIF
 70
    70
  9
$TILEMODE
 70
     1
  9
$MAXACTVP
 70
    16
  9
$PINSBASE
 10
0.0
 20
0.0
 30
0.0
  9
$PLIMCHECK
 70
     0
  9
$PEXTMIN
 10
1.000000000000000E+20
 20
1.000000000000000E+20
 30
1.000000000000000E+20
  9
$PEXTMAX
 10
-1.000000000000000E+20
 20
-1.000000000000000E+20
 30
-1.000000000000000E+20
  9
$PLIMMIN
 10
0.0
 20
0.0
  9
$PLIMMAX
 10
12.0
 20
9.0
  9
$UNITMODE
 70
     0
  9
$VISRETAIN
 70
     0
  9
$PLINEGEN
 70
     0
  9
$PSLTSCALE
 70
     1
  9
$TREEDEPTH
 70
  3020
  9
$PICKSTYLE
 70
     1
  9
$CMLSTYLE
  2
STANDARD
  9
$CMLJUST
 70
     0
  9
$CMLSCALE
 40
1.0
  9
$PROXYGRAPHICS
 70
     1
  9
$MEASUREMENT
 70
     0
  0
ENDSEC
  0
SECTION
  2
CLASSES
  0
CLASS
  1
ACDBDICTIONARYWDFLT
  2
AcDbDictionaryWithDefault
  3
AutoCAD 2000
 90
        0
280
     0
281
     0
  0
CLASS
  1
ACDBPLACEHOLDER
  2
AcDbPlaceHolder
  3
AutoCAD 2000
 90
        0
280
     0
281
     0
  0
CLASS
  1
LAYOUT
  2
AcDbLayout
  3
AutoCAD 2000
 90
        0
280
     0
281
     0
  0
CLASS
  1
LONG_TRANSACTION
  2
AcDbLongTransaction
  3
AutoCAD 2000
 90
        0
280
     0
281
     0
  0
CLASS
  1
LWPOLYLINE
  2
AcDbPolyline
  3
AutoCAD 2000
 90
        0
280
     0
281
     1
  0
CLASS
  1
HATCH
  2
AcDbHatch
  3
AutoCAD 2000
 90
        0
280
     0
281
     1
  0
CLASS
  1
XRECORD
  2
AcDbXrecord
  3
AutoCAD 2000
 90
        0
280
     0
281
     0
  0
ENDSEC
  0
SECTION
  2
TABLES
  0
TABLE
  2
VPORT
  5
8
330
0
100
AcDbSymbolTable
 70
     2
  0
VPORT
  5
15B
330
8
100
AcDbSymbolTableRecord
100
AcDbViewportTableRecord
  2
*ACTIVE
 70
     0
 10
0.0
 20
0.0
 11
1.0
 21
1.0
 12
7.125000037978172
 22
3.046853564592284
 13
0.0
 23
0.0
 14
0.125
 24
0.125
 15
0.0
 25
0.0
 16
0.0
 26
0.0
 36
1.0
 17
0.0
 27
0.0
 37
0.0
 40
9.963435373182647
 41
1.647569444444444
 42
50.0
 43
0.0
 44
0.0
 50
0.0
 51
0.0
 71
     0
 72
   100
 73
     1
 74
     1
 75
     0
 76
     0
 77
     0
 78
     0
  0
ENDTAB
  0
TABLE
  2
LTYPE
  5
5
330
0
100
AcDbSymbolTable
 70
     4
  0
LTYPE
  5
13
330
5
100
AcDbSymbolTableRecord
100
AcDbLinetypeTableRecord
  2
BYBLOCK
 70
     0
  3

 72
    65
 73
     0
 40
0.0
  0
LTYPE
  5
14
330
5
100
AcDbSymbolTableRecord
100
AcDbLinetypeTableRecord
  2
BYLAYER
 70
     0
  3

 72
    65
 73
     0
 40
0.0
  0
LTYPE
  5
15
330
5
100
AcDbSymbolTableRecord
100
AcDbLinetypeTableRecord
  2
CONTINUOUS
 70
     0
  3
Solid line
 72
    65
 73
     0
 40
0.0
  0
LTYPE
  5
24
330
5
100
AcDbSymbolTableRecord
100
AcDbLinetypeTableRecord
  2
HIDDEN
 70
     0
  3
__ __ __ __ __ __ __ __ __ __ __ __ __ __ __ __
 72
    65
 73
     2
 40
0.375
 49
0.25
 74
     0
 49
-0.125
 74
     0
  0
LTYPE
  5
25
330
5
100
AcDbSymbolTableRecord
100
AcDbLinetypeTableRecord
  2
DOT
 70
     0
  3
. . . . . . . . . . . . . . . . . . . . . . . .
 72
    65
 73
     2
 40
0.25
 49
0.0
 74
     0
 49
-0.25
 74
     0
  0
LTYPE
  5
26
330
5
100
AcDbSymbolTableRecord
100
AcDbLinetypeTableRecord
  2
DASHED
 70
     0
  3
__ __ __ __ __ __ __ __ __ __ __ __ __ __ __ __
 72
    65
 73
     2
 40
0.75
 49
0.5
 74
     0
 49
-0.25
 74
     0
  0
ENDTAB
  0
TABLE
  2
LAYER
  5
2
330
0
100
AcDbSymbolTable
 70
     3
  0
LAYER
  5
10
330
2
100
AcDbSymbolTableRecord
100
AcDbLayerTableRecord
  2
0
 70
     0
 62
     7
  6
CONTINUOUS
  0
LAYER
  5
22
330
2
100
AcDbSymbolTableRecord
100
AcDbLayerTableRecord
  2
DAMAN
 70
     0
 62
     5
  6
CONTINUOUS
  0
LAYER
  5
27
330
2
100
AcDbSymbolTableRecord
100
AcDbLayerTableRecord
  2
CSOLID
 70
     0
 62
     5
  6
CONTINUOUS
  0
ENDTAB
  0
TABLE
  2
STYLE
  5
3
330
0
100
AcDbSymbolTable
 70
     1
  0
STYLE
  5
11
330
3
100
AcDbSymbolTableRecord
100
AcDbTextStyleTableRecord
  2
STANDARD
 70
     0
 40
0.0
 41
1.0
 50
0.0
 71
     0
 42
0.15
  3
txt
  4

  0
ENDTAB
  0
TABLE
  2
VIEW
  5
6
330
0
100
AcDbSymbolTable
 70
     0
  0
ENDTAB
  0
TABLE
  2
UCS
  5
7
330
0
100
AcDbSymbolTable
 70
     0
  0
ENDTAB
  0
TABLE
  2
APPID
  5
9
330
0
100
AcDbSymbolTable
 70
     1
  0
APPID
  5
12
330
9
100
AcDbSymbolTableRecord
100
AcDbRegAppTableRecord
  2
ACAD
 70
     0
  0
ENDTAB
  0
TABLE
  2
DIMSTYLE
  5
A
330
0
100
AcDbSymbolTable
 70
     1
  0
DIMSTYLE
105
159
330
A
100
AcDbSymbolTableRecord
100
AcDbDimStyleTableRecord
  2
STANDARD
 70
     0
  3

  4

  5

  6

  7

 40
1.0
 41
0.18
 42
0.0625
 43
0.38
 44
0.18
 45
0.0
 46
0.0
 47
0.0
 48
0.0
140
0.18
141
0.09
142
0.0
143
25.4
144
1.0
145
0.0
146
1.0
147
0.09
 71
     0
 72
     0
 73
     1
 74
     1
 75
     0
 76
     0
 77
     0
 78
     0
170
     0
171
     2
172
     0
173
     0
174
     0
175
     0
176
     0
177
     0
178
     0
270
     2
271
     4
272
     4
273
     2
274
     2
340
11
275
     0
280
     0
281
     0
282
     0
283
     1
284
     0
285
     0
286
     0
287
     3
288
     0
  0
ENDTAB
  0
TABLE
  2
BLOCK_RECORD
  5
1
330
0
100
AcDbSymbolTable
 70
     8
  0
BLOCK_RECORD
  5
1E
102
{ACAD_XDICTIONARY
360
17E
102
}
330
1
100
AcDbSymbolTableRecord
100
AcDbBlockTableRecord
  2
*MODEL_SPACE
  0
BLOCK_RECORD
  5
1A
102
{ACAD_XDICTIONARY
360
17C
102
}
330
1
100
AcDbSymbolTableRecord
100
AcDbBlockTableRecord
  2
*PAPER_SPACE
  0
BLOCK_RECORD
  5
29
330
1
100
AcDbSymbolTableRecord
100
AcDbBlockTableRecord
  2
300MKT
  0
BLOCK_RECORD
  5
2C
330
1
100
AcDbSymbolTableRecord
100
AcDbBlockTableRecord
  2
100CROSS
  0
BLOCK_RECORD
  5
6D
330
1
100
AcDbSymbolTableRecord
100
AcDbBlockTableRecord
  2
050CROSS
  0
BLOCK_RECORD
  5
78
330
1
100
AcDbSymbolTableRecord
100
AcDbBlockTableRecord
  2
D03
  0
BLOCK_RECORD
  5
93
330
1
100
AcDbSymbolTableRecord
100
AcDbBlockTableRecord
  2
10SAET
  0
BLOCK_RECORD
  5
9B
330
1
100
AcDbSymbolTableRecord
100
AcDbBlockTableRecord
  2
08SAET
  0
BLOCK_RECORD
  5
A3
330
1
100
AcDbSymbolTableRecord
100
AcDbBlockTableRecord
  2
300MKS
  0
BLOCK_RECORD
  5
CC
330
1
100
AcDbSymbolTableRecord
100
AcDbBlockTableRecord
  2
06SAET
  0
ENDTAB
  0
ENDSEC
  0
SECTION
  2
BLOCKS
  0
BLOCK
  5
1F
330
1E
100
AcDbEntity
  8
0
100
AcDbBlockBegin
  2
*MODEL_SPACE
 70
     0
 10
0.0
 20
0.0
 30
0.0
  3
*MODEL_SPACE
  1

  0
ENDBLK
  5
20
330
1E
100
AcDbEntity
  8
0
100
AcDbBlockEnd
  0
BLOCK
  5
1B
330
1A
100
AcDbEntity
 67
     1
  8
0
100
AcDbBlockBegin
  2
*PAPER_SPACE
 70
     0
 10
0.0
 20
0.0
 30
0.0
  3
*PAPER_SPACE
  1

  0
ENDBLK
  5
1C
330
1A
100
AcDbEntity
 67
     1
  8
0
100
AcDbBlockEnd
  0
BLOCK
  5
2A
330
29
100
AcDbEntity
  8
0
100
AcDbBlockBegin
  2
300MKT
 70
     0
 10
0.0
 20
0.0
 30
0.0
  3
300MKT
  1

  0
LINE
  5
2B
330
29
100
AcDbEntity
  8
DAMAN
100
AcDbLine
 10
0.6245000000000001
 20
0.0005
 30
0.0
 11
0.6245000000000001
 21
3.0005
 31
0.0
  0
INSERT
  5
2D
330
29
100
AcDbEntity
  8
DAMAN
100
AcDbBlockReference
  2
100CROSS
 10
0.312
 20
0.313
 30
0.0
 41
-0.34
 42
0.34
 43
0.34
 50
270.0
  0
LWPOLYLINE
  5
2E
330
29
100
AcDbEntity
  8
DAMAN
100
AcDbPolyline
 90
        6
 70
   129
 43
0.0
 10
0.0625
 20
0.4568380000000001
 10
0.0625
 20
0.168162
 10
0.3125
 20
0.023825
 10
0.5625
 20
0.168162
 10
0.5625
 20
0.4568380000000001
 10
0.3125
 20
0.6011750000000001
  0
CIRCLE
  5
36
330
29
100
AcDbEntity
  8
DAMAN
100
AcDbCircle
 10
0.313
 20
0.313
 30
0.0
 40
0.249501
  0
LINE
  5
37
330
29
100
AcDbEntity
  8
DAMAN
100
AcDbLine
 10
-0.84325
 20
2.53175
 30
0.0
 11
-0.3745
 21
2.53175
 31
0.0
  0
LINE
  5
38
330
29
100
AcDbEntity
  8
DAMAN
100
AcDbLine
 10
-0.3745
 20
2.84425
 30
0.0
 11
-0.84325
 21
2.84425
 31
0.0
  0
LINE
  5
39
330
29
100
AcDbEntity
  8
DAMAN
  6
HIDDEN
100
AcDbLine
 10
-0.8745
 20
2.813
 30
0.0
 11
-0.3745
 21
2.813
 31
0.0
  0
LINE
  5
3A
330
29
100
AcDbEntity
  8
DAMAN
  6
HIDDEN
100
AcDbLine
 10
-0.3745
 20
2.563
 30
0.0
 11
-0.8745
 21
2.563
 31
0.0
  0
LINE
  5
3B
330
29
100
AcDbEntity
  8
DAMAN
100
AcDbLine
 10
0.1255
 20
2.688
 30
0.0
 11
-1.03075
 21
2.688
 31
0.0
  0
LINE
  5
3C
330
29
100
AcDbEntity
  8
DAMAN
100
AcDbLine
 10
-0.84325
 20
2.84425
 30
0.0
 11
-0.84325
 21
2.53175
 31
0.0
  0
LINE
  5
3D
330
29
100
AcDbEntity
  8
DAMAN
100
AcDbLine
 10
-0.84325
 20
2.84425
 30
0.0
 11
-0.8745
 21
2.813
 31
0.0
  0
LINE
  5
3E
330
29
100
AcDbEntity
  8
DAMAN
100
AcDbLine
 10
-0.8745
 20
2.563
 30
0.0
 11
-0.84325
 21
2.53175
 31
0.0
  0
LINE
  5
3F
330
29
100
AcDbEntity
  8
DAMAN
100
AcDbLine
 10
-0.8745
 20
2.813
 30
0.0
 11
-0.8745
 21
2.563
 31
0.0
  0
INSERT
  5
40
330
29
100
AcDbEntity
  8
DAMAN
100
AcDbBlockReference
  2
100CROSS
 10
0.312
 20
2.688
 30
0.0
 41
-0.34
 42
0.34
 43
0.34
 50
270.0
  0
LWPOLYLINE
  5
41
330
29
100
AcDbEntity
  8
DAMAN
100
AcDbPolyline
 90
        6
 70
   129
 43
0.0
 10
0.0625
 20
2.831838
 10
0.0625
 20
2.543161999999999
 10
0.3125
 20
2.398824999999999
 10
0.5625
 20
2.543161999999999
 10
0.5625
 20
2.831838
 10
0.3125
 20
2.976174999999999
  0
CIRCLE
  5
49
330
29
100
AcDbEntity
  8
DAMAN
100
AcDbCircle
 10
0.313
 20
2.688
 30
0.0
 40
0.249501
  0
LINE
  5
4A
330
29
100
AcDbEntity
  8
DAMAN
100
AcDbLine
 10
0.0005
 20
2.438
 30
0.0
 11
0.0005
 21
2.938
 31
0.0
  0
ARC
  5
4B
330
29
100
AcDbEntity
  8
DAMAN
100
AcDbCircle
 10
-0.098458
 20
2.471493999999999
 30
0.0
 40
0.098958
100
AcDbArc
 50
313.1735509999999
 51
46.826449
  0
LINE
  5
4C
330
29
100
AcDbEntity
  8
DAMAN
100
AcDbLine
 10
-0.2495
 20
2.399325
 30
0.0
 11
-0.03075
 21
2.399325
 31
0.0
  0
LINE
  5
4D
330
29
100
AcDbEntity
  8
DAMAN
100
AcDbLine
 10
-0.03075
 20
2.399325
 30
0.0
 11
0.0005
 21
2.438
 31
0.0
  0
LINE
  5
4E
330
29
100
AcDbEntity
  8
DAMAN
100
AcDbLine
 10
0.6245000000000001
 20
3.0005
 30
0.0
 11
-0.3755
 21
3.0005
 31
0.0
  0
LINE
  5
4F
330
29
100
AcDbEntity
  8
DAMAN
100
AcDbLine
 10
-0.2495
 20
2.832338
 30
0.0
 11
-0.03075
 21
2.832338
 31
0.0
  0
LINE
  5
50
330
29
100
AcDbEntity
  8
DAMAN
100
AcDbLine
 10
-0.03075
 20
2.543661999999999
 30
0.0
 11
-0.2495
 21
2.543661999999999
 31
0.0
  0
LINE
  5
51
330
29
100
AcDbEntity
  8
DAMAN
100
AcDbLine
 10
-0.03075
 20
2.976675
 30
0.0
 11
-0.2495
 21
2.976675
 31
0.0
  0
ARC
  5
52
330
29
100
AcDbEntity
  8
DAMAN
100
AcDbCircle
 10
-0.348458
 20
2.688
 30
0.0
 40
0.348958
100
AcDbArc
 50
335.5673019999999
 51
24.432698
  0
ARC
  5
53
330
29
100
AcDbEntity
  8
DAMAN
100
AcDbCircle
 10
-0.098458
 20
2.904505999999999
 30
0.0
 40
0.098958
100
AcDbArc
 50
313.1735509999999
 51
46.826449
  0
LINE
  5
54
330
29
100
AcDbEntity
  8
DAMAN
100
AcDbLine
 10
-0.03075
 20
2.976675
 30
0.0
 11
0.0005
 21
2.938
 31
0.0
  0
LINE
  5
55
330
29
100
AcDbEntity
  8
DAMAN
100
AcDbLine
 10
-0.3745
 20
0.46925
 30
0.0
 11
-0.84325
 21
0.46925
 31
0.0
  0
LINE
  5
56
330
29
100
AcDbEntity
  8
DAMAN
  6
HIDDEN
100
AcDbLine
 10
-0.8745
 20
0.4379999999999999
 30
0.0
 11
-0.3745
 21
0.4379999999999999
 31
0.0
  0
LINE
  5
57
330
29
100
AcDbEntity
  8
DAMAN
100
AcDbLine
 10
-0.84325
 20
0.15675
 30
0.0
 11
-0.3745
 21
0.15675
 31
0.0
  0
LINE
  5
58
330
29
100
AcDbEntity
  8
DAMAN
  6
HIDDEN
100
AcDbLine
 10
-0.3745
 20
0.188
 30
0.0
 11
-0.8745
 21
0.188
 31
0.0
  0
LINE
  5
59
330
29
100
AcDbEntity
  8
DAMAN
100
AcDbLine
 10
0.1255
 20
0.313
 30
0.0
 11
-1.03075
 21
0.313
 31
0.0
  0
LINE
  5
5A
330
29
100
AcDbEntity
  8
DAMAN
100
AcDbLine
 10
-0.84325
 20
0.46925
 30
0.0
 11
-0.84325
 21
0.15675
 31
0.0
  0
LINE
  5
5B
330
29
100
AcDbEntity
  8
DAMAN
100
AcDbLine
 10
-0.8745
 20
0.188
 30
0.0
 11
-0.84325
 21
0.15675
 31
0.0
  0
LINE
  5
5C
330
29
100
AcDbEntity
  8
DAMAN
100
AcDbLine
 10
-0.8745
 20
0.4379999999999999
 30
0.0
 11
-0.8745
 21
0.188
 31
0.0
  0
LINE
  5
5D
330
29
100
AcDbEntity
  8
DAMAN
100
AcDbLine
 10
-0.84325
 20
0.46925
 30
0.0
 11
-0.8745
 21
0.4379999999999999
 31
0.0
  0
LINE
  5
5E
330
29
100
AcDbEntity
  8
DAMAN
100
AcDbLine
 10
0.0005
 20
0.063
 30
0.0
 11
0.0005
 21
0.5629999999999999
 31
0.0
  0
ARC
  5
5F
330
29
100
AcDbEntity
  8
DAMAN
100
AcDbCircle
 10
-0.098458
 20
0.5295060000000001
 30
0.0
 40
0.098958
100
AcDbArc
 50
313.1735509999999
 51
46.826449
  0
LINE
  5
60
330
29
100
AcDbEntity
  8
DAMAN
100
AcDbLine
 10
-0.2495
 20
0.4573380000000001
 30
0.0
 11
-0.03075
 21
0.4573380000000001
 31
0.0
  0
LINE
  5
61
330
29
100
AcDbEntity
  8
DAMAN
100
AcDbLine
 10
-0.2495
 20
0.024325
 30
0.0
 11
-0.03075
 21
0.024325
 31
0.0
  0
LINE
  5
62
330
29
100
AcDbEntity
  8
DAMAN
100
AcDbLine
 10
-0.03075
 20
0.168662
 30
0.0
 11
-0.2495
 21
0.168662
 31
0.0
  0
ARC
  5
63
330
29
100
AcDbEntity
  8
DAMAN
100
AcDbCircle
 10
-0.098458
 20
0.096494
 30
0.0
 40
0.098958
100
AcDbArc
 50
313.1735509999999
 51
46.826449
  0
LINE
  5
64
330
29
100
AcDbEntity
  8
DAMAN
100
AcDbLine
 10
-0.03075
 20
0.024325
 30
0.0
 11
0.0005
 21
0.063
 31
0.0
  0
ARC
  5
65
330
29
100
AcDbEntity
  8
DAMAN
100
AcDbCircle
 10
-0.348458
 20
0.313
 30
0.0
 40
0.348958
100
AcDbArc
 50
335.5673019999999
 51
24.432698
  0
LINE
  5
66
330
29
100
AcDbEntity
  8
DAMAN
100
AcDbLine
 10
-0.03075
 20
0.601675
 30
0.0
 11
-0.2495
 21
0.601675
 31
0.0
  0
LINE
  5
67
330
29
100
AcDbEntity
  8
DAMAN
100
AcDbLine
 10
-0.03075
 20
0.601675
 30
0.0
 11
0.0005
 21
0.5629999999999999
 31
0.0
  0
LINE
  5
68
330
29
100
AcDbEntity
  8
DAMAN
100
AcDbLine
 10
-0.2555
 20
3.0005
 30
0.0
 11
-0.2555
 21
0.0005
 31
0.0
  0
LINE
  5
69
330
29
100
AcDbEntity
  8
DAMAN
100
AcDbLine
 10
-0.3755
 20
3.0005
 30
0.0
 11
-0.3755
 21
0.0005
 31
0.0
  0
LINE
  5
6A
330
29
100
AcDbEntity
  8
DAMAN
100
AcDbLine
 10
-0.3755
 20
0.0005
 30
0.0
 11
0.6245000000000001
 21
0.0005
 31
0.0
  0
ENDBLK
  5
6B
330
29
100
AcDbEntity
  8
0
100
AcDbBlockEnd
  0
BLOCK
  5
6C
330
2C
100
AcDbEntity
  8
0
100
AcDbBlockBegin
  2
100CROSS
 70
     0
 10
5.625
 20
4.59375
 30
0.0
  3
100CROSS
  1

  0
INSERT
  5
6E
330
2C
100
AcDbEntity
  8
0
100
AcDbBlockReference
  2
050CROSS
 10
5.625
 20
4.59375
 30
0.0
  0
ENDBLK
  5
6F
330
2C
100
AcDbEntity
  8
0
100
AcDbBlockEnd
  0
BLOCK
  5
70
330
6D
100
AcDbEntity
  8
0
100
AcDbBlockBegin
  2
050CROSS
 70
     0
 10
5.0
 20
5.0
 30
0.0
  3
050CROSS
  1

  0
LINE
  5
71
330
6D
100
AcDbEntity
  8
0
100
AcDbLine
 10
5.0
 20
5.28125
 30
0.0
 11
5.0
 21
5.78125
 31
0.0
  0
LINE
  5
72
330
6D
100
AcDbEntity
  8
0
100
AcDbLine
 10
5.0
 20
4.875
 30
0.0
 11
5.0
 21
5.125
 31
0.0
  0
LINE
  5
73
330
6D
100
AcDbEntity
  8
0
100
AcDbLine
 10
5.0
 20
4.15625
 30
0.0
 11
5.0
 21
4.71875
 31
0.0
  0
LINE
  5
74
330
6D
100
AcDbEntity
  8
0
100
AcDbLine
 10
5.25
 20
5.0
 30
0.0
 11
5.8125
 21
5.0
 31
0.0
  0
LINE
  5
75
330
6D
100
AcDbEntity
  8
0
100
AcDbLine
 10
4.90625
 20
5.0
 30
0.0
 11
5.09375
 21
5.0
 31
0.0
  0
LINE
  5
76
330
6D
100
AcDbEntity
  8
0
100
AcDbLine
 10
4.1875
 20
5.0
 30
0.0
 11
4.75
 21
5.0
 31
0.0
  0
ENDBLK
  5
77
330
6D
100
AcDbEntity
  8
0
100
AcDbBlockEnd
  0
BLOCK
  5
79
330
78
100
AcDbEntity
  8
0
100
AcDbBlockBegin
  2
D03
 70
     0
 10
0.0
 20
0.0
 30
0.0
  3
D03
  1

  0
INSERT
  5
7A
330
78
100
AcDbEntity
  8
DAMAN
100
AcDbBlockReference
  2
100CROSS
 10
0.61
 20
-1.1875
 30
0.0
 41
0.25
 42
0.25
  0
INSERT
  5
7B
330
78
100
AcDbEntity
  8
DAMAN
100
AcDbBlockReference
  2
100CROSS
 10
0.61
 20
-0.5
 30
0.0
 41
0.25
 42
0.25
  0
CIRCLE
  5
7C
330
78
100
AcDbEntity
  8
DAMAN
100
AcDbCircle
 10
0.61
 20
-0.5
 30
0.0
 40
0.141125
  0
CIRCLE
  5
7D
330
78
100
AcDbEntity
  8
DAMAN
100
AcDbCircle
 10
0.61
 20
-1.1875
 30
0.0
 40
0.141125
  0
INSERT
  5
7E
330
78
100
AcDbEntity
  8
DAMAN
100
AcDbBlockReference
  2
100CROSS
 10
0.2035
 20
-0.8440000000000001
 30
0.0
 41
0.25
 42
0.25
  0
CIRCLE
  5
7F
330
78
100
AcDbEntity
  8
DAMAN
100
AcDbCircle
 10
0.2035
 20
-0.8440000000000001
 30
0.0
 40
0.141375
  0
INSERT
  5
80
330
78
100
AcDbEntity
  8
DAMAN
100
AcDbBlockReference
  2
100CROSS
 10
-0.03
 20
-1.3
 30
0.0
 41
0.171
 42
0.171
  0
INSERT
  5
81
330
78
100
AcDbEntity
  8
DAMAN
100
AcDbBlockReference
  2
100CROSS
 10
-0.03
 20
-1.594
 30
0.0
 41
0.188
 42
0.188
  0
CIRCLE
  5
82
330
78
100
AcDbEntity
  8
DAMAN
  6
HIDDEN
100
AcDbCircle
 10
-0.03
 20
-1.594
 30
0.0
 40
0.095
  0
CIRCLE
  5
83
330
78
100
AcDbEntity
  8
DAMAN
100
AcDbCircle
 10
-0.03
 20
-1.59375
 30
0.0
 40
0.078
  0
CIRCLE
  5
84
330
78
100
AcDbEntity
  8
DAMAN
100
AcDbCircle
 10
-0.03
 20
-1.3
 30
0.0
 40
0.0855
  0
POINT
  5
85
330
78
100
AcDbEntity
  8
DAMAN
  6
BYBLOCK
 62
     0
100
AcDbPoint
 10
0.20425
 20
-0.75
 30
0.0
  0
POINT
  5
86
330
78
100
AcDbEntity
  8
DAMAN
  6
BYBLOCK
 62
     0
100
AcDbPoint
 10
0.20425
 20
-0.75
 30
0.0
  0
INSERT
  5
87
330
78
100
AcDbEntity
  8
DAMAN
100
AcDbBlockReference
  2
100CROSS
 10
0.0
 20
0.0
 30
0.0
 41
0.188
 42
0.188
  0
CIRCLE
  5
88
330
78
100
AcDbEntity
  8
DAMAN
100
AcDbCircle
 10
0.0
 20
0.0
 30
0.0
 40
0.078
  0
CIRCLE
  5
89
330
78
100
AcDbEntity
  8
DAMAN
  6
HIDDEN
100
AcDbCircle
 10
0.0
 20
0.0
 30
0.0
 40
0.095
  0
INSERT
  5
8A
330
78
100
AcDbEntity
  8
DAMAN
100
AcDbBlockReference
  2
100CROSS
 10
1.016
 20
-0.8440000000000001
 30
0.0
 41
0.25
 42
0.25
  0
CIRCLE
  5
8B
330
78
100
AcDbEntity
  8
DAMAN
100
AcDbCircle
 10
1.016
 20
-0.8440000000000001
 30
0.0
 40
0.141375
  0
INSERT
  5
8C
330
78
100
AcDbEntity
  8
DAMAN
100
AcDbBlockReference
  2
100CROSS
 10
1.25
 20
-1.594
 30
0.0
 41
0.188
 42
0.188
  0
CIRCLE
  5
8D
330
78
100
AcDbEntity
  8
DAMAN
  6
HIDDEN
100
AcDbCircle
 10
1.25
 20
-1.594
 30
0.0
 40
0.095
  0
CIRCLE
  5
8E
330
78
100
AcDbEntity
  8
DAMAN
100
AcDbCircle
 10
1.25
 20
-1.59375
 30
0.0
 40
0.078
  0
CIRCLE
  5
8F
330
78
100
AcDbEntity
  8
DAMAN
100
AcDbCircle
 10
1.219999999999999
 20
0.0
 30
0.0
 40
0.078
  0
INSERT
  5
90
330
78
100
AcDbEntity
  8
DAMAN
100
AcDbBlockReference
  2
100CROSS
 10
1.219999999999999
 20
0.0
 30
0.0
 41
0.188
 42
0.188
  0
CIRCLE
  5
91
330
78
100
AcDbEntity
  8
DAMAN
  6
HIDDEN
100
AcDbCircle
 10
1.219999999999999
 20
0.0
 30
0.0
 40
0.095
  0
ENDBLK
  5
92
330
78
100
AcDbEntity
  8
0
100
AcDbBlockEnd
  0
BLOCK
  5
94
330
93
100
AcDbEntity
  8
0
100
AcDbBlockBegin
  2
10SAET
 70
     0
 10
0.0
 20
0.0
 30
0.0
  3
10SAET
  1

  0
CIRCLE
  5
95
330
93
100
AcDbEntity
  8
DAMAN
100
AcDbCircle
 10
0.0
 20
0.0
 30
0.0
 40
0.3439999999999999
  0
INSERT
  5
96
330
93
100
AcDbEntity
  8
DAMAN
100
AcDbBlockReference
  2
100CROSS
 10
0.0
 20
0.0
 30
0.0
 41
1.199999999999999
 42
1.199999999999999
  0
CIRCLE
  5
97
330
93
100
AcDbEntity
  8
DAMAN
100
AcDbCircle
 10
0.0
 20
0.0
 30
0.0
 40
0.6875
  0
CIRCLE
  5
98
330
93
100
AcDbEntity
  8
DAMAN
  6
HIDDEN
100
AcDbCircle
 10
0.0
 20
0.0
 30
0.0
 40
0.4060000000000001
  0
CIRCLE
  5
99
330
93
100
AcDbEntity
  8
DAMAN
100
AcDbCircle
 10
0.0
 20
0.0
 30
0.0
 40
0.4375
  0
ENDBLK
  5
9A
330
93
100
AcDbEntity
  8
0
100
AcDbBlockEnd
  0
BLOCK
  5
9C
330
9B
100
AcDbEntity
  8
0
100
AcDbBlockBegin
  2
08SAET
 70
     0
 10
0.0
 20
0.0
 30
0.0
  3
08SAET
  1

  0
CIRCLE
  5
9D
330
9B
100
AcDbEntity
  8
DAMAN
100
AcDbCircle
 10
0.0
 20
0.0
 30
0.0
 40
0.375
  0
CIRCLE
  5
9E
330
9B
100
AcDbEntity
  8
DAMAN
100
AcDbCircle
 10
0.0
 20
0.0
 30
0.0
 40
0.3125
  0
CIRCLE
  5
9F
330
9B
100
AcDbEntity
  8
DAMAN
  6
HIDDEN
100
AcDbCircle
 10
0.0
 20
0.0
 30
0.0
 40
0.3439999999999999
  0
INSERT
  5
A0
330
9B
100
AcDbEntity
  8
DAMAN
100
AcDbBlockReference
  2
100CROSS
 10
0.0
 20
0.0
 30
0.0
 41
0.88
 42
0.88
  0
CIRCLE
  5
A1
330
9B
100
AcDbEntity
  8
DAMAN
100
AcDbCircle
 10
0.0
 20
0.0
 30
0.0
 40
0.594
  0
ENDBLK
  5
A2
330
9B
100
AcDbEntity
  8
0
100
AcDbBlockEnd
  0
BLOCK
  5
A4
330
A3
100
AcDbEntity
  8
0
100
AcDbBlockBegin
  2
300MKS
 70
     0
 10
0.0
 20
0.0
 30
0.0
  3
300MKS
  1

  0
LINE
  5
A5
330
A3
100
AcDbEntity
  8
DAMAN
100
AcDbLine
 10
-1.0
 20
-0.375
 30
0.0
 11
-0.25
 21
-0.375
 31
0.0
  0
LINE
  5
A6
330
A3
100
AcDbEntity
  8
DAMAN
100
AcDbLine
 10
-0.25
 20
-0.25
 30
0.0
 11
-1.0
 21
-0.25
 31
0.0
  0
LINE
  5
A7
330
A3
100
AcDbEntity
  8
DAMAN
100
AcDbLine
 10
-0.84375
 20
-0.84375
 30
0.0
 11
-0.53125
 21
-0.84375
 31
0.0
  0
LINE
  5
A8
330
A3
100
AcDbEntity
  8
DAMAN
100
AcDbLine
 10
-0.8125
 20
-0.875
 30
0.0
 11
-0.5625
 21
-0.875
 31
0.0
  0
LINE
  5
A9
330
A3
100
AcDbEntity
  8
DAMAN
100
AcDbLine
 10
-0.4375
 20
0.0
 30
0.0
 11
-0.9375
 21
0.0
 31
0.0
  0
ARC
  5
AA
330
A3
100
AcDbEntity
  8
DAMAN
100
AcDbCircle
 10
-0.6875
 20
-0.348958
 30
0.0
 40
0.348958
100
AcDbArc
 50
65.567302
 51
114.4326979999999
  0
LINE
  5
AB
330
A3
100
AcDbEntity
  8
DAMAN
100
AcDbLine
 10
-0.6875
 20
0.125
 30
0.0
 11
-0.6875
 21
-1.03125
 31
0.0
  0
LINE
  5
AC
330
A3
100
AcDbEntity
  8
DAMAN
  6
HIDDEN
100
AcDbLine
 10
-0.8125
 20
-0.875
 30
0.0
 11
-0.8125
 21
-0.375
 31
0.0
  0
LINE
  5
AD
330
A3
100
AcDbEntity
  8
DAMAN
100
AcDbLine
 10
-0.84375
 20
-0.375
 30
0.0
 11
-0.84375
 21
-0.84375
 31
0.0
  0
LINE
  5
AE
330
A3
100
AcDbEntity
  8
DAMAN
100
AcDbLine
 10
-0.84375
 20
-0.84375
 30
0.0
 11
-0.8125
 21
-0.875
 31
0.0
  0
LINE
  5
AF
330
A3
100
AcDbEntity
  8
DAMAN
100
AcDbLine
 10
-1.0
 20
-0.25
 30
0.0
 11
-1.0
 21
-0.375
 31
0.0
  0
ARC
  5
B0
330
A3
100
AcDbEntity
  8
DAMAN
100
AcDbCircle
 10
-0.904006
 20
-0.098958
 30
0.0
 40
0.098958
100
AcDbArc
 50
43.17355100000001
 51
136.826449
  0
LINE
  5
B1
330
A3
100
AcDbEntity
  8
DAMAN
100
AcDbLine
 10
-0.9761749999999999
 20
-0.03125
 30
0.0
 11
-0.9761749999999999
 21
-0.25
 31
0.0
  0
LINE
  5
B2
330
A3
100
AcDbEntity
  8
DAMAN
100
AcDbLine
 10
-0.9761749999999999
 20
-0.03125
 30
0.0
 11
-0.9375
 21
0.0
 31
0.0
  0
LINE
  5
B3
330
A3
100
AcDbEntity
  8
DAMAN
100
AcDbLine
 10
-0.8318379999999999
 20
-0.25
 30
0.0
 11
-0.8318379999999999
 21
-0.03125
 31
0.0
  0
LINE
  5
B4
330
A3
100
AcDbEntity
  8
DAMAN
100
AcDbLine
 10
0.0
 20
-0.125
 30
0.0
 11
0.0
 21
0.625
 31
0.0
  0
LINE
  5
B5
330
A3
100
AcDbEntity
  8
DAMAN
100
AcDbLine
 10
-0.125
 20
0.625
 30
0.0
 11
-0.125
 21
-0.125
 31
0.0
  0
LINE
  5
B6
330
A3
100
AcDbEntity
  8
DAMAN
  6
HIDDEN
100
AcDbLine
 10
-0.5625
 20
-0.375
 30
0.0
 11
-0.5625
 21
-0.875
 31
0.0
  0
LINE
  5
B7
330
A3
100
AcDbEntity
  8
DAMAN
100
AcDbLine
 10
-0.53125
 20
-0.84375
 30
0.0
 11
-0.53125
 21
-0.375
 31
0.0
  0
LINE
  5
B8
330
A3
100
AcDbEntity
  8
DAMAN
100
AcDbLine
 10
-0.5625
 20
-0.875
 30
0.0
 11
-0.53125
 21
-0.84375
 31
0.0
  0
ARC
  5
B9
330
A3
100
AcDbEntity
  8
DAMAN
100
AcDbCircle
 10
-0.25
 20
-0.125
 30
0.0
 40
0.25
100
AcDbArc
 50
270.0
 51
0.0
  0
ARC
  5
BA
330
A3
100
AcDbEntity
  8
DAMAN
100
AcDbCircle
 10
-0.25
 20
-0.125
 30
0.0
 40
0.125
100
AcDbArc
 50
270.0
 51
0.0
  0
LINE
  5
BB
330
A3
100
AcDbEntity
  8
DAMAN
100
AcDbLine
 10
-0.5431620000000001
 20
-0.03125
 30
0.0
 11
-0.5431620000000001
 21
-0.25
 31
0.0
  0
LINE
  5
BC
330
A3
100
AcDbEntity
  8
DAMAN
100
AcDbLine
 10
-0.398825
 20
-0.25
 30
0.0
 11
-0.398825
 21
-0.03125
 31
0.0
  0
ARC
  5
BD
330
A3
100
AcDbEntity
  8
DAMAN
100
AcDbCircle
 10
-0.470994
 20
-0.098958
 30
0.0
 40
0.098958
100
AcDbArc
 50
43.17355100000001
 51
136.826449
  0
LINE
  5
BE
330
A3
100
AcDbEntity
  8
DAMAN
100
AcDbLine
 10
-0.398825
 20
-0.03125
 30
0.0
 11
-0.4375
 21
0.0
 31
0.0
  0
LINE
  5
BF
330
A3
100
AcDbEntity
  8
DAMAN
100
AcDbLine
 10
-0.125
 20
0.168162
 30
0.0
 11
-0.34375
 21
0.168162
 31
0.0
  0
LINE
  5
C0
330
A3
100
AcDbEntity
  8
DAMAN
100
AcDbLine
 10
-0.34375
 20
0.023825
 30
0.0
 11
-0.125
 21
0.023825
 31
0.0
  0
LINE
  5
C1
330
A3
100
AcDbEntity
  8
DAMAN
100
AcDbLine
 10
-0.34375
 20
0.4568380000000001
 30
0.0
 11
-0.125
 21
0.4568380000000001
 31
0.0
  0
LINE
  5
C2
330
A3
100
AcDbEntity
  8
DAMAN
100
AcDbLine
 10
-0.125
 20
0.6011750000000001
 30
0.0
 11
-0.34375
 21
0.6011750000000001
 31
0.0
  0
ARC
  5
C3
330
A3
100
AcDbEntity
  8
DAMAN
100
AcDbCircle
 10
-0.026042
 20
0.3125
 30
0.0
 40
0.348958
100
AcDbArc
 50
155.567302
 51
204.432698
  0
LINE
  5
C4
330
A3
100
AcDbEntity
  8
DAMAN
100
AcDbLine
 10
-0.375
 20
0.5625
 30
0.0
 11
-0.375
 21
0.0625
 31
0.0
  0
LINE
  5
C5
330
A3
100
AcDbEntity
  8
DAMAN
100
AcDbLine
 10
-0.34375
 20
0.023825
 30
0.0
 11
-0.375
 21
0.0625
 31
0.0
  0
ARC
  5
C6
330
A3
100
AcDbEntity
  8
DAMAN
100
AcDbCircle
 10
-0.276042
 20
0.095994
 30
0.0
 40
0.098958
100
AcDbArc
 50
133.173551
 51
226.826449
  0
LINE
  5
C7
330
A3
100
AcDbEntity
  8
DAMAN
100
AcDbLine
 10
-0.34375
 20
0.6011750000000001
 30
0.0
 11
-0.375
 21
0.5625
 31
0.0
  0
ARC
  5
C8
330
A3
100
AcDbEntity
  8
DAMAN
100
AcDbCircle
 10
-0.276042
 20
0.5290060000000001
 30
0.0
 40
0.098958
100
AcDbArc
 50
133.173551
 51
226.826449
  0
LINE
  5
C9
330
A3
100
AcDbEntity
  8
DAMAN
100
AcDbLine
 10
0.0
 20
0.625
 30
0.0
 11
-0.125
 21
0.625
 31
0.0
  0
LINE
  5
CA
330
A3
100
AcDbEntity
  8
DAMAN
100
AcDbLine
 10
-0.5
 20
0.3125
 30
0.0
 11
0.375
 21
0.3125
 31
0.0
  0
ENDBLK
  5
CB
330
A3
100
AcDbEntity
  8
0
100
AcDbBlockEnd
  0
BLOCK
  5
CD
330
CC
100
AcDbEntity
  8
0
100
AcDbBlockBegin
  2
06SAET
 70
     0
 10
0.0
 20
0.0
 30
0.0
  3
06SAET
  1

  0
CIRCLE
  5
CE
330
CC
100
AcDbEntity
  8
CSOLID
  6
HIDDEN
100
AcDbCircle
 10
0.0
 20
0.0
 30
0.0
 40
0.281
  0
CIRCLE
  5
CF
330
CC
100
AcDbEntity
  8
CSOLID
100
AcDbCircle
 10
0.0
 20
0.0
 30
0.0
 40
0.308
  0
CIRCLE
  5
D0
330
CC
100
AcDbEntity
  8
CSOLID
100
AcDbCircle
 10
0.0
 20
0.0
 30
0.0
 40
0.25
  0
CIRCLE
  5
D1
330
CC
100
AcDbEntity
  8
CSOLID
100
AcDbCircle
 10
0.0
 20
0.0
 30
0.0
 40
0.4844000000000001
  0
INSERT
  5
D2
330
CC
100
AcDbEntity
  8
DAMAN
100
AcDbBlockReference
  2
100CROSS
 10
0.0
 20
0.0
 30
0.0
 41
0.88
 42
0.88
  0
ENDBLK
  5
D3
330
CC
100
AcDbEntity
  8
0
100
AcDbBlockEnd
  0
ENDSEC
  0
SECTION
  2
ENTITIES
  0
LINE
  5
D4
330
1E
100
AcDbEntity
  8
DAMAN
100
AcDbLine
 10
0.0
 20
7.0
 30
0.0
 11
3.0
 21
7.0
 31
0.0
  0
LINE
  5
D5
330
1E
100
AcDbEntity
  8
DAMAN
100
AcDbLine
 10
3.0
 20
7.0
 30
0.0
 11
3.0
 21
4.0
 31
0.0
  0
LINE
  5
D6
330
1E
100
AcDbEntity
  8
DAMAN
100
AcDbLine
 10
3.0
 20
4.0
 30
0.0
 11
0.0
 21
4.0
 31
0.0
  0
LINE
  5
D7
330
1E
100
AcDbEntity
  8
DAMAN
  6
HIDDEN
100
AcDbLine
 10
0.0
 20
4.0
 30
0.0
 11
0.0
 21
7.0
 31
0.0
  0
LINE
  5
D8
330
1E
100
AcDbEntity
  8
DAMAN
100
AcDbLine
 10
5.0
 20
7.0
 30
0.0
 11
5.0
 21
4.0
 31
0.0
  0
LINE
  5
D9
330
1E
100
AcDbEntity
  8
DAMAN
100
AcDbLine
 10
5.0
 20
4.0
 30
0.0
 11
9.25
 21
4.0
 31
0.0
  0
LINE
  5
DA
330
1E
100
AcDbEntity
  8
DAMAN
100
AcDbLine
 10
9.25
 20
4.0
 30
0.0
 11
9.25
 21
7.0
 31
0.0
  0
LINE
  5
DB
330
1E
100
AcDbEntity
  8
DAMAN
100
AcDbLine
 10
9.25
 20
7.0
 30
0.0
 11
5.0
 21
7.0
 31
0.0
  0
LINE
  5
DC
330
1E
100
AcDbEntity
  8
DAMAN
100
AcDbLine
 10
11.25
 20
7.0
 30
0.0
 11
11.25
 21
4.0
 31
0.0
  0
LINE
  5
DD
330
1E
100
AcDbEntity
  8
DAMAN
100
AcDbLine
 10
11.25
 20
4.0
 30
0.0
 11
14.25
 21
4.0
 31
0.0
  0
LINE
  5
DE
330
1E
100
AcDbEntity
  8
DAMAN
100
AcDbLine
 10
14.25
 20
7.0
 30
0.0
 11
11.25
 21
7.0
 31
0.0
  0
LINE
  5
DF
330
1E
100
AcDbEntity
  8
DAMAN
100
AcDbLine
 10
5.0
 20
3.0
 30
0.0
 11
9.25
 21
3.0
 31
0.0
  0
LINE
  5
E0
330
1E
100
AcDbEntity
  8
DAMAN
100
AcDbLine
 10
9.25
 20
3.0
 30
0.0
 11
9.25
 21
0.0
 31
0.0
  0
LINE
  5
E1
330
1E
100
AcDbEntity
  8
DAMAN
100
AcDbLine
 10
9.25
 20
0.0
 30
0.0
 11
5.0
 21
0.0
 31
0.0
  0
LINE
  5
E2
330
1E
100
AcDbEntity
  8
DAMAN
100
AcDbLine
 10
5.0
 20
0.0
 30
0.0
 11
5.0
 21
3.0
 31
0.0
  0
INSERT
  5
E3
330
1E
100
AcDbEntity
  8
DAMAN
100
AcDbBlockReference
  2
300MKT
 10
0.0
 20
4.0
 30
0.0
  0
LINE
  5
E4
330
1E
100
AcDbEntity
  8
DAMAN
  6
HIDDEN
100
AcDbLine
 10
14.25
 20
4.0
 30
0.0
 11
14.25
 21
7.0
 31
0.0
  0
INSERT
  5
E5
330
1E
100
AcDbEntity
  8
DAMAN
100
AcDbBlockReference
  2
300MKT
 10
14.25
 20
4.0
 30
0.0
 41
-1.0
  0
INSERT
  5
E6
330
1E
100
AcDbEntity
  8
DAMAN
100
AcDbBlockReference
  2
D03
 10
5.452999999999999
 20
6.0
 30
0.0
  0
INSERT
  5
E7
330
1E
100
AcDbEntity
  8
DAMAN
100
AcDbBlockReference
  2
10SAET
 10
1.5
 20
6.1875
 30
0.0
  0
INSERT
  5
E8
330
1E
100
AcDbEntity
  8
DAMAN
100
AcDbBlockReference
  2
10SAET
 10
1.5
 20
4.8125
 30
0.0
  0
INSERT
  5
E9
330
1E
100
AcDbEntity
  8
DAMAN
100
AcDbBlockReference
  2
10SAET
 10
12.75
 20
6.1875
 30
0.0
 41
-1.0
  0
INSERT
  5
EA
330
1E
100
AcDbEntity
  8
DAMAN
100
AcDbBlockReference
  2
10SAET
 10
12.75
 20
4.8125
 30
0.0
 41
-1.0
  0
INSERT
  5
EB
330
1E
100
AcDbEntity
  8
DAMAN
100
AcDbBlockReference
  2
08SAET
 10
6.0625
 20
0.625
 30
0.0
  0
INSERT
  5
EC
330
1E
100
AcDbEntity
  8
DAMAN
100
AcDbBlockReference
  2
08SAET
 10
6.0625
 20
2.375
 30
0.0
  0
LINE
  5
ED
330
1E
100
AcDbEntity
  8
DAMAN
100
AcDbLine
 10
10.2495
 20
4.000499999999999
 30
0.0
 11
10.2495
 21
7.000499999999999
 31
0.0
  0
INSERT
  5
EE
330
1E
100
AcDbEntity
  8
DAMAN
100
AcDbBlockReference
  2
100CROSS
 10
9.937000000000001
 20
4.312999999999999
 30
0.0
 41
-0.34
 42
0.34
 43
0.34
 50
270.0
  0
LWPOLYLINE
  5
EF
330
1E
100
AcDbEntity
  8
DAMAN
100
AcDbPolyline
 90
        6
 70
   129
 43
0.0
 10
9.6875
 20
4.456837999999999
 10
9.6875
 20
4.168162
 10
9.9375
 20
4.023825
 10
10.1875
 20
4.168162
 10
10.1875
 20
4.456837999999999
 10
9.9375
 20
4.601174999999999
  0
CIRCLE
  5
F7
330
1E
100
AcDbEntity
  8
DAMAN
100
AcDbCircle
 10
9.937999999999998
 20
4.312999999999999
 30
0.0
 40
0.249501
  0
LINE
  5
F8
330
1E
100
AcDbEntity
  8
DAMAN
100
AcDbLine
 10
9.7505
 20
6.687999999999999
 30
0.0
 11
9.180419
 21
6.687999999999999
 31
0.0
  0
INSERT
  5
F9
330
1E
100
AcDbEntity
  8
DAMAN
100
AcDbBlockReference
  2
100CROSS
 10
9.937000000000001
 20
6.687999999999999
 30
0.0
 41
-0.34
 42
0.34
 43
0.34
 50
270.0
  0
LWPOLYLINE
  5
FA
330
1E
100
AcDbEntity
  8
DAMAN
100
AcDbPolyline
 90
        6
 70
   129
 43
0.0
 10
9.6875
 20
6.831838
 10
9.6875
 20
6.543162
 10
9.9375
 20
6.398825
 10
10.1875
 20
6.543162
 10
10.1875
 20
6.831838
 10
9.9375
 20
6.976174999999999
  0
CIRCLE
  5
102
330
1E
100
AcDbEntity
  8
DAMAN
100
AcDbCircle
 10
9.937999999999998
 20
6.687999999999999
 30
0.0
 40
0.249501
  0
LINE
  5
103
330
1E
100
AcDbEntity
  8
DAMAN
100
AcDbLine
 10
9.6255
 20
6.437999999999999
 30
0.0
 11
9.6255
 21
6.937999999999999
 31
0.0
  0
ARC
  5
104
330
1E
100
AcDbEntity
  8
DAMAN
100
AcDbCircle
 10
9.526541999999999
 20
6.471493999999999
 30
0.0
 40
0.098958
100
AcDbArc
 50
313.1735509999999
 51
46.826449
  0
LINE
  5
105
330
1E
100
AcDbEntity
  8
DAMAN
100
AcDbLine
 10
9.3755
 20
6.399325
 30
0.0
 11
9.59425
 21
6.399325
 31
0.0
  0
LINE
  5
106
330
1E
100
AcDbEntity
  8
DAMAN
100
AcDbLine
 10
9.59425
 20
6.399325
 30
0.0
 11
9.6255
 21
6.437999999999999
 31
0.0
  0
LINE
  5
107
330
1E
100
AcDbEntity
  8
DAMAN
100
AcDbLine
 10
10.2495
 20
7.000499999999999
 30
0.0
 11
9.249499999999999
 21
7.000499999999999
 31
0.0
  0
LINE
  5
108
330
1E
100
AcDbEntity
  8
DAMAN
100
AcDbLine
 10
9.3755
 20
6.832338
 30
0.0
 11
9.59425
 21
6.832338
 31
0.0
  0
LINE
  5
109
330
1E
100
AcDbEntity
  8
DAMAN
100
AcDbLine
 10
9.59425
 20
6.543662
 30
0.0
 11
9.3755
 21
6.543662
 31
0.0
  0
LINE
  5
10A
330
1E
100
AcDbEntity
  8
DAMAN
100
AcDbLine
 10
9.59425
 20
6.976675
 30
0.0
 11
9.3755
 21
6.976675
 31
0.0
  0
ARC
  5
10B
330
1E
100
AcDbEntity
  8
DAMAN
100
AcDbCircle
 10
9.276541999999999
 20
6.687999999999999
 30
0.0
 40
0.348958
100
AcDbArc
 50
335.5673019999999
 51
24.432698
  0
ARC
  5
10C
330
1E
100
AcDbEntity
  8
DAMAN
100
AcDbCircle
 10
9.526541999999999
 20
6.904505999999999
 30
0.0
 40
0.098958
100
AcDbArc
 50
313.1735509999999
 51
46.826449
  0
LINE
  5
10D
330
1E
100
AcDbEntity
  8
DAMAN
100
AcDbLine
 10
9.59425
 20
6.976675
 30
0.0
 11
9.6255
 21
6.937999999999999
 31
0.0
  0
LINE
  5
10E
330
1E
100
AcDbEntity
  8
DAMAN
100
AcDbLine
 10
9.7505
 20
4.312999999999999
 30
0.0
 11
9.180419
 21
4.312999999999999
 31
0.0
  0
LINE
  5
10F
330
1E
100
AcDbEntity
  8
DAMAN
100
AcDbLine
 10
9.6255
 20
4.062999999999999
 30
0.0
 11
9.6255
 21
4.562999999999999
 31
0.0
  0
ARC
  5
110
330
1E
100
AcDbEntity
  8
DAMAN
100
AcDbCircle
 10
9.526541999999999
 20
4.529505999999999
 30
0.0
 40
0.098958
100
AcDbArc
 50
313.1735509999999
 51
46.826449
  0
LINE
  5
111
330
1E
100
AcDbEntity
  8
DAMAN
100
AcDbLine
 10
9.3755
 20
4.457338
 30
0.0
 11
9.59425
 21
4.457338
 31
0.0
  0
LINE
  5
112
330
1E
100
AcDbEntity
  8
DAMAN
100
AcDbLine
 10
9.3755
 20
4.024325
 30
0.0
 11
9.59425
 21
4.024325
 31
0.0
  0
LINE
  5
113
330
1E
100
AcDbEntity
  8
DAMAN
100
AcDbLine
 10
9.59425
 20
4.168662
 30
0.0
 11
9.3755
 21
4.168662
 31
0.0
  0
ARC
  5
114
330
1E
100
AcDbEntity
  8
DAMAN
100
AcDbCircle
 10
9.526541999999999
 20
4.096493999999999
 30
0.0
 40
0.098958
100
AcDbArc
 50
313.1735509999999
 51
46.826449
  0
LINE
  5
115
330
1E
100
AcDbEntity
  8
DAMAN
100
AcDbLine
 10
9.59425
 20
4.024325
 30
0.0
 11
9.6255
 21
4.062999999999999
 31
0.0
  0
ARC
  5
116
330
1E
100
AcDbEntity
  8
DAMAN
100
AcDbCircle
 10
9.276541999999999
 20
4.312999999999999
 30
0.0
 40
0.348958
100
AcDbArc
 50
335.5673019999999
 51
24.432698
  0
LINE
  5
117
330
1E
100
AcDbEntity
  8
DAMAN
100
AcDbLine
 10
9.59425
 20
4.601675
 30
0.0
 11
9.3755
 21
4.601675
 31
0.0
  0
LINE
  5
118
330
1E
100
AcDbEntity
  8
DAMAN
100
AcDbLine
 10
9.59425
 20
4.601675
 30
0.0
 11
9.6255
 21
4.562999999999999
 31
0.0
  0
LINE
  5
119
330
1E
100
AcDbEntity
  8
DAMAN
100
AcDbLine
 10
9.3695
 20
7.000499999999999
 30
0.0
 11
9.3695
 21
4.000499999999999
 31
0.0
  0
LINE
  5
11A
330
1E
100
AcDbEntity
  8
DAMAN
100
AcDbLine
 10
9.249499999999999
 20
4.000499999999999
 30
0.0
 11
10.2495
 21
4.000499999999999
 31
0.0
  0
LINE
  5
11B
330
1E
100
AcDbEntity
  8
DAMAN
100
AcDbLine
 10
4.880499999999999
 20
7.000499999999999
 30
0.0
 11
4.880499999999999
 21
4.000499999999999
 31
0.0
  0
ARC
  5
11C
330
1E
100
AcDbEntity
  8
DAMAN
100
AcDbCircle
 10
4.973457999999999
 20
4.312999999999999
 30
0.0
 40
0.348958
100
AcDbArc
 50
155.567302
 51
204.432698
  0
LINE
  5
11D
330
1E
100
AcDbEntity
  8
DAMAN
100
AcDbLine
 10
4.6245
 20
4.062999999999999
 30
0.0
 11
4.6245
 21
4.562999999999999
 31
0.0
  0
CIRCLE
  5
11E
330
1E
100
AcDbEntity
  8
DAMAN
100
AcDbCircle
 10
4.312
 20
4.312999999999999
 30
0.0
 40
0.249501
  0
LWPOLYLINE
  5
11F
330
1E
100
AcDbEntity
  8
DAMAN
100
AcDbPolyline
 90
        6
 70
   129
 43
0.0
 10
4.5625
 20
4.456837999999999
 10
4.5625
 20
4.168162
 10
4.3125
 20
4.023825
 10
4.0625
 20
4.168162
 10
4.0625
 20
4.456837999999999
 10
4.3125
 20
4.601174999999999
  0
INSERT
  5
127
330
1E
100
AcDbEntity
  8
DAMAN
100
AcDbBlockReference
  2
100CROSS
 10
4.312999999999999
 20
4.312999999999999
 30
0.0
 41
0.34
 42
0.34
 43
0.34
 50
90.0
  0
LINE
  5
128
330
1E
100
AcDbEntity
  8
DAMAN
100
AcDbLine
 10
4.000499999999999
 20
4.000499999999999
 30
0.0
 11
4.000499999999999
 21
7.000499999999999
 31
0.0
  0
LINE
  5
129
330
1E
100
AcDbEntity
  8
DAMAN
100
AcDbLine
 10
4.4995
 20
4.312999999999999
 30
0.0
 11
5.069580999999999
 21
4.312999999999999
 31
0.0
  0
LINE
  5
12A
330
1E
100
AcDbEntity
  8
DAMAN
100
AcDbLine
 10
5.000499999999999
 20
4.000499999999999
 30
0.0
 11
4.000499999999999
 21
4.000499999999999
 31
0.0
  0
ARC
  5
12B
330
1E
100
AcDbEntity
  8
DAMAN
100
AcDbCircle
 10
4.723457999999999
 20
4.096493999999999
 30
0.0
 40
0.098958
100
AcDbArc
 50
133.173551
 51
226.826449
  0
LINE
  5
12C
330
1E
100
AcDbEntity
  8
DAMAN
100
AcDbLine
 10
4.8745
 20
4.024325
 30
0.0
 11
4.65575
 21
4.024325
 31
0.0
  0
LINE
  5
12D
330
1E
100
AcDbEntity
  8
DAMAN
100
AcDbLine
 10
4.65575
 20
4.024325
 30
0.0
 11
4.6245
 21
4.062999999999999
 31
0.0
  0
LINE
  5
12E
330
1E
100
AcDbEntity
  8
DAMAN
100
AcDbLine
 10
4.65575
 20
4.168662
 30
0.0
 11
4.8745
 21
4.168662
 31
0.0
  0
LINE
  5
12F
330
1E
100
AcDbEntity
  8
DAMAN
100
AcDbLine
 10
4.65575
 20
4.601675
 30
0.0
 11
4.8745
 21
4.601675
 31
0.0
  0
LINE
  5
130
330
1E
100
AcDbEntity
  8
DAMAN
100
AcDbLine
 10
4.8745
 20
4.457338
 30
0.0
 11
4.65575
 21
4.457338
 31
0.0
  0
LINE
  5
131
330
1E
100
AcDbEntity
  8
DAMAN
100
AcDbLine
 10
4.65575
 20
4.601675
 30
0.0
 11
4.6245
 21
4.562999999999999
 31
0.0
  0
ARC
  5
132
330
1E
100
AcDbEntity
  8
DAMAN
100
AcDbCircle
 10
4.723457999999999
 20
4.529505999999999
 30
0.0
 40
0.098958
100
AcDbArc
 50
133.173551
 51
226.826449
  0
LINE
  5
133
330
1E
100
AcDbEntity
  8
DAMAN
100
AcDbLine
 10
4.4995
 20
6.687999999999999
 30
0.0
 11
5.069580999999999
 21
6.687999999999999
 31
0.0
  0
LINE
  5
134
330
1E
100
AcDbEntity
  8
DAMAN
100
AcDbLine
 10
4.000499999999999
 20
7.000499999999999
 30
0.0
 11
5.000499999999999
 21
7.000499999999999
 31
0.0
  0
ARC
  5
135
330
1E
100
AcDbEntity
  8
DAMAN
100
AcDbCircle
 10
4.973457999999999
 20
6.687999999999999
 30
0.0
 40
0.348958
100
AcDbArc
 50
155.567302
 51
204.432698
  0
LINE
  5
136
330
1E
100
AcDbEntity
  8
DAMAN
100
AcDbLine
 10
4.6245
 20
6.437999999999999
 30
0.0
 11
4.6245
 21
6.937999999999999
 31
0.0
  0
CIRCLE
  5
137
330
1E
100
AcDbEntity
  8
DAMAN
100
AcDbCircle
 10
4.312
 20
6.687999999999999
 30
0.0
 40
0.249501
  0
LWPOLYLINE
  5
138
330
1E
100
AcDbEntity
  8
DAMAN
100
AcDbPolyline
 90
        6
 70
   129
 43
0.0
 10
4.5625
 20
6.831838
 10
4.5625
 20
6.543162
 10
4.3125
 20
6.398825
 10
4.0625
 20
6.543162
 10
4.0625
 20
6.831838
 10
4.3125
 20
6.976174999999999
  0
INSERT
  5
140
330
1E
100
AcDbEntity
  8
DAMAN
100
AcDbBlockReference
  2
100CROSS
 10
4.312999999999999
 20
6.687999999999999
 30
0.0
 41
0.34
 42
0.34
 43
0.34
 50
90.0
  0
LINE
  5
141
330
1E
100
AcDbEntity
  8
DAMAN
100
AcDbLine
 10
4.65575
 20
6.543662
 30
0.0
 11
4.8745
 21
6.543662
 31
0.0
  0
LINE
  5
142
330
1E
100
AcDbEntity
  8
DAMAN
100
AcDbLine
 10
4.8745
 20
6.399325
 30
0.0
 11
4.65575
 21
6.399325
 31
0.0
  0
LINE
  5
143
330
1E
100
AcDbEntity
  8
DAMAN
100
AcDbLine
 10
4.65575
 20
6.399325
 30
0.0
 11
4.6245
 21
6.437999999999999
 31
0.0
  0
ARC
  5
144
330
1E
100
AcDbEntity
  8
DAMAN
100
AcDbCircle
 10
4.723457999999999
 20
6.471493999999999
 30
0.0
 40
0.098958
100
AcDbArc
 50
133.173551
 51
226.826449
  0
ARC
  5
145
330
1E
100
AcDbEntity
  8
DAMAN
100
AcDbCircle
 10
4.723457999999999
 20
6.904505999999999
 30
0.0
 40
0.098958
100
AcDbArc
 50
133.173551
 51
226.826449
  0
LINE
  5
146
330
1E
100
AcDbEntity
  8
DAMAN
100
AcDbLine
 10
4.8745
 20
6.832338
 30
0.0
 11
4.65575
 21
6.832338
 31
0.0
  0
LINE
  5
147
330
1E
100
AcDbEntity
  8
DAMAN
100
AcDbLine
 10
4.65575
 20
6.976675
 30
0.0
 11
4.8745
 21
6.976675
 31
0.0
  0
LINE
  5
148
330
1E
100
AcDbEntity
  8
DAMAN
100
AcDbLine
 10
4.65575
 20
6.976675
 30
0.0
 11
4.6245
 21
6.937999999999999
 31
0.0
  0
INSERT
  5
149
330
1E
100
AcDbEntity
  8
DAMAN
100
AcDbBlockReference
  2
300MKS
 10
5.0
 20
0.0
 30
0.0
  0
INSERT
  5
14A
330
1E
100
AcDbEntity
  8
DAMAN
100
AcDbBlockReference
  2
300MKS
 10
9.25
 20
0.0
 30
0.0
 41
-1.0
  0
TEXT
  5
14B
330
1E
100
AcDbEntity
  8
DAMAN
100
AcDbText
 10
6.701777
 20
2.741878999999999
 30
0.0
 40
0.188
  1
B
100
AcDbText
  0
TEXT
  5
14C
330
1E
100
AcDbEntity
  8
DAMAN
100
AcDbText
 10
6.701777
 20
0.9606899999999999
 30
0.0
 40
0.188
  1
A
100
AcDbText
  0
TEXT
  5
14D
330
1E
100
AcDbEntity
  8
DAMAN
100
AcDbText
 10
2.104425999999999
 20
6.820938
 30
0.0
 40
0.188
  1
T
 50
270.0
100
AcDbText
  0
TEXT
  5
14E
330
1E
100
AcDbEntity
  8
DAMAN
100
AcDbText
 10
2.145231
 20
4.291922
 30
0.0
 40
0.188
  1
P
 50
270.0
100
AcDbText
  0
TEXT
  5
14F
330
1E
100
AcDbEntity
  8
DAMAN
100
AcDbText
 10
12.077566
 20
4.183146999999999
 30
0.0
 40
0.188
  1
P
 50
90.0
100
AcDbText
  0
TEXT
  5
150
330
1E
100
AcDbEntity
  8
DAMAN
100
AcDbText
 10
12.077566
 20
6.671372999999999
 30
0.0
 40
0.188
  1
T
 50
90.0
100
AcDbText
  0
INSERT
  5
151
330
1E
100
AcDbEntity
  8
DAMAN
100
AcDbBlockReference
  2
08SAET
 10
8.1875
 20
2.375
 30
0.0
  0
INSERT
  5
152
330
1E
100
AcDbEntity
  8
DAMAN
100
AcDbBlockReference
  2
D03
 10
7.577999999999999
 20
6.0
 30
0.0
  0
TEXT
  5
153
330
1E
100
AcDbEntity
  8
DAMAN
100
AcDbText
 10
8.826776999999999
 20
0.9606899999999999
 30
0.0
 40
0.188
  1
A
100
AcDbText
  0
TEXT
  5
154
330
1E
100
AcDbEntity
  8
DAMAN
100
AcDbText
 10
8.826776999999999
 20
2.741878999999999
 30
0.0
 40
0.188
  1
B
100
AcDbText
  0
INSERT
  5
155
330
1E
100
AcDbEntity
  8
DAMAN
100
AcDbBlockReference
  2
08SAET
 10
8.1875
 20
0.625
 30
0.0
  0
TEXT
  5
158
330
1E
100
AcDbEntity
  8
DAMAN
100
AcDbText
 10
7.719282999999999
 20
1.384131999999999
 30
0.0
 40
0.15
  1
DAMAN ****
100
AcDbText
  0
ENDSEC
  0
SECTION
  2
OBJECTS
  0
DICTIONARY
  5
C
330
0
100
AcDbDictionary
  3
ACAD_GROUP
350
D
  3
ACAD_LAYOUT
350
19
  3
ACAD_MLINESTYLE
350
16
  3
ACAD_PLOTSETTINGS
350
18
  3
ACAD_PLOTSTYLENAME
350
E
  3
ACDBHEADERROUNDTRIPXREC
350
15C
  0
DICTIONARY
  5
17E
330
1E
100
AcDbDictionary
280
     1
  3
ACAD_LAYOUTSELFREF
360
17F
  0
DICTIONARY
  5
17C
330
1A
100
AcDbDictionary
280
     1
  3
ACAD_LAYOUTSELFREF
360
17D
  0
DICTIONARY
  5
D
102
{ACAD_REACTORS
330
C
102
}
330
C
100
AcDbDictionary
  0
DICTIONARY
  5
19
102
{ACAD_REACTORS
330
C
102
}
330
C
100
AcDbDictionary
  0
DICTIONARY
  5
16
102
{ACAD_REACTORS
330
C
102
}
330
C
100
AcDbDictionary
  3
STANDARD
350
17
  0
DICTIONARY
  5
18
102
{ACAD_REACTORS
330
C
102
}
330
C
100
AcDbDictionary
  0
ACDBDICTIONARYWDFLT
  5
E
102
{ACAD_REACTORS
330
C
102
}
330
C
100
AcDbDictionary
281
     1
  3
Normal
350
F
100
AcDbDictionaryWithDefault
340
F
  0
DICTIONARY
  5
15C
102
{ACAD_REACTORS
330
C
102
}
330
C
100
AcDbDictionary
  3
CEPSNTYPE
350
166
  3
FINGERPRINTGUID
350
167
  3
HYPERLINKBASE
350
15F
  3
INSUNITS
350
165
  3
LAYOUTDICT
350
161
  3
LWETCUNION
350
164
  3
PLOTSETDICT
350
162
  3
PLOTSTYLNAMDICT
350
163
  3
PSVPSCALE
350
169
  3
PUCSBASE
350
16C
  3
PUCSORGBACK
350
172
  3
PUCSORGBOTTOM
350
16E
  3
PUCSORGFRONT
350
171
  3
PUCSORGLEFT
350
16F
  3
PUCSORGRIGHT
350
170
  3
PUCSORGTOP
350
16D
  3
PUCSORTHOREF
350
16A
  3
PUCSORTHOVIEW
350
16B
  3
STYLESHEET
350
160
  3
TSTACKALIGN
350
15D
  3
TSTACKSIZE
350
15E
  3
UCSBASE
350
175
  3
UCSORGBACK
350
17B
  3
UCSORGBOTTOM
350
177
  3
UCSORGFRONT
350
17A
  3
UCSORGLEFT
350
178
  3
UCSORGRIGHT
350
179
  3
UCSORGTOP
350
176
  3
UCSORTHOREF
350
173
  3
UCSORTHOVIEW
350
174
  3
VERSIONGUID
350
168
  0
XRECORD
  5
17F
102
{ACAD_REACTORS
330
17E
102
}
330
17E
100
AcDbXrecord
340
1E
  0
XRECORD
  5
17D
102
{ACAD_REACTORS
330
17C
102
}
330
17C
100
AcDbXrecord
340
1A
  0
MLINESTYLE
  5
17
102
{ACAD_REACTORS
330
16
102
}
330
16
100
AcDbMlineStyle
  2
STANDARD
 70
     0
  3

 62
   256
 51
90.0
 52
90.0
 71
     2
 49
0.5
 62
   256
  6
BYLAYER
 49
-0.5
 62
   256
  6
BYLAYER
  0
ACDBPLACEHOLDER
  5
F
102
{ACAD_REACTORS
330
E
102
}
330
E
100
AcDbPlaceHolder
280
     0
  0
XRECORD
  5
166
102
{ACAD_REACTORS
330
15C
102
}
330
15C
100
AcDbXrecord
 90
        0
  0
XRECORD
  5
167
102
{ACAD_REACTORS
330
15C
102
}
330
15C
100
AcDbXrecord
  1
{31ECD465-557A-47DC-A174-3CB93AB85356}
  0
XRECORD
  5
15F
102
{ACAD_REACTORS
330
15C
102
}
330
15C
100
AcDbXrecord
  1

  0
XRECORD
  5
165
102
{ACAD_REACTORS
330
15C
102
}
330
15C
100
AcDbXrecord
 90
        0
  0
XRECORD
  5
161
102
{ACAD_REACTORS
330
15C
102
}
330
15C
100
AcDbXrecord
340
19
  0
XRECORD
  5
164
102
{ACAD_REACTORS
330
15C
102
}
330
15C
100
AcDbXrecord
 90
    10781
  0
XRECORD
  5
162
102
{ACAD_REACTORS
330
15C
102
}
330
15C
100
AcDbXrecord
340
18
  0
XRECORD
  5
163
102
{ACAD_REACTORS
330
15C
102
}
330
15C
100
AcDbXrecord
340
E
  0
XRECORD
  5
169
102
{ACAD_REACTORS
330
15C
102
}
330
15C
100
AcDbXrecord
 40
0.0
  0
XRECORD
  5
16C
102
{ACAD_REACTORS
330
15C
102
}
330
15C
100
AcDbXrecord
340
0
  0
XRECORD
  5
172
102
{ACAD_REACTORS
330
15C
102
}
330
15C
100
AcDbXrecord
 10
0.0
 20
0.0
 30
0.0
  0
XRECORD
  5
16E
102
{ACAD_REACTORS
330
15C
102
}
330
15C
100
AcDbXrecord
 10
0.0
 20
0.0
 30
0.0
  0
XRECORD
  5
171
102
{ACAD_REACTORS
330
15C
102
}
330
15C
100
AcDbXrecord
 10
0.0
 20
0.0
 30
0.0
  0
XRECORD
  5
16F
102
{ACAD_REACTORS
330
15C
102
}
330
15C
100
AcDbXrecord
 10
0.0
 20
0.0
 30
0.0
  0
XRECORD
  5
170
102
{ACAD_REACTORS
330
15C
102
}
330
15C
100
AcDbXrecord
 10
0.0
 20
0.0
 30
0.0
  0
XRECORD
  5
16D
102
{ACAD_REACTORS
330
15C
102
}
330
15C
100
AcDbXrecord
 10
0.0
 20
0.0
 30
0.0
  0
XRECORD
  5
16A
102
{ACAD_REACTORS
330
15C
102
}
330
15C
100
AcDbXrecord
340
0
  0
XRECORD
  5
16B
102
{ACAD_REACTORS
330
15C
102
}
330
15C
100
AcDbXrecord
 70
     0
  0
XRECORD
  5
160
102
{ACAD_REACTORS
330
15C
102
}
330
15C
100
AcDbXrecord
  1

  0
XRECORD
  5
15D
102
{ACAD_REACTORS
330
15C
102
}
330
15C
100
AcDbXrecord
 90
        1
  0
XRECORD
  5
15E
102
{ACAD_REACTORS
330
15C
102
}
330
15C
100
AcDbXrecord
 90
       70
  0
XRECORD
  5
175
102
{ACAD_REACTORS
330
15C
102
}
330
15C
100
AcDbXrecord
340
0
  0
XRECORD
  5
17B
102
{ACAD_REACTORS
330
15C
102
}
330
15C
100
AcDbXrecord
 10
0.0
 20
0.0
 30
0.0
  0
XRECORD
  5
177
102
{ACAD_REACTORS
330
15C
102
}
330
15C
100
AcDbXrecord
 10
0.0
 20
0.0
 30
0.0
  0
XRECORD
  5
17A
102
{ACAD_REACTORS
330
15C
102
}
330
15C
100
AcDbXrecord
 10
0.0
 20
0.0
 30
0.0
  0
XRECORD
  5
178
102
{ACAD_REACTORS
330
15C
102
}
330
15C
100
AcDbXrecord
 10
0.0
 20
0.0
 30
0.0
  0
XRECORD
  5
179
102
{ACAD_REACTORS
330
15C
102
}
330
15C
100
AcDbXrecord
 10
0.0
 20
0.0
 30
0.0
  0
XRECORD
  5
176
102
{ACAD_REACTORS
330
15C
102
}
330
15C
100
AcDbXrecord
 10
0.0
 20
0.0
 30
0.0
  0
XRECORD
  5
173
102
{ACAD_REACTORS
330
15C
102
}
330
15C
100
AcDbXrecord
340
0
  0
XRECORD
  5
174
102
{ACAD_REACTORS
330
15C
102
}
330
15C
100
AcDbXrecord
 70
     0
  0
XRECORD
  5
168
102
{ACAD_REACTORS
330
15C
102
}
330
15C
100
AcDbXrecord
  1
{D600E186-302C-4ED2-A767-3090DCF64065}
  0
ENDSEC
  0
EOF
