  0
SECTION
  2
HEADER
  9
$ACADVER
  1
AC1009
  9
$INSBASE
 10
0.0
 20
0.0
 30
0.0
  9
$EXTMIN
 10
-0.03025
 20
-5.03175
 30
0.0
  9
$EXTMAX
 10
27.78025
 20
11.03175
 30
0.0
  9
$LIMMIN
 10
0.0
 20
0.0
  9
$LIMMAX
 10
12.0
 20
9.0
  9
$ORTHOMODE
 70
     0
  9
$REGENMODE
 70
     1
  9
$FILLMODE
 70
     1
  9
$QTEXTMODE
 70
     0
  9
$MIRRTEXT
 70
     1
  9
$DRAGMODE
 70
     2
  9
$LTSCALE
 40
1.0
  9
$OSMODE
 70
     0
  9
$ATTMODE
 70
     1
  9
$TEXTSIZE
 40
0.2
  9
$TRACEWID
 40
0.05
  9
$TEXTSTYLE
  7
STANDARD
  9
$CLAYER
  8
DAMAN
  9
$CELTYPE
  6
BYLAYER
  9
$CECOLOR
 62
   256
  9
$DIMSCALE
 40
1.0
  9
$DIMASZ
 40
0.18
  9
$DIMEXO
 40
0.0625
  9
$DIMDLI
 40
0.38
  9
$DIMRND
 40
0.0
  9
$DIMDLE
 40
0.0
  9
$DIMEXE
 40
0.18
  9
$DIMTP
 40
0.0
  9
$DIMTM
 40
0.0
  9
$DIMTXT
 40
0.18
  9
$DIMCEN
 40
0.09
  9
$DIMTSZ
 40
0.0
  9
$DIMTOL
 70
     0
  9
$DIMLIM
 70
     0
  9
$DIMTIH
 70
     1
  9
$DIMTOH
 70
     1
  9
$DIMSE1
 70
     0
  9
$DIMSE2
 70
     0
  9
$DIMTAD
 70
     0
  9
$DIMZIN
 70
     0
  9
$DIMBLK
  1

  9
$DIMASO
 70
     1
  9
$DIMSHO
 70
     1
  9
$DIMPOST
  1

  9
$DIMAPOST
  1

  9
$DIMALT
 70
     0
  9
$DIMALTD
 70
     2
  9
$DIMALTF
 40
25.4
  9
$DIMLFAC
 40
1.0
  9
$DIMTOFL
 70
     0
  9
$DIMTVP
 40
0.0
  9
$DIMTIX
 70
     0
  9
$DIMSOXD
 70
     0
  9
$DIMSAH
 70
     0
  9
$DIMBLK1
  1

  9
$DIMBLK2
  1

  9
$DIMSTYLE
  2
*UNNAMED
  9
$DIMCLRD
 70
     0
  9
$DIMCLRE
 70
     0
  9
$DIMCLRT
 70
     0
  9
$DIMTFAC
 40
1.0
  9
$DIMGAP
 40
0.09
  9
$LUNITS
 70
     2
  9
$LUPREC
 70
     4
  9
$SKETCHINC
 40
0.1
  9
$FILLETRAD
 40
0.0
  9
$AUNITS
 70
     0
  9
$AUPREC
 70
     0
  9
$MENU
  1
tom
  9
$ELEVATION
 40
0.0
  9
$PELEVATION
 40
0.0
  9
$THICKNESS
 40
0.0
  9
$LIMCHECK
 70
     0
  9
$BLIPMODE
 70
     1
  9
$CHAMFERA
 40
0.0
  9
$CHAMFERB
 40
0.0
  9
$SKPOLY
 70
     0
  9
$TDCREATE
 40
2449804.999614491
  9
$TDUPDATE
 40
2449804.999614491
  9
$TDINDWG
 40
0.0000000000
  9
$TDUSRTIMER
 40
0.0000000000
  9
$USRTIMER
 70
     1
  9
$ANGBASE
 50
0.0
  9
$ANGDIR
 70
     0
  9
$PDMODE
 70
     0
  9
$PDSIZE
 40
0.0
  9
$PLINEWID
 40
0.0
  9
$COORDS
 70
     1
  9
$SPLFRAME
 70
     0
  9
$SPLINETYPE
 70
     6
  9
$SPLINESEGS
 70
     8
  9
$ATTDIA
 70
     0
  9
$ATTREQ
 70
     1
  9
$HANDLING
 70
     0
  9
$HANDSEED
  5
0
  9
$SURFTAB1
 70
     6
  9
$SURFTAB2
 70
     6
  9
$SURFTYPE
 70
     6
  9
$SURFU
 70
     6
  9
$SURFV
 70
     6
  9
$UCSNAME
  2

  9
$UCSORG
 10
0.0
 20
0.0
 30
0.0
  9
$UCSXDIR
 10
1.0
 20
0.0
 30
0.0
  9
$UCSYDIR
 10
0.0
 20
1.0
 30
0.0
  9
$PUCSNAME
  2

  9
$PUCSORG
 10
0.0
 20
0.0
 30
0.0
  9
$PUCSXDIR
 10
1.0
 20
0.0
 30
0.0
  9
$PUCSYDIR
 10
0.0
 20
1.0
 30
0.0
  9
$USERI1
 70
     0
  9
$USERI2
 70
     0
  9
$USERI3
 70
     0
  9
$USERI4
 70
     0
  9
$USERI5
 70
     0
  9
$USERR1
 40
0.0
  9
$USERR2
 40
0.0
  9
$USERR3
 40
0.0
  9
$USERR4
 40
0.0
  9
$USERR5
 40
0.0
  9
$WORLDVIEW
 70
     1
  9
$SHADEDGE
 70
     3
  9
$SHADEDIF
 70
    70
  9
$TILEMODE
 70
     1
  9
$MAXACTVP
 70
    16
  9
$PINSBASE
 10
0.0
 20
0.0
 30
0.0
  9
$PLIMCHECK
 70
     0
  9
$PEXTMIN
 10
1.000000E+20
 20
1.000000E+20
 30
1.000000E+20
  9
$PEXTMAX
 10
-1.000000E+20
 20
-1.000000E+20
 30
-1.000000E+20
  9
$PLIMMIN
 10
0.0
 20
0.0
  9
$PLIMMAX
 10
12.0
 20
9.0
  9
$UNITMODE
 70
     0
  9
$VISRETAIN
 70
     0
  9
$PLINEGEN
 70
     0
  9
$PSLTSCALE
 70
     1
  9
$TREEDEPTH
 70
  3020
  9
$DWGCODEPAGE
  3
ascii
  0
ENDSEC
  0
SECTION
  2
TABLES
  0
TABLE
  2
VPORT
 70
     2
  0
VPORT
  2
*ACTIVE
 70
     0
 10
0.0
 20
0.0
 11
1.0
 21
1.0
 12
13.875
 22
5.150309
 13
0.0
 23
0.0
 14
0.03125
 24
0.03125
 15
0.0
 25
0.0
 16
0.0
 26
0.0
 36
1.0
 17
0.0
 27
0.0
 37
0.0
 40
20.364119
 41
1.365662
 42
50.0
 43
0.0
 44
0.0
 50
0.0
 51
0.0
 71
     0
 72
   100
 73
     1
 74
     1
 75
     1
 76
     0
 77
     0
 78
     0
  0
ENDTAB
  0
TABLE
  2
LTYPE
 70
     6
  0
LTYPE
  2
CONTINUOUS
 70
    64
  3
Solid line
 72
    65
 73
     0
 40
0.0
  0
LTYPE
  2
HIDDEN
 70
    64
  3
__ __ __ __ __ __ __ __ __ __ __ __ __ __ __ __
 72
    65
 73
     2
 40
0.375
 49
0.25
 49
-0.125
  0
LTYPE
  2
CENTER
 70
    64
  3
____ _ ____ _ ____ _ ____ _ ____ _ ____ _ ____
 72
    65
 73
     4
 40
2.0
 49
1.25
 49
-0.25
 49
0.25
 49
-0.25
  0
LTYPE
  2
PHANTOM
 70
    64
  3
_____ _ _ _____ _ _ _____ _ _ _____ _ _ ____
 72
    65
 73
     6
 40
2.5
 49
1.25
 49
-0.25
 49
0.25
 49
-0.25
 49
0.25
 49
-0.25
  0
LTYPE
  2
DOT
 70
     0
  3
. . . . . . . . . . . . . . . . . . . . . . . .
 72
    65
 73
     2
 40
0.25
 49
0.0
 49
-0.25
  0
LTYPE
  2
DASHED
 70
     0
  3
__ __ __ __ __ __ __ __ __ __ __ __ __ __ __ __
 72
    65
 73
     2
 40
0.75
 49
0.5
 49
-0.25
  0
ENDTAB
  0
TABLE
  2
LAYER
 70
     8
  0
LAYER
  2
0
 70
    64
 62
     7
  6
CONTINUOUS
  0
LAYER
  2
DAMAN
 70
    64
 62
     5
  6
CONTINUOUS
  0
LAYER
  2
CSOLID
 70
     0
 62
     3
  6
CONTINUOUS
  0
LAYER
  2
CHIDDEN
 70
    64
 62
     3
  6
HIDDEN
  0
LAYER
  2
CCENTER
 70
     0
 62
     4
  6
CENTER
  0
LAYER
  2
PHANTOM
 70
     0
 62
     1
  6
PHANTOM
  0
LAYER
  2
BORDER
 70
     0
 62
     7
  6
CONTINUOUS
  0
LAYER
  2
CDIM
 70
     0
 62
     2
  6
CONTINUOUS
  0
ENDTAB
  0
TABLE
  2
STYLE
 70
     2
  0
STYLE
  2
STANDARD
 70
    64
 40
0.0
 41
1.0
 50
0.0
 71
     0
 42
0.2
  3
txt
  4

  0
STYLE
  2
STR
 70
     0
 40
0.0
 41
1.0
 50
0.0
 71
     0
 42
0.25
  3
SIMPLEX
  4

  0
ENDTAB
  0
TABLE
  2
VIEW
 70
     0
  0
ENDTAB
  0
TABLE
  2
UCS
 70
     0
  0
ENDTAB
  0
TABLE
  2
APPID
 70
     1
  0
APPID
  2
ACAD
 70
    64
  0
ENDTAB
  0
TABLE
  2
DIMSTYLE
 70
     0
  0
ENDTAB
  0
ENDSEC
  0
SECTION
  2
BLOCKS
  0
BLOCK
  8
0
  2
350MKT
 70
     0
 10
0.0
 20
0.0
 30
0.0
  3
350MKT
  0
LINE
  8
DAMAN
 10
0.6245
 20
-0.2495
 30
0.0
 11
0.6245
 21
3.2505
 31
0.0
  0
INSERT
  8
DAMAN
  2
100CROSS
 10
0.312
 20
0.313
 30
0.0
 41
-0.34
 42
0.34
 50
270.0
 43
0.34
  0
POLYLINE
  8
DAMAN
 66
     1
 10
0.0
 20
0.0
 30
0.0
 70
   129
  0
VERTEX
  8
DAMAN
 10
0.0625
 20
0.456838
 30
0.0
  0
VERTEX
  8
DAMAN
 10
0.0625
 20
0.168162
 30
0.0
  0
VERTEX
  8
DAMAN
 10
0.3125
 20
0.023825
 30
0.0
  0
VERTEX
  8
DAMAN
 10
0.5625
 20
0.168162
 30
0.0
  0
VERTEX
  8
DAMAN
 10
0.5625
 20
0.456838
 30
0.0
  0
VERTEX
  8
DAMAN
 10
0.3125
 20
0.601175
 30
0.0
  0
SEQEND
  8
DAMAN
  0
CIRCLE
  8
DAMAN
 10
0.313
 20
0.313
 30
0.0
 40
0.249501
  0
LINE
  8
DAMAN
 10
-0.84325
 20
2.53175
 30
0.0
 11
-0.3745
 21
2.53175
 31
0.0
  0
LINE
  8
DAMAN
 10
-0.3745
 20
2.84425
 30
0.0
 11
-0.84325
 21
2.84425
 31
0.0
  0
LINE
  8
DAMAN
  6
HIDDEN
 10
-0.8745
 20
2.813
 30
0.0
 11
-0.3745
 21
2.813
 31
0.0
  0
LINE
  8
DAMAN
  6
HIDDEN
 10
-0.3745
 20
2.563
 30
0.0
 11
-0.8745
 21
2.563
 31
0.0
  0
LINE
  8
DAMAN
 10
0.1255
 20
2.688
 30
0.0
 11
-1.03075
 21
2.688
 31
0.0
  0
LINE
  8
DAMAN
 10
-0.84325
 20
2.84425
 30
0.0
 11
-0.84325
 21
2.53175
 31
0.0
  0
LINE
  8
DAMAN
 10
-0.84325
 20
2.84425
 30
0.0
 11
-0.8745
 21
2.813
 31
0.0
  0
LINE
  8
DAMAN
 10
-0.8745
 20
2.563
 30
0.0
 11
-0.84325
 21
2.53175
 31
0.0
  0
LINE
  8
DAMAN
 10
-0.8745
 20
2.813
 30
0.0
 11
-0.8745
 21
2.563
 31
0.0
  0
INSERT
  8
DAMAN
  2
100CROSS
 10
0.312
 20
2.688
 30
0.0
 41
-0.34
 42
0.34
 50
270.0
 43
0.34
  0
POLYLINE
  8
DAMAN
 66
     1
 10
0.0
 20
0.0
 30
0.0
 70
   129
  0
VERTEX
  8
DAMAN
 10
0.0625
 20
2.831838
 30
0.0
  0
VERTEX
  8
DAMAN
 10
0.0625
 20
2.543162
 30
0.0
  0
VERTEX
  8
DAMAN
 10
0.3125
 20
2.398825
 30
0.0
  0
VERTEX
  8
DAMAN
 10
0.5625
 20
2.543162
 30
0.0
  0
VERTEX
  8
DAMAN
 10
0.5625
 20
2.831838
 30
0.0
  0
VERTEX
  8
DAMAN
 10
0.3125
 20
2.976175
 30
0.0
  0
SEQEND
  8
DAMAN
  0
CIRCLE
  8
DAMAN
 10
0.313
 20
2.688
 30
0.0
 40
0.249501
  0
LINE
  8
DAMAN
 10
0.0005
 20
2.438
 30
0.0
 11
0.0005
 21
2.938
 31
0.0
  0
ARC
  8
DAMAN
 10
-0.098458
 20
2.471494
 30
0.0
 40
0.098958
 50
313.173551
 51
46.826449
  0
LINE
  8
DAMAN
 10
-0.2495
 20
2.399325
 30
0.0
 11
-0.03075
 21
2.399325
 31
0.0
  0
LINE
  8
DAMAN
 10
-0.03075
 20
2.399325
 30
0.0
 11
0.0005
 21
2.438
 31
0.0
  0
LINE
  8
DAMAN
 10
0.6245
 20
3.2505
 30
0.0
 11
-0.3755
 21
3.2505
 31
0.0
  0
LINE
  8
DAMAN
 10
-0.2495
 20
2.832338
 30
0.0
 11
-0.03075
 21
2.832338
 31
0.0
  0
LINE
  8
DAMAN
 10
-0.03075
 20
2.543662
 30
0.0
 11
-0.2495
 21
2.543662
 31
0.0
  0
LINE
  8
DAMAN
 10
-0.03075
 20
2.976675
 30
0.0
 11
-0.2495
 21
2.976675
 31
0.0
  0
ARC
  8
DAMAN
 10
-0.348458
 20
2.688
 30
0.0
 40
0.348958
 50
335.567302
 51
24.432698
  0
ARC
  8
DAMAN
 10
-0.098458
 20
2.904506
 30
0.0
 40
0.098958
 50
313.173551
 51
46.826449
  0
LINE
  8
DAMAN
 10
-0.03075
 20
2.976675
 30
0.0
 11
0.0005
 21
2.938
 31
0.0
  0
LINE
  8
DAMAN
 10
-0.3745
 20
0.46925
 30
0.0
 11
-0.84325
 21
0.46925
 31
0.0
  0
LINE
  8
DAMAN
  6
HIDDEN
 10
-0.8745
 20
0.438
 30
0.0
 11
-0.3745
 21
0.438
 31
0.0
  0
LINE
  8
DAMAN
 10
-0.84325
 20
0.15675
 30
0.0
 11
-0.3745
 21
0.15675
 31
0.0
  0
LINE
  8
DAMAN
  6
HIDDEN
 10
-0.3745
 20
0.188
 30
0.0
 11
-0.8745
 21
0.188
 31
0.0
  0
LINE
  8
DAMAN
 10
0.1255
 20
0.313
 30
0.0
 11
-1.03075
 21
0.313
 31
0.0
  0
LINE
  8
DAMAN
 10
-0.84325
 20
0.46925
 30
0.0
 11
-0.84325
 21
0.15675
 31
0.0
  0
LINE
  8
DAMAN
 10
-0.8745
 20
0.188
 30
0.0
 11
-0.84325
 21
0.15675
 31
0.0
  0
LINE
  8
DAMAN
 10
-0.8745
 20
0.438
 30
0.0
 11
-0.8745
 21
0.188
 31
0.0
  0
LINE
  8
DAMAN
 10
-0.84325
 20
0.46925
 30
0.0
 11
-0.8745
 21
0.438
 31
0.0
  0
LINE
  8
DAMAN
 10
0.0005
 20
0.063
 30
0.0
 11
0.0005
 21
0.563
 31
0.0
  0
ARC
  8
DAMAN
 10
-0.098458
 20
0.529506
 30
0.0
 40
0.098958
 50
313.173551
 51
46.826449
  0
LINE
  8
DAMAN
 10
-0.2495
 20
0.457338
 30
0.0
 11
-0.03075
 21
0.457338
 31
0.0
  0
LINE
  8
DAMAN
 10
-0.2495
 20
0.024325
 30
0.0
 11
-0.03075
 21
0.024325
 31
0.0
  0
LINE
  8
DAMAN
 10
-0.03075
 20
0.168662
 30
0.0
 11
-0.2495
 21
0.168662
 31
0.0
  0
ARC
  8
DAMAN
 10
-0.098458
 20
0.096494
 30
0.0
 40
0.098958
 50
313.173551
 51
46.826449
  0
LINE
  8
DAMAN
 10
-0.03075
 20
0.024325
 30
0.0
 11
0.0005
 21
0.063
 31
0.0
  0
ARC
  8
DAMAN
 10
-0.348458
 20
0.313
 30
0.0
 40
0.348958
 50
335.567302
 51
24.432698
  0
LINE
  8
DAMAN
 10
-0.03075
 20
0.601675
 30
0.0
 11
-0.2495
 21
0.601675
 31
0.0
  0
LINE
  8
DAMAN
 10
-0.03075
 20
0.601675
 30
0.0
 11
0.0005
 21
0.563
 31
0.0
  0
LINE
  8
DAMAN
 10
-0.2555
 20
3.2505
 30
0.0
 11
-0.2555
 21
-0.2495
 31
0.0
  0
LINE
  8
DAMAN
 10
-0.3755
 20
3.2505
 30
0.0
 11
-0.3755
 21
-0.2495
 31
0.0
  0
LINE
  8
DAMAN
 10
-0.3755
 20
-0.2495
 30
0.0
 11
0.6245
 21
-0.2495
 31
0.0
  0
ENDBLK
  8
0
  0
BLOCK
  8
0
  2
100CROSS
 70
    64
 10
5.625
 20
4.59375
 30
0.0
  3
100CROSS
  0
INSERT
  8
0
  2
050CROSS
 10
5.625
 20
4.59375
 30
0.0
 43
0.0
  0
ENDBLK
  8
0
  0
BLOCK
  8
0
  2
050CROSS
 70
    64
 10
5.0
 20
5.0
 30
0.0
  3
050CROSS
  0
LINE
  8
0
 10
5.0
 20
5.28125
 30
0.0
 11
5.0
 21
5.78125
 31
0.0
  0
LINE
  8
0
 10
5.0
 20
4.875
 30
0.0
 11
5.0
 21
5.125
 31
0.0
  0
LINE
  8
0
 10
5.0
 20
4.15625
 30
0.0
 11
5.0
 21
4.71875
 31
0.0
  0
LINE
  8
0
 10
5.25
 20
5.0
 30
0.0
 11
5.8125
 21
5.0
 31
0.0
  0
LINE
  8
0
 10
4.90625
 20
5.0
 30
0.0
 11
5.09375
 21
5.0
 31
0.0
  0
LINE
  8
0
 10
4.1875
 20
5.0
 30
0.0
 11
4.75
 21
5.0
 31
0.0
  0
ENDBLK
  8
0
  0
BLOCK
  8
0
  2
400MKT
 70
    64
 10
0.0
 20
0.0
 30
0.0
  3
400MKT
  0
LINE
  8
DAMAN
 10
-1.0
 20
-4.0
 30
0.0
 11
0.0
 21
-4.0
 31
0.0
  0
LINE
  8
DAMAN
 10
-0.499
 20
-3.6875
 30
0.0
 11
-1.65525
 21
-3.6875
 31
0.0
  0
LINE
  8
DAMAN
 10
0.0
 20
-4.0
 30
0.0
 11
0.0
 21
0.0
 31
0.0
  0
POLYLINE
  8
DAMAN
 66
     1
 10
0.0
 20
0.0
 30
0.0
 70
   129
  0
VERTEX
  8
DAMAN
 10
-0.562
 20
-3.543662
 30
0.0
  0
VERTEX
  8
DAMAN
 10
-0.562
 20
-3.832338
 30
0.0
  0
VERTEX
  8
DAMAN
 10
-0.312
 20
-3.976675
 30
0.0
  0
VERTEX
  8
DAMAN
 10
-0.062
 20
-3.832338
 30
0.0
  0
VERTEX
  8
DAMAN
 10
-0.062
 20
-3.543662
 30
0.0
  0
VERTEX
  8
DAMAN
 10
-0.312
 20
-3.399325
 30
0.0
  0
SEQEND
  8
DAMAN
  0
CIRCLE
  8
DAMAN
 10
-0.3115
 20
-3.6875
 30
0.0
 40
0.249501
  0
INSERT
  8
DAMAN
  2
100CROSS
 10
-0.3125
 20
-3.6875
 30
0.0
 41
-0.34
 42
0.34
 50
270.0
 43
0.34
  0
LINE
  8
DAMAN
 10
-0.65525
 20
-3.398825
 30
0.0
 11
-0.874
 21
-3.398825
 31
0.0
  0
LINE
  8
DAMAN
 10
-0.65525
 20
-3.831838
 30
0.0
 11
-0.874
 21
-3.831838
 31
0.0
  0
LINE
  8
DAMAN
 10
-0.874
 20
-3.976175
 30
0.0
 11
-0.65525
 21
-3.976175
 31
0.0
  0
LINE
  8
DAMAN
 10
-0.874
 20
-3.543162
 30
0.0
 11
-0.65525
 21
-3.543162
 31
0.0
  0
LINE
  8
DAMAN
 10
-0.499
 20
-0.3125
 30
0.0
 11
-1.65525
 21
-0.3125
 31
0.0
  0
LINE
  8
DAMAN
 10
-0.874
 20
-0.601175
 30
0.0
 11
-0.65525
 21
-0.601175
 31
0.0
  0
LINE
  8
DAMAN
 10
-0.874
 20
-0.168162
 30
0.0
 11
-0.65525
 21
-0.168162
 31
0.0
  0
LINE
  8
DAMAN
 10
-0.65525
 20
-0.456838
 30
0.0
 11
-0.874
 21
-0.456838
 31
0.0
  0
LINE
  8
DAMAN
 10
-0.65525
 20
-0.023825
 30
0.0
 11
-0.874
 21
-0.023825
 31
0.0
  0
LINE
  8
DAMAN
 10
0.0
 20
0.0
 30
0.0
 11
-1.0
 21
0.0
 31
0.0
  0
LINE
  8
DAMAN
 10
-0.88
 20
0.0
 30
0.0
 11
-0.88
 21
-4.0
 31
0.0
  0
LINE
  8
DAMAN
 10
-1.0
 20
0.0
 30
0.0
 11
-1.0
 21
-4.0
 31
0.0
  0
LINE
  8
DAMAN
  6
HIDDEN
 10
-1.499
 20
-3.5625
 30
0.0
 11
-0.999
 21
-3.5625
 31
0.0
  0
LINE
  8
DAMAN
 10
-0.999
 20
-3.53125
 30
0.0
 11
-1.46775
 21
-3.53125
 31
0.0
  0
LINE
  8
DAMAN
  6
HIDDEN
 10
-0.999
 20
-3.8125
 30
0.0
 11
-1.499
 21
-3.8125
 31
0.0
  0
LINE
  8
DAMAN
 10
-1.46775
 20
-3.84375
 30
0.0
 11
-0.999
 21
-3.84375
 31
0.0
  0
LINE
  8
DAMAN
 10
-1.499
 20
-3.5625
 30
0.0
 11
-1.499
 21
-3.8125
 31
0.0
  0
LINE
  8
DAMAN
 10
-1.46775
 20
-3.53125
 30
0.0
 11
-1.46775
 21
-3.84375
 31
0.0
  0
LINE
  8
DAMAN
 10
-1.499
 20
-3.8125
 30
0.0
 11
-1.46775
 21
-3.84375
 31
0.0
  0
LINE
  8
DAMAN
 10
-1.46775
 20
-3.53125
 30
0.0
 11
-1.499
 21
-3.5625
 31
0.0
  0
LINE
  8
DAMAN
 10
-1.499
 20
-0.1875
 30
0.0
 11
-1.499
 21
-0.4375
 31
0.0
  0
LINE
  8
DAMAN
 10
-1.46775
 20
-0.15625
 30
0.0
 11
-1.46775
 21
-0.46875
 31
0.0
  0
LINE
  8
DAMAN
 10
-1.46775
 20
-0.46875
 30
0.0
 11
-0.999
 21
-0.46875
 31
0.0
  0
LINE
  8
DAMAN
  6
HIDDEN
 10
-0.999
 20
-0.4375
 30
0.0
 11
-1.499
 21
-0.4375
 31
0.0
  0
LINE
  8
DAMAN
 10
-1.499
 20
-0.4375
 30
0.0
 11
-1.46775
 21
-0.46875
 31
0.0
  0
LINE
  8
DAMAN
 10
-0.999
 20
-0.15625
 30
0.0
 11
-1.46775
 21
-0.15625
 31
0.0
  0
LINE
  8
DAMAN
  6
HIDDEN
 10
-1.499
 20
-0.1875
 30
0.0
 11
-0.999
 21
-0.1875
 31
0.0
  0
LINE
  8
DAMAN
 10
-1.46775
 20
-0.15625
 30
0.0
 11
-1.499
 21
-0.1875
 31
0.0
  0
ARC
  8
DAMAN
 10
-0.722958
 20
-3.904006
 30
0.0
 40
0.098958
 50
313.173551
 51
46.826449
  0
LINE
  8
DAMAN
 10
-0.624
 20
-3.9375
 30
0.0
 11
-0.624
 21
-3.4375
 31
0.0
  0
LINE
  8
DAMAN
 10
-0.65525
 20
-3.976175
 30
0.0
 11
-0.624
 21
-3.9375
 31
0.0
  0
ARC
  8
DAMAN
 10
-0.972958
 20
-3.6875
 30
0.0
 40
0.348958
 50
335.567302
 51
24.432698
  0
ARC
  8
DAMAN
 10
-0.722958
 20
-3.470994
 30
0.0
 40
0.098958
 50
313.173551
 51
46.826449
  0
LINE
  8
DAMAN
 10
-0.65525
 20
-3.398825
 30
0.0
 11
-0.624
 21
-3.4375
 31
0.0
  0
ARC
  8
DAMAN
 10
-0.972958
 20
-0.3125
 30
0.0
 40
0.348958
 50
335.567302
 51
24.432698
  0
INSERT
  8
DAMAN
  2
100CROSS
 10
-0.3125
 20
-0.3125
 30
0.0
 41
-0.34
 42
0.34
 50
270.0
 43
0.34
  0
POLYLINE
  8
DAMAN
 66
     1
 10
0.0
 20
0.0
 30
0.0
 70
   129
  0
VERTEX
  8
DAMAN
 10
-0.562
 20
-0.168662
 30
0.0
  0
VERTEX
  8
DAMAN
 10
-0.562
 20
-0.457338
 30
0.0
  0
VERTEX
  8
DAMAN
 10
-0.312
 20
-0.601675
 30
0.0
  0
VERTEX
  8
DAMAN
 10
-0.062
 20
-0.457338
 30
0.0
  0
VERTEX
  8
DAMAN
 10
-0.062
 20
-0.168662
 30
0.0
  0
VERTEX
  8
DAMAN
 10
-0.312
 20
-0.024325
 30
0.0
  0
SEQEND
  8
DAMAN
  0
CIRCLE
  8
DAMAN
 10
-0.3115
 20
-0.3125
 30
0.0
 40
0.249501
  0
LINE
  8
DAMAN
 10
-0.624
 20
-0.5625
 30
0.0
 11
-0.624
 21
-0.0625
 31
0.0
  0
LINE
  8
DAMAN
 10
-0.65525
 20
-0.601175
 30
0.0
 11
-0.624
 21
-0.5625
 31
0.0
  0
ARC
  8
DAMAN
 10
-0.722958
 20
-0.529006
 30
0.0
 40
0.098958
 50
313.173551
 51
46.826449
  0
LINE
  8
DAMAN
 10
-0.65525
 20
-0.023825
 30
0.0
 11
-0.624
 21
-0.0625
 31
0.0
  0
ARC
  8
DAMAN
 10
-0.722958
 20
-0.095994
 30
0.0
 40
0.098958
 50
313.173551
 51
46.826449
  0
ENDBLK
  8
0
  0
BLOCK
  8
0
  2
300MKS
 70
     0
 10
0.0
 20
0.0
 30
0.0
  3
300MKS
  0
LINE
  8
DAMAN
 10
-1.0
 20
-0.375
 30
0.0
 11
-0.25
 21
-0.375
 31
0.0
  0
LINE
  8
DAMAN
 10
-0.25
 20
-0.25
 30
0.0
 11
-1.0
 21
-0.25
 31
0.0
  0
LINE
  8
DAMAN
 10
-0.84375
 20
-0.84375
 30
0.0
 11
-0.53125
 21
-0.84375
 31
0.0
  0
LINE
  8
DAMAN
 10
-0.8125
 20
-0.875
 30
0.0
 11
-0.5625
 21
-0.875
 31
0.0
  0
LINE
  8
DAMAN
 10
-0.4375
 20
0.0
 30
0.0
 11
-0.9375
 21
0.0
 31
0.0
  0
ARC
  8
DAMAN
 10
-0.6875
 20
-0.348958
 30
0.0
 40
0.348958
 50
65.567302
 51
114.432698
  0
LINE
  8
DAMAN
 10
-0.6875
 20
0.125
 30
0.0
 11
-0.6875
 21
-1.03125
 31
0.0
  0
LINE
  8
DAMAN
  6
HIDDEN
 10
-0.8125
 20
-0.875
 30
0.0
 11
-0.8125
 21
-0.375
 31
0.0
  0
LINE
  8
DAMAN
 10
-0.84375
 20
-0.375
 30
0.0
 11
-0.84375
 21
-0.84375
 31
0.0
  0
LINE
  8
DAMAN
 10
-0.84375
 20
-0.84375
 30
0.0
 11
-0.8125
 21
-0.875
 31
0.0
  0
LINE
  8
DAMAN
 10
-1.0
 20
-0.25
 30
0.0
 11
-1.0
 21
-0.375
 31
0.0
  0
ARC
  8
DAMAN
 10
-0.904006
 20
-0.098958
 30
0.0
 40
0.098958
 50
43.173551
 51
136.826449
  0
LINE
  8
DAMAN
 10
-0.976175
 20
-0.03125
 30
0.0
 11
-0.976175
 21
-0.25
 31
0.0
  0
LINE
  8
DAMAN
 10
-0.976175
 20
-0.03125
 30
0.0
 11
-0.9375
 21
0.0
 31
0.0
  0
LINE
  8
DAMAN
 10
-0.831838
 20
-0.25
 30
0.0
 11
-0.831838
 21
-0.03125
 31
0.0
  0
LINE
  8
DAMAN
 10
0.0
 20
-0.125
 30
0.0
 11
0.0
 21
0.625
 31
0.0
  0
LINE
  8
DAMAN
 10
-0.125
 20
0.625
 30
0.0
 11
-0.125
 21
-0.125
 31
0.0
  0
LINE
  8
DAMAN
  6
HIDDEN
 10
-0.5625
 20
-0.375
 30
0.0
 11
-0.5625
 21
-0.875
 31
0.0
  0
LINE
  8
DAMAN
 10
-0.53125
 20
-0.84375
 30
0.0
 11
-0.53125
 21
-0.375
 31
0.0
  0
LINE
  8
DAMAN
 10
-0.5625
 20
-0.875
 30
0.0
 11
-0.53125
 21
-0.84375
 31
0.0
  0
ARC
  8
DAMAN
 10
-0.25
 20
-0.125
 30
0.0
 40
0.25
 50
270.0
 51
0.0
  0
ARC
  8
DAMAN
 10
-0.25
 20
-0.125
 30
0.0
 40
0.125
 50
270.0
 51
0.0
  0
LINE
  8
DAMAN
 10
-0.543162
 20
-0.03125
 30
0.0
 11
-0.543162
 21
-0.25
 31
0.0
  0
LINE
  8
DAMAN
 10
-0.398825
 20
-0.25
 30
0.0
 11
-0.398825
 21
-0.03125
 31
0.0
  0
ARC
  8
DAMAN
 10
-0.470994
 20
-0.098958
 30
0.0
 40
0.098958
 50
43.173551
 51
136.826449
  0
LINE
  8
DAMAN
 10
-0.398825
 20
-0.03125
 30
0.0
 11
-0.4375
 21
0.0
 31
0.0
  0
LINE
  8
DAMAN
 10
-0.125
 20
0.168162
 30
0.0
 11
-0.34375
 21
0.168162
 31
0.0
  0
LINE
  8
DAMAN
 10
-0.34375
 20
0.023825
 30
0.0
 11
-0.125
 21
0.023825
 31
0.0
  0
LINE
  8
DAMAN
 10
-0.34375
 20
0.456838
 30
0.0
 11
-0.125
 21
0.456838
 31
0.0
  0
LINE
  8
DAMAN
 10
-0.125
 20
0.601175
 30
0.0
 11
-0.34375
 21
0.601175
 31
0.0
  0
ARC
  8
DAMAN
 10
-0.026042
 20
0.3125
 30
0.0
 40
0.348958
 50
155.567302
 51
204.432698
  0
LINE
  8
DAMAN
 10
-0.375
 20
0.5625
 30
0.0
 11
-0.375
 21
0.0625
 31
0.0
  0
LINE
  8
DAMAN
 10
-0.34375
 20
0.023825
 30
0.0
 11
-0.375
 21
0.0625
 31
0.0
  0
ARC
  8
DAMAN
 10
-0.276042
 20
0.095994
 30
0.0
 40
0.098958
 50
133.173551
 51
226.826449
  0
LINE
  8
DAMAN
 10
-0.34375
 20
0.601175
 30
0.0
 11
-0.375
 21
0.5625
 31
0.0
  0
ARC
  8
DAMAN
 10
-0.276042
 20
0.529006
 30
0.0
 40
0.098958
 50
133.173551
 51
226.826449
  0
LINE
  8
DAMAN
 10
0.0
 20
0.625
 30
0.0
 11
-0.125
 21
0.625
 31
0.0
  0
LINE
  8
DAMAN
 10
-0.5
 20
0.3125
 30
0.0
 11
0.375
 21
0.3125
 31
0.0
  0
ENDBLK
  8
0
  0
BLOCK
  8
0
  2
400MKCT
 70
    64
 10
0.0
 20
0.0
 30
0.0
  3
400MKCT
  0
LINE
  8
DAMAN
 10
1.0
 20
0.0
 30
0.0
 11
0.0
 21
0.0
 31
0.0
  0
LINE
  8
DAMAN
 10
0.0
 20
-4.0
 30
0.0
 11
1.0
 21
-4.0
 31
0.0
  0
LINE
  8
DAMAN
 10
0.0
 20
0.0
 30
0.0
 11
0.0
 21
-4.0
 31
0.0
  0
LINE
  8
DAMAN
 10
0.12
 20
0.0
 30
0.0
 11
0.12
 21
-4.0
 31
0.0
  0
ARC
  8
DAMAN
 10
0.027042
 20
-3.6875
 30
0.0
 40
0.348958
 50
335.567302
 51
24.432698
  0
LINE
  8
DAMAN
 10
0.376
 20
-3.9375
 30
0.0
 11
0.376
 21
-3.4375
 31
0.0
  0
INSERT
  8
DAMAN
  2
100CROSS
 10
0.6875
 20
-3.6875
 30
0.0
 41
-0.34
 42
0.34
 50
270.0
 43
0.34
  0
CIRCLE
  8
DAMAN
 10
0.6885
 20
-3.6875
 30
0.0
 40
0.249501
  0
POLYLINE
  8
DAMAN
 66
     1
 10
0.0
 20
0.0
 30
0.0
 70
   129
  0
VERTEX
  8
DAMAN
 10
0.438
 20
-3.543662
 30
0.0
  0
VERTEX
  8
DAMAN
 10
0.438
 20
-3.832338
 30
0.0
  0
VERTEX
  8
DAMAN
 10
0.688
 20
-3.976675
 30
0.0
  0
VERTEX
  8
DAMAN
 10
0.938
 20
-3.832338
 30
0.0
  0
VERTEX
  8
DAMAN
 10
0.938
 20
-3.543662
 30
0.0
  0
VERTEX
  8
DAMAN
 10
0.688
 20
-3.399325
 30
0.0
  0
SEQEND
  8
DAMAN
  0
ARC
  8
DAMAN
 10
0.277042
 20
-3.904006
 30
0.0
 40
0.098958
 50
313.173551
 51
46.826449
  0
LINE
  8
DAMAN
 10
0.126
 20
-3.976175
 30
0.0
 11
0.34475
 21
-3.976175
 31
0.0
  0
LINE
  8
DAMAN
 10
0.34475
 20
-3.976175
 30
0.0
 11
0.376
 21
-3.9375
 31
0.0
  0
LINE
  8
DAMAN
 10
0.34475
 20
-3.831838
 30
0.0
 11
0.126
 21
-3.831838
 31
0.0
  0
LINE
  8
DAMAN
 10
0.126
 20
-3.543162
 30
0.0
 11
0.34475
 21
-3.543162
 31
0.0
  0
LINE
  8
DAMAN
 10
0.34475
 20
-3.398825
 30
0.0
 11
0.126
 21
-3.398825
 31
0.0
  0
LINE
  8
DAMAN
 10
0.34475
 20
-3.398825
 30
0.0
 11
0.376
 21
-3.4375
 31
0.0
  0
ARC
  8
DAMAN
 10
0.277042
 20
-3.470994
 30
0.0
 40
0.098958
 50
313.173551
 51
46.826449
  0
ARC
  8
DAMAN
 10
0.277042
 20
-0.095994
 30
0.0
 40
0.098958
 50
313.173551
 51
46.826449
  0
LINE
  8
DAMAN
 10
0.34475
 20
-0.023825
 30
0.0
 11
0.376
 21
-0.0625
 31
0.0
  0
POLYLINE
  8
DAMAN
 66
     1
 10
0.0
 20
0.0
 30
0.0
 70
   129
  0
VERTEX
  8
DAMAN
 10
0.438
 20
-0.168662
 30
0.0
  0
VERTEX
  8
DAMAN
 10
0.438
 20
-0.457338
 30
0.0
  0
VERTEX
  8
DAMAN
 10
0.688
 20
-0.601675
 30
0.0
  0
VERTEX
  8
DAMAN
 10
0.938
 20
-0.457338
 30
0.0
  0
VERTEX
  8
DAMAN
 10
0.938
 20
-0.168662
 30
0.0
  0
VERTEX
  8
DAMAN
 10
0.688
 20
-0.024325
 30
0.0
  0
SEQEND
  8
DAMAN
  0
CIRCLE
  8
DAMAN
 10
0.6885
 20
-0.3125
 30
0.0
 40
0.249501
  0
INSERT
  8
DAMAN
  2
100CROSS
 10
0.6875
 20
-0.3125
 30
0.0
 41
-0.34
 42
0.34
 50
270.0
 43
0.34
  0
LINE
  8
DAMAN
 10
0.376
 20
-0.5625
 30
0.0
 11
0.376
 21
-0.0625
 31
0.0
  0
ARC
  8
DAMAN
 10
0.027042
 20
-0.3125
 30
0.0
 40
0.348958
 50
335.567302
 51
24.432698
  0
LINE
  8
DAMAN
 10
0.34475
 20
-0.456838
 30
0.0
 11
0.126
 21
-0.456838
 31
0.0
  0
LINE
  8
DAMAN
 10
0.126
 20
-0.601175
 30
0.0
 11
0.34475
 21
-0.601175
 31
0.0
  0
ARC
  8
DAMAN
 10
0.277042
 20
-0.529006
 30
0.0
 40
0.098958
 50
313.173551
 51
46.826449
  0
LINE
  8
DAMAN
 10
0.34475
 20
-0.601175
 30
0.0
 11
0.376
 21
-0.5625
 31
0.0
  0
LINE
  8
DAMAN
 10
0.126
 20
-0.168162
 30
0.0
 11
0.34475
 21
-0.168162
 31
0.0
  0
LINE
  8
DAMAN
 10
0.34475
 20
-0.023825
 30
0.0
 11
0.126
 21
-0.023825
 31
0.0
  0
LINE
  8
DAMAN
 10
1.0
 20
-4.0
 30
0.0
 11
1.0
 21
0.0
 31
0.0
  0
ENDBLK
  8
0
  0
BLOCK
  8
0
  2
100NPTFT
 70
     0
 10
0.0
 20
0.0
 30
0.0
  3
100NPTFT
  0
CIRCLE
  8
DAMAN
 10
0.0
 20
0.0
 30
0.0
 40
0.5625
  0
CIRCLE
  8
DAMAN
 10
0.0
 20
0.0
 30
0.0
 40
0.672
  0
INSERT
  8
DAMAN
  2
100CROSS
 10
0.0
 20
0.0
 30
0.0
 41
1.2
 42
1.2
 43
0.0
  0
CIRCLE
  8
DAMAN
 10
0.0
 20
0.0
 30
0.0
 40
0.625
  0
ENDBLK
  8
0
  0
BLOCK
  8
0
  2
075NPTFT
 70
     0
 10
0.0
 20
0.0
 30
0.0
  3
075NPTFT
  0
INSERT
  8
DAMAN
  2
750NPTFT
 10
-6.410893
 20
-4.555543
 30
0.0
  0
ENDBLK
  8
0
  0
BLOCK
  8
0
  2
750NPTFT
 70
    64
 10
0.0
 20
0.0
 30
0.0
  3
750NPTFT
  0
INSERT
  8
DAMAN
 62
     5
  2
100CROSS
 10
6.410893
 20
4.555543
 30
0.0
 41
0.98
 42
0.98
 43
0.0
  0
CIRCLE
  8
DAMAN
 62
     5
 10
6.410893
 20
4.555543
 30
0.0
 40
0.491067
  0
CIRCLE
  8
DAMAN
 62
     5
 10
6.410893
 20
4.555543
 30
0.0
 40
0.453
  0
CIRCLE
  8
DAMAN
 62
     5
 10
6.410893
 20
4.555543
 30
0.0
 40
0.53125
  0
ENDBLK
  8
0
  0
BLOCK
  8
0
  2
D03
 70
    64
 10
0.0
 20
0.0
 30
0.0
  3
D03
  0
INSERT
  8
DAMAN
  2
100CROSS
 10
0.61
 20
-1.1875
 30
0.0
 41
0.25
 42
0.25
 43
0.0
  0
INSERT
  8
DAMAN
  2
100CROSS
 10
0.61
 20
-0.5
 30
0.0
 41
0.25
 42
0.25
 43
0.0
  0
CIRCLE
  8
DAMAN
 10
0.61
 20
-0.5
 30
0.0
 40
0.141125
  0
CIRCLE
  8
DAMAN
 10
0.61
 20
-1.1875
 30
0.0
 40
0.141125
  0
INSERT
  8
DAMAN
  2
100CROSS
 10
0.2035
 20
-0.844
 30
0.0
 41
0.25
 42
0.25
 43
0.0
  0
CIRCLE
  8
DAMAN
 10
0.2035
 20
-0.844
 30
0.0
 40
0.141375
  0
INSERT
  8
DAMAN
  2
100CROSS
 10
-0.03
 20
-1.3
 30
0.0
 41
0.171
 42
0.171
 43
0.0
  0
INSERT
  8
DAMAN
  2
100CROSS
 10
-0.03
 20
-1.594
 30
0.0
 41
0.188
 42
0.188
 43
0.0
  0
CIRCLE
  8
DAMAN
  6
HIDDEN
 10
-0.03
 20
-1.594
 30
0.0
 40
0.095
  0
CIRCLE
  8
DAMAN
 10
-0.03
 20
-1.59375
 30
0.0
 40
0.078
  0
CIRCLE
  8
DAMAN
 10
-0.03
 20
-1.3
 30
0.0
 40
0.0855
  0
POINT
  8
DAMAN
  6
BYBLOCK
 62
     0
 10
0.20425
 20
-0.75
 30
0.0
  0
POINT
  8
DAMAN
  6
BYBLOCK
 62
     0
 10
0.20425
 20
-0.75
 30
0.0
  0
INSERT
  8
DAMAN
  2
100CROSS
 10
0.0
 20
0.0
 30
0.0
 41
0.188
 42
0.188
 43
0.0
  0
CIRCLE
  8
DAMAN
 10
0.0
 20
0.0
 30
0.0
 40
0.078
  0
CIRCLE
  8
DAMAN
  6
HIDDEN
 10
0.0
 20
0.0
 30
0.0
 40
0.095
  0
INSERT
  8
DAMAN
  2
100CROSS
 10
1.016
 20
-0.844
 30
0.0
 41
0.25
 42
0.25
 43
0.0
  0
CIRCLE
  8
DAMAN
 10
1.016
 20
-0.844
 30
0.0
 40
0.141375
  0
INSERT
  8
DAMAN
  2
100CROSS
 10
1.25
 20
-1.594
 30
0.0
 41
0.188
 42
0.188
 43
0.0
  0
CIRCLE
  8
DAMAN
  6
HIDDEN
 10
1.25
 20
-1.594
 30
0.0
 40
0.095
  0
CIRCLE
  8
DAMAN
 10
1.25
 20
-1.59375
 30
0.0
 40
0.078
  0
CIRCLE
  8
DAMAN
 10
1.22
 20
0.0
 30
0.0
 40
0.078
  0
INSERT
  8
DAMAN
  2
100CROSS
 10
1.22
 20
0.0
 30
0.0
 41
0.188
 42
0.188
 43
0.0
  0
CIRCLE
  8
DAMAN
  6
HIDDEN
 10
1.22
 20
0.0
 30
0.0
 40
0.095
  0
ENDBLK
  8
0
  0
BLOCK
  8
0
  2
400MKS
 70
    64
 10
0.0
 20
0.0
 30
0.0
  3
400MKS
  0
LINE
  8
DAMAN
 10
-0.5
 20
0.0
 30
0.0
 11
0.375
 21
0.0
 31
0.0
  0
LINE
  8
DAMAN
 10
-0.53125
 20
-1.15625
 30
0.0
 11
-0.53125
 21
-0.6875
 31
0.0
  0
LINE
  8
DAMAN
  6
HIDDEN
 10
-0.5625
 20
-0.6875
 30
0.0
 11
-0.5625
 21
-1.1875
 31
0.0
  0
LINE
  8
DAMAN
 10
-0.84375
 20
-0.6875
 30
0.0
 11
-0.84375
 21
-1.15625
 31
0.0
  0
LINE
  8
DAMAN
  6
HIDDEN
 10
-0.8125
 20
-1.1875
 30
0.0
 11
-0.8125
 21
-0.6875
 31
0.0
  0
LINE
  8
DAMAN
 10
-0.6875
 20
-0.1875
 30
0.0
 11
-0.6875
 21
-1.34375
 31
0.0
  0
LINE
  8
DAMAN
 10
-0.8125
 20
-1.1875
 30
0.0
 11
-0.5625
 21
-1.1875
 31
0.0
  0
LINE
  8
DAMAN
 10
-0.84375
 20
-1.15625
 30
0.0
 11
-0.53125
 21
-1.15625
 31
0.0
  0
LINE
  8
DAMAN
 10
-0.84375
 20
-1.15625
 30
0.0
 11
-0.8125
 21
-1.1875
 31
0.0
  0
LINE
  8
DAMAN
 10
-0.5625
 20
-1.1875
 30
0.0
 11
-0.53125
 21
-1.15625
 31
0.0
  0
ARC
  8
DAMAN
 10
-0.6875
 20
-0.661458
 30
0.0
 40
0.348958
 50
65.567302
 51
114.432698
  0
LINE
  8
DAMAN
 10
-0.4375
 20
-0.3125
 30
0.0
 11
-0.9375
 21
-0.3125
 31
0.0
  0
LINE
  8
DAMAN
 10
-0.25
 20
-0.5625
 30
0.0
 11
-1.0
 21
-0.5625
 31
0.0
  0
LINE
  8
DAMAN
 10
-1.0
 20
-0.6875
 30
0.0
 11
-0.25
 21
-0.6875
 31
0.0
  0
LINE
  8
DAMAN
 10
-1.0
 20
-0.5625
 30
0.0
 11
-1.0
 21
-0.6875
 31
0.0
  0
LINE
  8
DAMAN
 10
-0.976175
 20
-0.34375
 30
0.0
 11
-0.9375
 21
-0.3125
 31
0.0
  0
ARC
  8
DAMAN
 10
-0.904006
 20
-0.411458
 30
0.0
 40
0.098958
 50
43.173551
 51
136.826449
  0
LINE
  8
DAMAN
 10
-0.976175
 20
-0.34375
 30
0.0
 11
-0.976175
 21
-0.5625
 31
0.0
  0
LINE
  8
DAMAN
 10
-0.831838
 20
-0.5625
 30
0.0
 11
-0.831838
 21
-0.34375
 31
0.0
  0
ARC
  8
DAMAN
 10
-0.276042
 20
-0.216506
 30
0.0
 40
0.098958
 50
133.173551
 51
226.826449
  0
LINE
  8
DAMAN
 10
-0.34375
 20
-0.288675
 30
0.0
 11
-0.375
 21
-0.25
 31
0.0
  0
LINE
  8
DAMAN
 10
-0.125
 20
0.3125
 30
0.0
 11
-0.125
 21
-0.4375
 31
0.0
  0
LINE
  8
DAMAN
 10
0.0
 20
-0.4375
 30
0.0
 11
0.0
 21
0.3125
 31
0.0
  0
LINE
  8
DAMAN
 10
-0.34375
 20
-0.288675
 30
0.0
 11
-0.125
 21
-0.288675
 31
0.0
  0
ARC
  8
DAMAN
 10
-0.25
 20
-0.4375
 30
0.0
 40
0.125
 50
270.0
 51
0.0
  0
ARC
  8
DAMAN
 10
-0.25
 20
-0.4375
 30
0.0
 40
0.25
 50
270.0
 51
0.0
  0
ARC
  8
DAMAN
 10
-0.470994
 20
-0.411458
 30
0.0
 40
0.098958
 50
43.173551
 51
136.826449
  0
LINE
  8
DAMAN
 10
-0.543162
 20
-0.34375
 30
0.0
 11
-0.543162
 21
-0.5625
 31
0.0
  0
LINE
  8
DAMAN
 10
-0.398825
 20
-0.5625
 30
0.0
 11
-0.398825
 21
-0.34375
 31
0.0
  0
LINE
  8
DAMAN
 10
-0.398825
 20
-0.34375
 30
0.0
 11
-0.4375
 21
-0.3125
 31
0.0
  0
LINE
  8
DAMAN
 10
-0.125
 20
0.288675
 30
0.0
 11
-0.34375
 21
0.288675
 31
0.0
  0
LINE
  8
DAMAN
 10
-0.34375
 20
0.144338
 30
0.0
 11
-0.125
 21
0.144338
 31
0.0
  0
LINE
  8
DAMAN
 10
-0.125
 20
-0.144338
 30
0.0
 11
-0.34375
 21
-0.144338
 31
0.0
  0
LINE
  8
DAMAN
 10
-0.375
 20
0.25
 30
0.0
 11
-0.375
 21
-0.25
 31
0.0
  0
ARC
  8
DAMAN
 10
-0.026042
 20
0.0
 30
0.0
 40
0.348958
 50
155.567302
 51
204.432698
  0
ARC
  8
DAMAN
 10
-0.276042
 20
0.216506
 30
0.0
 40
0.098958
 50
133.173551
 51
226.826449
  0
LINE
  8
DAMAN
 10
-0.34375
 20
0.288675
 30
0.0
 11
-0.375
 21
0.25
 31
0.0
  0
LINE
  8
DAMAN
 10
0.0
 20
0.3125
 30
0.0
 11
-0.125
 21
0.3125
 31
0.0
  0
ENDBLK
  8
0
  0
BLOCK
  8
0
  2
025NPTFT
 70
     0
 10
0.0
 20
0.0
 30
0.0
  3
025NPTFT
  0
INSERT
  8
DAMAN
  2
250NPTFT
 10
0.0
 20
0.0
 30
0.0
  0
ENDBLK
  8
0
  0
BLOCK
  8
0
  2
250NPTFT
 70
    64
 10
0.0
 20
0.0
 30
0.0
  3
250NPTFT
  0
CIRCLE
  8
DAMAN
 10
0.0
 20
0.0
 30
0.0
 40
0.273
  0
CIRCLE
  8
DAMAN
 10
0.0
 20
0.0
 30
0.0
 40
0.211
  0
INSERT
  8
DAMAN
  2
100CROSS
 10
0.0
 20
0.0
 30
0.0
 41
0.422
 42
0.422
 43
0.0
  0
CIRCLE
  8
DAMAN
 10
0.0
 20
0.0
 30
0.0
 40
0.242251
  0
POINT
  8
CHIDDEN
 10
-0.087928
 20
0.191806
 30
0.0
  0
POINT
  8
CHIDDEN
 10
-0.137717
 20
-0.15986
 30
0.0
  0
POINT
  8
CHIDDEN
 10
0.202707
 20
-0.058572
 30
0.0
  0
ENDBLK
  8
0
  0
BLOCK
  8
0
  2
C162T
 70
     0
 10
0.0
 20
0.0
 30
0.0
  3
C162T
  0
CIRCLE
  8
DAMAN
 10
0.0
 20
0.0
 30
0.0
 40
0.375
  0
CIRCLE
  8
DAMAN
 10
0.0
 20
0.0
 30
0.0
 40
0.5635
  0
CIRCLE
  8
DAMAN
 10
0.0
 20
0.0
 30
0.0
 40
0.617
  0
CIRCLE
  8
DAMAN
 10
0.0
 20
0.0
 30
0.0
 40
0.7005
  0
CIRCLE
  8
DAMAN
 10
0.0
 20
0.0
 30
0.0
 40
0.875
  0
CIRCLE
  8
DAMAN
  6
HIDDEN
 10
0.0
 20
0.0
 30
0.0
 40
0.656
  0
INSERT
  8
DAMAN
  2
100CROSS
 10
0.0
 20
0.0
 30
0.0
 41
1.32
 42
1.32
 43
1.5
  0
ENDBLK
  8
0
  0
BLOCK
  8
0
  2
T3AT
 70
    64
 10
0.0
 20
0.0
 30
0.0
  3
T3AT
  0
CIRCLE
  8
DAMAN
 10
0.0
 20
0.0
 30
0.0
 40
0.4665
  0
CIRCLE
  8
DAMAN
 10
0.0
 20
0.0
 30
0.0
 40
0.4375
  0
CIRCLE
  8
DAMAN
  6
HIDDEN
 10
0.0
 20
0.0
 30
0.0
 40
0.5
  0
INSERT
  8
DAMAN
  2
100CROSS
 10
0.0
 20
0.0
 30
0.0
 41
0.88
 42
0.88
  0
CIRCLE
  8
DAMAN
 10
0.0
 20
0.0
 30
0.0
 40
0.516
  0
CIRCLE
  8
DAMAN
 10
0.0
 20
0.0
 30
0.0
 40
0.539
  0
CIRCLE
  8
DAMAN
 10
0.0
 20
0.0
 30
0.0
 40
0.344
  0
ENDBLK
  8
0
  0
BLOCK
  8
0
  2
16SAET
 70
    64
 10
0.0
 20
0.0
 30
0.0
  3
16SAET
  0
CIRCLE
  8
DAMAN
 10
0.0
 20
0.0
 30
0.0
 40
0.6125
  0
CIRCLE
  8
DAMAN
 10
0.0
 20
0.0
 30
0.0
 40
0.562
  0
CIRCLE
  8
DAMAN
 10
0.0
 20
0.0
 30
0.0
 40
1.0
  0
INSERT
  8
DAMAN
  2
100CROSS
 10
0.0
 20
0.0
 30
0.0
 41
1.6
 42
1.6
 43
0.0
  0
CIRCLE
  8
DAMAN
 10
0.0
 20
0.0
 30
0.0
 40
0.65625
  0
ENDBLK
  8
0
  0
BLOCK
  8
0
  2
12SAET
 70
    64
 10
0.0
 20
0.0
 30
0.0
  3
12SAET
  0
CIRCLE
  8
DAMAN
 10
0.0
 20
0.0
 30
0.0
 40
0.53125
  0
INSERT
  8
DAMAN
  2
100CROSS
 10
0.0
 20
0.0
 30
0.0
 41
1.33
 42
1.33
 43
0.0
  0
CIRCLE
  8
DAMAN
 10
0.0
 20
0.0
 30
0.0
 40
0.8125
  0
CIRCLE
  8
DAMAN
 10
0.0
 20
0.0
 30
0.0
 40
0.453
  0
CIRCLE
  8
DAMAN
 10
0.0
 20
0.0
 30
0.0
 40
0.492
  0
ENDBLK
  8
0
  0
BLOCK
  8
0
  2
06SAET
 70
    64
 10
0.0
 20
0.0
 30
0.0
  3
06SAET
  0
INSERT
  8
DAMAN
  2
100CROSS
 10
0.0
 20
0.0
 30
0.0
 43
0.0
  0
CIRCLE
  8
DAMAN
 10
0.0
 20
0.0
 30
0.0
 40
0.28125
  0
CIRCLE
  8
DAMAN
 10
0.0
 20
0.0
 30
0.0
 40
0.5
  0
CIRCLE
  8
DAMAN
 10
0.0
 20
0.0
 30
0.0
 40
0.25
  0
ENDBLK
  8
0
  0
ENDSEC
  0
SECTION
  2
ENTITIES
  0
LINE
  8
DAMAN
 10
1.0
 20
1.0
 30
0.0
 11
5.0
 21
1.0
 31
0.0
  0
LINE
  8
DAMAN
 10
5.0
 20
1.0
 30
0.0
 11
5.0
 21
5.0
 31
0.0
  0
LINE
  8
DAMAN
 10
5.0
 20
5.0
 30
0.0
 11
1.0
 21
5.0
 31
0.0
  0
LINE
  8
DAMAN
  6
HIDDEN
 10
1.0
 20
5.0
 30
0.0
 11
1.0
 21
1.0
 31
0.0
  0
LINE
  8
DAMAN
 10
7.0
 20
1.0
 30
0.0
 11
20.75
 21
1.0
 31
0.0
  0
LINE
  8
DAMAN
 10
20.75
 20
1.0
 30
0.0
 11
20.75
 21
5.0
 31
0.0
  0
LINE
  8
DAMAN
 10
20.75
 20
5.0
 30
0.0
 11
7.0
 21
5.0
 31
0.0
  0
LINE
  8
DAMAN
 10
7.0
 20
5.0
 30
0.0
 11
7.0
 21
1.0
 31
0.0
  0
LINE
  8
DAMAN
  6
HIDDEN
 10
26.75
 20
5.0
 30
0.0
 11
26.75
 21
1.0
 31
0.0
  0
LINE
  8
DAMAN
 10
22.75
 20
1.0
 30
0.0
 11
22.75
 21
5.0
 31
0.0
  0
LINE
  8
DAMAN
 10
26.75
 20
1.0
 30
0.0
 11
22.75
 21
1.0
 31
0.0
  0
LINE
  8
DAMAN
 10
22.75
 20
5.0
 30
0.0
 11
26.75
 21
5.0
 31
0.0
  0
LINE
  8
DAMAN
 10
20.75
 20
10.0
 30
0.0
 11
7.0
 21
10.0
 31
0.0
  0
LINE
  8
DAMAN
 10
7.0
 20
6.0
 30
0.0
 11
20.75
 21
6.0
 31
0.0
  0
LINE
  8
DAMAN
 10
7.0
 20
10.0
 30
0.0
 11
7.0
 21
6.0
 31
0.0
  0
LINE
  8
DAMAN
 10
20.75
 20
6.0
 30
0.0
 11
20.75
 21
10.0
 31
0.0
  0
LINE
  8
DAMAN
 10
20.75
 20
0.0
 30
0.0
 11
7.0
 21
0.0
 31
0.0
  0
LINE
  8
DAMAN
 10
7.0
 20
-4.0
 30
0.0
 11
20.75
 21
-4.0
 31
0.0
  0
LINE
  8
DAMAN
 10
7.0
 20
0.0
 30
0.0
 11
7.0
 21
-4.0
 31
0.0
  0
LINE
  8
DAMAN
 10
20.75
 20
-4.0
 30
0.0
 11
20.75
 21
0.0
 31
0.0
  0
INSERT
  8
DAMAN
  2
400MKCT
 10
20.75
 20
5.0
 30
0.0
  0
INSERT
  8
DAMAN
  2
400MKCT
 10
7.0
 20
1.0
 30
0.0
 50
180.0
  0
INSERT
  8
DAMAN
  2
400MKT
 10
1.625
 20
5.0
 30
0.0
  0
INSERT
  8
DAMAN
  2
400MKT
 10
26.125
 20
1.0
 30
0.0
 50
180.0
  0
INSERT
  8
DAMAN
  2
D03
 10
7.953
 20
4.281
 30
0.0
  0
TEXT
  8
DAMAN
 10
9.375
 20
-0.40625
 30
0.0
 40
0.2
  1
B
  0
TEXT
  8
DAMAN
 10
9.25
 20
-2.65625
 30
0.0
 40
0.2
  1
A
  0
TEXT
  8
DAMAN
 10
3.96875
 20
4.65625
 30
0.0
 40
0.2
  1
T
 50
270.0
  0
TEXT
  8
DAMAN
 10
3.96875
 20
1.71875
 30
0.0
 40
0.2
  1
P
 50
270.0
  0
TEXT
  8
DAMAN
 10
23.75
 20
4.59375
 30
0.0
 40
0.2
  1
T
 50
90.0
  0
TEXT
  8
DAMAN
 10
23.90625
 20
1.65625
 30
0.0
 40
0.2
  1
P
 50
90.0
  0
INSERT
  8
DAMAN
  2
D03
 10
10.078
 20
4.281
 30
0.0
  0
TEXT
  8
DAMAN
 10
11.375
 20
-2.65625
 30
0.0
 40
0.2
  1
A
  0
TEXT
  8
DAMAN
 10
11.5
 20
-0.40625
 30
0.0
 40
0.2
  1
B
  0
INSERT
  8
DAMAN
  2
400MKS
 10
7.0
 20
-3.688
 30
0.0
  0
INSERT
  8
DAMAN
  2
400MKS
 10
20.75
 20
-3.688
 30
0.0
 41
-1.0
  0
INSERT
  8
DAMAN
  2
400MKS
 10
20.75
 20
9.688
 30
0.0
 50
180.0
  0
INSERT
  8
DAMAN
  2
400MKS
 10
7.0
 20
9.688
 30
0.0
 41
-1.0
 50
180.0
  0
TEXT
  8
DAMAN
 10
10.1875
 20
-1.9375
 30
0.0
 40
0.2
  1
GA
  0
TEXT
  8
DAMAN
 10
7.125
 20
-1.90625
 30
0.0
 40
0.2
  1
DAMAN ****
  0
INSERT
  8
DAMAN
  2
T3AT
 10
9.625
 20
8.5
 30
0.0
  0
INSERT
  8
DAMAN
  2
16SAET
 10
3.0
 20
4.0
 30
0.0
  0
INSERT
  8
DAMAN
  2
06SAET
 10
9.625
 20
-2.0
 30
0.0
  0
INSERT
  8
DAMAN
  2
16SAET
 10
24.75
 20
4.0
 30
0.0
  0
INSERT
  8
DAMAN
  2
12SAET
 10
3.0
 20
2.188
 30
0.0
  0
INSERT
  8
DAMAN
  2
12SAET
 10
8.562
 20
-0.875
 30
0.0
  0
INSERT
  8
DAMAN
  2
12SAET
 10
10.687
 20
-0.875
 30
0.0
  0
INSERT
  8
DAMAN
  2
12SAET
 10
10.687
 20
-3.125
 30
0.0
  0
INSERT
  8
DAMAN
  2
12SAET
 10
8.562
 20
-3.125
 30
0.0
  0
INSERT
  8
DAMAN
  2
12SAET
 10
24.75
 20
2.188
 30
0.0
  0
INSERT
  8
DAMAN
  2
D03
 10
12.203
 20
4.281
 30
0.0
  0
INSERT
  8
DAMAN
  2
12SAET
 10
12.812
 20
-3.125
 30
0.0
  0
INSERT
  8
DAMAN
  2
12SAET
 10
12.812
 20
-0.875
 30
0.0
  0
TEXT
  8
DAMAN
 10
13.5
 20
-2.65625
 30
0.0
 40
0.2
  1
A
  0
TEXT
  8
DAMAN
 10
13.625
 20
-0.40625
 30
0.0
 40
0.2
  1
B
  0
INSERT
  8
DAMAN
  2
D03
 10
14.328
 20
4.281
 30
0.0
  0
INSERT
  8
DAMAN
  2
12SAET
 10
14.937
 20
-0.875
 30
0.0
  0
INSERT
  8
DAMAN
  2
12SAET
 10
14.937
 20
-3.125
 30
0.0
  0
TEXT
  8
DAMAN
 10
15.625
 20
-2.65625
 30
0.0
 40
0.2
  1
A
  0
TEXT
  8
DAMAN
 10
15.75
 20
-0.40625
 30
0.0
 40
0.2
  1
B
  0
INSERT
  8
DAMAN
  2
D03
 10
16.453
 20
4.281
 30
0.0
  0
INSERT
  8
DAMAN
  2
12SAET
 10
17.062
 20
-3.125
 30
0.0
  0
TEXT
  8
DAMAN
 10
17.75
 20
-2.65625
 30
0.0
 40
0.2
  1
A
  0
INSERT
  8
DAMAN
  2
12SAET
 10
17.062
 20
-0.875
 30
0.0
  0
TEXT
  8
DAMAN
 10
17.875
 20
-0.40625
 30
0.0
 40
0.2
  1
B
  0
INSERT
  8
DAMAN
  2
D03
 10
18.578
 20
4.281
 30
0.0
  0
INSERT
  8
DAMAN
  2
12SAET
 10
19.187
 20
-3.125
 30
0.0
  0
TEXT
  8
DAMAN
 10
19.875
 20
-2.65625
 30
0.0
 40
0.2
  1
A
  0
INSERT
  8
DAMAN
  2
12SAET
 10
19.187
 20
-0.875
 30
0.0
  0
TEXT
  8
DAMAN
 10
20.0
 20
-0.40625
 30
0.0
 40
0.2
  1
B
  0
ENDSEC
  0
EOF
