  0
SECTION
  2
HEADER
  9
$ACADVER
  1
AC1014
  9
$ACADMAINTVER
 70
     9
  9
$DWGCODEPAGE
  3
ANSI_1252
  9
$INSBASE
 10
0.0
 20
0.0
 30
0.0
  9
$EXTMIN
 10
3.218627961374153
 20
0.8745117407228235
 30
-0.0015258207003583
  9
$EXTMAX
 10
6.218811056365737
 20
4.125091568013992
 30
0.0000000349246037
  9
$LIMMIN
 10
0.0
 20
0.0
  9
$LIMMAX
 10
12.0
 20
9.0
  9
$ORTHOMODE
 70
     1
  9
$REGENMODE
 70
     1
  9
$FILLMODE
 70
     1
  9
$QTEXTMODE
 70
     0
  9
$MIRRTEXT
 70
     1
  9
$DRAGMODE
 70
     2
  9
$LTSCALE
 40
1.0
  9
$OSMODE
 70
    37
  9
$ATTMODE
 70
     1
  9
$TEXTSIZE
 40
0.188
  9
$TRACEWID
 40
0.05
  9
$TEXTSTYLE
  7
STANDARD
  9
$CLAYER
  8
DAMAN
  9
$CELTYPE
  6
BYLAYER
  9
$CECOLOR
 62
   256
  9
$CELTSCALE
 40
1.0
  9
$DELOBJ
 70
     1
  9
$DISPSILH
 70
     0
  9
$DIMSCALE
 40
1.0
  9
$DIMASZ
 40
0.18
  9
$DIMEXO
 40
0.0625
  9
$DIMDLI
 40
0.38
  9
$DIMRND
 40
0.0
  9
$DIMDLE
 40
0.0
  9
$DIMEXE
 40
0.18
  9
$DIMTP
 40
0.0
  9
$DIMTM
 40
0.0
  9
$DIMTXT
 40
0.18
  9
$DIMCEN
 40
0.09
  9
$DIMTSZ
 40
0.0
  9
$DIMTOL
 70
     0
  9
$DIMLIM
 70
     0
  9
$DIMTIH
 70
     1
  9
$DIMTOH
 70
     1
  9
$DIMSE1
 70
     0
  9
$DIMSE2
 70
     0
  9
$DIMTAD
 70
     0
  9
$DIMZIN
 70
     0
  9
$DIMBLK
  1

  9
$DIMASO
 70
     1
  9
$DIMSHO
 70
     1
  9
$DIMPOST
  1

  9
$DIMAPOST
  1

  9
$DIMALT
 70
     0
  9
$DIMALTD
 70
     2
  9
$DIMALTF
 40
25.4
  9
$DIMLFAC
 40
1.0
  9
$DIMTOFL
 70
     0
  9
$DIMTVP
 40
0.0
  9
$DIMTIX
 70
     0
  9
$DIMSOXD
 70
     0
  9
$DIMSAH
 70
     0
  9
$DIMBLK1
  1

  9
$DIMBLK2
  1

  9
$DIMSTYLE
  2
STANDARD
  9
$DIMCLRD
 70
     0
  9
$DIMCLRE
 70
     0
  9
$DIMCLRT
 70
     0
  9
$DIMTFAC
 40
1.0
  9
$DIMGAP
 40
0.09
  9
$DIMJUST
 70
     0
  9
$DIMSD1
 70
     0
  9
$DIMSD2
 70
     0
  9
$DIMTOLJ
 70
     1
  9
$DIMTZIN
 70
     0
  9
$DIMALTZ
 70
     0
  9
$DIMALTTZ
 70
     0
  9
$DIMFIT
 70
     3
  9
$DIMUPT
 70
     0
  9
$DIMUNIT
 70
     2
  9
$DIMDEC
 70
     4
  9
$DIMTDEC
 70
     4
  9
$DIMALTU
 70
     2
  9
$DIMALTTD
 70
     2
  9
$DIMTXSTY
  7
STANDARD
  9
$DIMAUNIT
 70
     0
  9
$LUNITS
 70
     2
  9
$LUPREC
 70
     4
  9
$SKETCHINC
 40
0.1
  9
$FILLETRAD
 40
0.0
  9
$AUNITS
 70
     0
  9
$AUPREC
 70
     0
  9
$MENU
  1
tom
  9
$ELEVATION
 40
0.0
  9
$PELEVATION
 40
0.0
  9
$THICKNESS
 40
0.0
  9
$LIMCHECK
 70
     0
  9
$BLIPMODE
 70
     0
  9
$CHAMFERA
 40
0.0
  9
$CHAMFERB
 40
0.0
  9
$CHAMFERC
 40
0.0
  9
$CHAMFERD
 40
0.0
  9
$SKPOLY
 70
     0
  9
$TDCREATE
 40
2449752.524804607
  9
$TDUPDATE
 40
2453423.638911898
  9
$TDINDWG
 40
0.0221952315
  9
$TDUSRTIMER
 40
0.0221952315
  9
$USRTIMER
 70
     1
  9
$ANGBASE
 50
0.0
  9
$ANGDIR
 70
     0
  9
$PDMODE
 70
     0
  9
$PDSIZE
 40
0.0
  9
$PLINEWID
 40
0.0
  9
$COORDS
 70
     1
  9
$SPLFRAME
 70
     0
  9
$SPLINETYPE
 70
     6
  9
$SPLINESEGS
 70
     8
  9
$ATTDIA
 70
     0
  9
$ATTREQ
 70
     1
  9
$HANDLING
 70
-16383
  9
$HANDSEED
  5
172
  9
$SURFTAB1
 70
     6
  9
$SURFTAB2
 70
     6
  9
$SURFTYPE
 70
     6
  9
$SURFU
 70
     6
  9
$SURFV
 70
     6
  9
$UCSNAME
  2

  9
$UCSORG
 10
0.0
 20
0.0
 30
0.0
  9
$UCSXDIR
 10
1.0
 20
0.0
 30
0.0
  9
$UCSYDIR
 10
0.0
 20
1.0
 30
0.0
  9
$PUCSNAME
  2

  9
$PUCSORG
 10
0.0
 20
0.0
 30
0.0
  9
$PUCSXDIR
 10
1.0
 20
0.0
 30
0.0
  9
$PUCSYDIR
 10
0.0
 20
1.0
 30
0.0
  9
$USERI1
 70
     0
  9
$USERI2
 70
     0
  9
$USERI3
 70
     0
  9
$USERI4
 70
     0
  9
$USERI5
 70
     0
  9
$USERR1
 40
0.0
  9
$USERR2
 40
0.0
  9
$USERR3
 40
0.0
  9
$USERR4
 40
0.0
  9
$USERR5
 40
0.0
  9
$WORLDVIEW
 70
     1
  9
$SHADEDGE
 70
     3
  9
$SHADEDIF
 70
    70
  9
$TILEMODE
 70
     1
  9
$MAXACTVP
 70
    16
  9
$PINSBASE
 10
0.0
 20
0.0
 30
0.0
  9
$PLIMCHECK
 70
     0
  9
$PEXTMIN
 10
1.000000000000000E+20
 20
1.000000000000000E+20
 30
1.000000000000000E+20
  9
$PEXTMAX
 10
-1.000000000000000E+20
 20
-1.000000000000000E+20
 30
-1.000000000000000E+20
  9
$PLIMMIN
 10
0.0
 20
0.0
  9
$PLIMMAX
 10
12.0
 20
9.0
  9
$UNITMODE
 70
     0
  9
$VISRETAIN
 70
     0
  9
$PLINEGEN
 70
     0
  9
$PSLTSCALE
 70
     1
  9
$TREEDEPTH
 70
  3020
  9
$PICKSTYLE
 70
     1
  9
$CMLSTYLE
  2
STANDARD
  9
$CMLJUST
 70
     0
  9
$CMLSCALE
 40
1.0
  9
$PROXYGRAPHICS
 70
     1
  9
$MEASUREMENT
 70
     0
  0
ENDSEC
  0
SECTION
  2
CLASSES
  0
CLASS
  1
ACDBDICTIONARYWDFLT
  2
AcDbDictionaryWithDefault
  3
AutoCAD 2000
 90
        0
280
     0
281
     0
  0
CLASS
  1
ACDBPLACEHOLDER
  2
AcDbPlaceHolder
  3
AutoCAD 2000
 90
        0
280
     0
281
     0
  0
CLASS
  1
LAYOUT
  2
AcDbLayout
  3
AutoCAD 2000
 90
        0
280
     0
281
     0
  0
CLASS
  1
LONG_TRANSACTION
  2
AcDbLongTransaction
  3
AutoCAD 2000
 90
        0
280
     0
281
     0
  0
CLASS
  1
LWPOLYLINE
  2
AcDbPolyline
  3
AutoCAD 2000
 90
        0
280
     0
281
     1
  0
CLASS
  1
HATCH
  2
AcDbHatch
  3
AutoCAD 2000
 90
        0
280
     0
281
     1
  0
CLASS
  1
XRECORD
  2
AcDbXrecord
  3
AutoCAD 2000
 90
        0
280
     0
281
     0
  0
ENDSEC
  0
SECTION
  2
TABLES
  0
TABLE
  2
VPORT
  5
8
330
0
100
AcDbSymbolTable
 70
     6
  0
VPORT
  5
14D
330
8
100
AcDbSymbolTableRecord
100
AcDbViewportTableRecord
  2
*ACTIVE
 70
     0
 10
0.0
 20
0.0
 11
1.0
 21
1.0
 12
4.674922695439274
 22
2.619230377817158
 13
0.0
 23
0.0
 14
0.03125
 24
0.03125
 15
0.0
 25
0.0
 16
0.0
 26
0.0
 36
1.0
 17
0.0
 27
0.0
 37
0.0
 40
4.515125699311744
 41
1.647569444444444
 42
50.0
 43
0.0
 44
0.0
 50
0.0
 51
0.0
 71
     0
 72
   100
 73
     1
 74
     1
 75
     1
 76
     0
 77
     0
 78
     0
  0
ENDTAB
  0
TABLE
  2
LTYPE
  5
5
330
0
100
AcDbSymbolTable
 70
     4
  0
LTYPE
  5
13
330
5
100
AcDbSymbolTableRecord
100
AcDbLinetypeTableRecord
  2
BYBLOCK
 70
     0
  3

 72
    65
 73
     0
 40
0.0
  0
LTYPE
  5
14
330
5
100
AcDbSymbolTableRecord
100
AcDbLinetypeTableRecord
  2
BYLAYER
 70
     0
  3

 72
    65
 73
     0
 40
0.0
  0
LTYPE
  5
15
330
5
100
AcDbSymbolTableRecord
100
AcDbLinetypeTableRecord
  2
CONTINUOUS
 70
     0
  3
Solid line
 72
    65
 73
     0
 40
0.0
  0
LTYPE
  5
24
330
5
100
AcDbSymbolTableRecord
100
AcDbLinetypeTableRecord
  2
CENTER
 70
     0
  3
____ _ ____ _ ____ _ ____ _ ____ _ ____ _ ____
 72
    65
 73
     4
 40
2.0
 49
1.25
 74
     0
 49
-0.25
 74
     0
 49
0.25
 74
     0
 49
-0.25
 74
     0
  0
LTYPE
  5
25
330
5
100
AcDbSymbolTableRecord
100
AcDbLinetypeTableRecord
  2
HIDDEN
 70
     0
  3
_ _ _ _ _ _ _ _ _ _ _ _ _ _ _ _ _ _ _ _ _ _ _
 72
    65
 73
     2
 40
0.375
 49
0.25
 74
     0
 49
-0.125
 74
     0
  0
LTYPE
  5
26
330
5
100
AcDbSymbolTableRecord
100
AcDbLinetypeTableRecord
  2
PHANTOM
 70
     0
  3
_____ _ _ _____ _ _ _____ _ _ _____ _ _ ____
 72
    65
 73
     6
 40
2.5
 49
1.25
 74
     0
 49
-0.25
 74
     0
 49
0.25
 74
     0
 49
-0.25
 74
     0
 49
0.25
 74
     0
 49
-0.25
 74
     0
  0
ENDTAB
  0
TABLE
  2
LAYER
  5
2
330
0
100
AcDbSymbolTable
 70
     8
  0
LAYER
  5
10
330
2
100
AcDbSymbolTableRecord
100
AcDbLayerTableRecord
  2
0
 70
     0
 62
     7
  6
CONTINUOUS
  0
LAYER
  5
22
330
2
100
AcDbSymbolTableRecord
100
AcDbLayerTableRecord
  2
DAMAN
 70
     0
 62
     5
  6
CONTINUOUS
  0
LAYER
  5
27
330
2
100
AcDbSymbolTableRecord
100
AcDbLayerTableRecord
  2
BORDER
 70
     0
 62
     7
  6
CONTINUOUS
  0
LAYER
  5
28
330
2
100
AcDbSymbolTableRecord
100
AcDbLayerTableRecord
  2
CSOLID
 70
     0
 62
     3
  6
CONTINUOUS
  0
LAYER
  5
29
330
2
100
AcDbSymbolTableRecord
100
AcDbLayerTableRecord
  2
SOLID
 70
     0
 62
     4
  6
CONTINUOUS
  0
LAYER
  5
2A
330
2
100
AcDbSymbolTableRecord
100
AcDbLayerTableRecord
  2
CCENTER
 70
     0
 62
     4
  6
CENTER
  0
LAYER
  5
2B
330
2
100
AcDbSymbolTableRecord
100
AcDbLayerTableRecord
  2
CDIM
 70
     0
 62
     2
  6
CONTINUOUS
  0
LAYER
  5
2C
330
2
100
AcDbSymbolTableRecord
100
AcDbLayerTableRecord
  2
PHANTOM
 70
     0
 62
     1
  6
PHANTOM
  0
ENDTAB
  0
TABLE
  2
STYLE
  5
3
330
0
100
AcDbSymbolTable
 70
     2
  0
STYLE
  5
11
330
3
100
AcDbSymbolTableRecord
100
AcDbTextStyleTableRecord
  2
STANDARD
 70
     0
 40
0.0
 41
1.0
 50
0.0
 71
     0
 42
0.188
  3
txt
  4

  0
STYLE
  5
2D
330
3
100
AcDbSymbolTableRecord
100
AcDbTextStyleTableRecord
  2
STR
 70
     0
 40
0.0
 41
1.0
 50
0.0
 71
     0
 42
0.25
  3
SIMPLEX
  4

  0
ENDTAB
  0
TABLE
  2
VIEW
  5
6
330
0
100
AcDbSymbolTable
 70
     0
  0
ENDTAB
  0
TABLE
  2
UCS
  5
7
330
0
100
AcDbSymbolTable
 70
     0
  0
ENDTAB
  0
TABLE
  2
APPID
  5
9
330
0
100
AcDbSymbolTable
 70
     1
  0
APPID
  5
12
330
9
100
AcDbSymbolTableRecord
100
AcDbRegAppTableRecord
  2
ACAD
 70
     0
  0
ENDTAB
  0
TABLE
  2
DIMSTYLE
  5
A
330
0
100
AcDbSymbolTable
 70
     1
  0
DIMSTYLE
105
D8
330
A
100
AcDbSymbolTableRecord
100
AcDbDimStyleTableRecord
  2
STANDARD
 70
     0
  3

  4

  5

  6

  7

 40
1.0
 41
0.18
 42
0.0625
 43
0.38
 44
0.18
 45
0.0
 46
0.0
 47
0.0
 48
0.0
140
0.18
141
0.09
142
0.0
143
25.4
144
1.0
145
0.0
146
1.0
147
0.09
 71
     0
 72
     0
 73
     1
 74
     1
 75
     0
 76
     0
 77
     0
 78
     0
170
     0
171
     2
172
     0
173
     0
174
     0
175
     0
176
     0
177
     0
178
     0
270
     2
271
     4
272
     4
273
     2
274
     2
340
11
275
     0
280
     0
281
     0
282
     0
283
     1
284
     0
285
     0
286
     0
287
     3
288
     0
  0
ENDTAB
  0
TABLE
  2
BLOCK_RECORD
  5
1
330
0
100
AcDbSymbolTable
 70
    10
  0
BLOCK_RECORD
  5
1E
102
{ACAD_XDICTIONARY
360
170
102
}
330
1
100
AcDbSymbolTableRecord
100
AcDbBlockTableRecord
  2
*MODEL_SPACE
  0
BLOCK_RECORD
  5
1A
102
{ACAD_XDICTIONARY
360
16E
102
}
330
1
100
AcDbSymbolTableRecord
100
AcDbBlockTableRecord
  2
*PAPER_SPACE
  0
BLOCK_RECORD
  5
30
330
1
100
AcDbSymbolTableRecord
100
AcDbBlockTableRecord
  2
D01COP
  0
BLOCK_RECORD
  5
36
330
1
100
AcDbSymbolTableRecord
100
AcDbBlockTableRecord
  2
100CROSS
  0
BLOCK_RECORD
  5
3B
330
1
100
AcDbSymbolTableRecord
100
AcDbBlockTableRecord
  2
D01SFACE
  0
BLOCK_RECORD
  5
3D
330
1
100
AcDbSymbolTableRecord
100
AcDbBlockTableRecord
  2
RECTANG
  0
BLOCK_RECORD
  5
6C
330
1
100
AcDbSymbolTableRecord
100
AcDbBlockTableRecord
  2
050CROSS
  0
BLOCK_RECORD
  5
78
330
1
100
AcDbSymbolTableRecord
100
AcDbBlockTableRecord
  2
D01I
  0
BLOCK_RECORD
  5
9F
330
1
100
AcDbSymbolTableRecord
100
AcDbBlockTableRecord
  2
190SHCST
  0
BLOCK_RECORD
  5
AD
330
1
100
AcDbSymbolTableRecord
100
AcDbBlockTableRecord
  2
012NPTFT
  0
BLOCK_RECORD
  5
B4
330
1
100
AcDbSymbolTableRecord
100
AcDbBlockTableRecord
  2
190SHCS
  0
BLOCK_RECORD
  5
B6
330
1
100
AcDbSymbolTableRecord
100
AcDbBlockTableRecord
  2
250SHCS
  0
ENDTAB
  0
ENDSEC
  0
SECTION
  2
BLOCKS
  0
BLOCK
  5
1F
330
1E
100
AcDbEntity
  8
0
100
AcDbBlockBegin
  2
*MODEL_SPACE
 70
     0
 10
0.0
 20
0.0
 30
0.0
  3
*MODEL_SPACE
  1

  0
ENDBLK
  5
20
330
1E
100
AcDbEntity
  8
0
100
AcDbBlockEnd
  0
BLOCK
  5
1B
330
1A
100
AcDbEntity
 67
     1
  8
0
100
AcDbBlockBegin
  2
*PAPER_SPACE
 70
     0
 10
0.0
 20
0.0
 30
0.0
  3
*PAPER_SPACE
  1

  0
ENDBLK
  5
1C
330
1A
100
AcDbEntity
 67
     1
  8
0
100
AcDbBlockEnd
  0
BLOCK
  5
31
330
30
100
AcDbEntity
  8
0
100
AcDbBlockBegin
  2
D01COP
 70
     0
 10
0.0
 20
0.0
 30
0.0
  3
D01COP
  1

  0
CIRCLE
  5
32
330
30
100
AcDbEntity
  8
CSOLID
100
AcDbCircle
 10
1.703125
 20
0.84375
 30
0.0
 40
0.1095
  0
CIRCLE
  5
33
330
30
100
AcDbEntity
  8
CSOLID
100
AcDbCircle
 10
2.984375
 20
0.84375
 30
0.0
 40
0.1095
  0
CIRCLE
  5
34
330
30
100
AcDbEntity
  8
CSOLID
100
AcDbCircle
 10
2.953125
 20
2.4375
 30
0.0
 40
0.1095
  0
CIRCLE
  5
35
330
30
100
AcDbEntity
  8
CSOLID
100
AcDbCircle
 10
1.734375
 20
2.4375
 30
0.0
 40
0.1095
  0
INSERT
  5
37
330
30
100
AcDbEntity
  8
CCENTER
100
AcDbBlockReference
  2
100CROSS
 10
1.703125
 20
0.84375
 30
0.0
 41
0.34
 42
0.34
 43
0.34
  0
INSERT
  5
38
330
30
100
AcDbEntity
  8
CCENTER
100
AcDbBlockReference
  2
100CROSS
 10
2.984375
 20
0.84375
 30
0.0
 41
0.34
 42
0.34
 43
0.34
  0
INSERT
  5
39
330
30
100
AcDbEntity
  8
CCENTER
100
AcDbBlockReference
  2
100CROSS
 10
2.953125
 20
2.4375
 30
0.0
 41
0.34
 42
0.34
 43
0.34
  0
INSERT
  5
3A
330
30
100
AcDbEntity
  8
CCENTER
100
AcDbBlockReference
  2
100CROSS
 10
1.734375
 20
2.4375
 30
0.0
 41
0.34
 42
0.34
 43
0.34
  0
INSERT
  5
3C
330
30
100
AcDbEntity
  8
BORDER
100
AcDbBlockReference
  2
D01SFACE
 10
9.390625
 20
2.4375
 30
0.0
  0
INSERT
  5
3E
330
30
100
AcDbEntity
  8
BORDER
100
AcDbBlockReference
  2
RECTANG
 10
1.5
 20
0.625
 30
0.0
 41
1.6875
 42
2.0
 43
1.6875
  0
INSERT
  5
3F
330
30
100
AcDbEntity
  8
BORDER
100
AcDbBlockReference
  2
RECTANG
 10
4.75
 20
0.625
 30
0.0
 41
0.625
 42
2.0
 43
0.625
  0
INSERT
  5
40
330
30
100
AcDbEntity
  8
BORDER
100
AcDbBlockReference
  2
RECTANG
 10
9.625
 20
2.625
 30
0.0
 41
-1.6875
 42
-2.0
 43
1.6875
  0
LINE
  5
41
330
30
100
AcDbEntity
  8
CDIM
100
AcDbLine
 10
4.75
 20
2.708705
 30
0.0
 11
4.75
 21
3.292409999999999
 31
0.0
  0
LINE
  5
42
330
30
100
AcDbEntity
  8
CDIM
100
AcDbLine
 10
5.375
 20
2.708705
 30
0.0
 11
5.375
 21
3.292409999999999
 31
0.0
  0
LINE
  5
43
330
30
100
AcDbEntity
  8
CDIM
100
AcDbLine
 10
5.54241
 20
3.125
 30
0.0
 11
5.709819999999999
 21
3.125
 31
0.0
  0
LINE
  5
44
330
30
100
AcDbEntity
  8
CDIM
100
AcDbLine
 10
4.582589999999999
 20
3.125
 30
0.0
 11
4.41518
 21
3.125
 31
0.0
  0
SOLID
  5
45
330
30
100
AcDbEntity
  8
CDIM
100
AcDbTrace
 10
5.54241
 20
3.097097999999999
 30
0.0
 11
5.54241
 21
3.152902
 31
0.0
 12
5.375
 22
3.125
 32
0.0
 13
5.375
 23
3.125
 33
0.0
  0
SOLID
  5
46
330
30
100
AcDbEntity
  8
CDIM
100
AcDbTrace
 10
4.582589999999999
 20
3.097097999999999
 30
0.0
 11
4.582589999999999
 21
3.152902
 31
0.0
 12
4.75
 22
3.125
 32
0.0
 13
4.75
 23
3.125
 33
0.0
  0
TEXT
  5
47
330
30
100
AcDbEntity
  8
CDIM
100
AcDbText
 10
5.877229999999999
 20
3.03125
 30
0.0
 40
0.187499
  1
0.63
  7
STR
100
AcDbText
  0
LINE
  5
48
330
30
100
AcDbEntity
  8
CDIM
100
AcDbLine
 10
9.625
 20
2.708705
 30
0.0
 11
9.625
 21
3.292409999999999
 31
0.0
  0
LINE
  5
49
330
30
100
AcDbEntity
  8
CDIM
100
AcDbLine
 10
9.1875
 20
1.864954999999999
 30
0.0
 11
9.1875
 21
3.292409999999999
 31
0.0
  0
LINE
  5
4A
330
30
100
AcDbEntity
  8
CDIM
100
AcDbLine
 10
9.020089999999999
 20
3.125
 30
0.0
 11
8.852679999999999
 21
3.125
 31
0.0
  0
LINE
  5
4B
330
30
100
AcDbEntity
  8
CDIM
100
AcDbLine
 10
9.79241
 20
3.125
 30
0.0
 11
9.95982
 21
3.125
 31
0.0
  0
SOLID
  5
4C
330
30
100
AcDbEntity
  8
CDIM
100
AcDbTrace
 10
9.020089999999999
 20
3.097097999999999
 30
0.0
 11
9.020089999999999
 21
3.152902
 31
0.0
 12
9.1875
 22
3.125
 32
0.0
 13
9.1875
 23
3.125
 33
0.0
  0
SOLID
  5
4D
330
30
100
AcDbEntity
  8
CDIM
100
AcDbTrace
 10
9.79241
 20
3.097097999999999
 30
0.0
 11
9.79241
 21
3.152902
 31
0.0
 12
9.625
 22
3.125
 32
0.0
 13
9.625
 23
3.125
 33
0.0
  0
TEXT
  5
4E
330
30
100
AcDbEntity
  8
CDIM
100
AcDbText
 10
8.104915
 20
3.03125
 30
0.0
 40
0.187499
  1
0.44
  7
STR
100
AcDbText
  0
LINE
  5
4F
330
30
100
AcDbEntity
  8
CDIM
100
AcDbLine
 10
9.625
 20
2.708705
 30
0.0
 11
9.625
 21
3.79464
 31
0.0
  0
LINE
  5
50
330
30
100
AcDbEntity
  8
CDIM
100
AcDbLine
 10
7.9375
 20
2.708705
 30
0.0
 11
7.9375
 21
3.79464
 31
0.0
  0
LINE
  5
51
330
30
100
AcDbEntity
  8
CDIM
100
AcDbLine
 10
9.457589999999999
 20
3.62723
 30
0.0
 11
9.212051999999999
 21
3.62723
 31
0.0
  0
LINE
  5
52
330
30
100
AcDbEntity
  8
CDIM
100
AcDbLine
 10
8.10491
 20
3.62723
 30
0.0
 11
8.350448
 21
3.62723
 31
0.0
  0
SOLID
  5
53
330
30
100
AcDbEntity
  8
CDIM
100
AcDbTrace
 10
9.457589999999999
 20
3.599327999999999
 30
0.0
 11
9.457589999999999
 21
3.655132
 31
0.0
 12
9.625
 22
3.62723
 32
0.0
 13
9.625
 23
3.62723
 33
0.0
  0
SOLID
  5
54
330
30
100
AcDbEntity
  8
CDIM
100
AcDbTrace
 10
8.10491
 20
3.599327999999999
 30
0.0
 11
8.10491
 21
3.655132
 31
0.0
 12
7.9375
 22
3.62723
 32
0.0
 13
7.9375
 23
3.62723
 33
0.0
  0
TEXT
  5
55
330
30
100
AcDbEntity
  8
CDIM
100
AcDbText
 10
8.517858
 20
3.53348
 30
0.0
 40
0.187499
  1
1.69
  7
STR
100
AcDbText
  0
LINE
  5
56
330
30
100
AcDbEntity
  8
CDIM
100
AcDbLine
 10
7.853794999999999
 20
2.625
 30
0.0
 11
7.270089999999999
 21
2.625
 31
0.0
  0
LINE
  5
57
330
30
100
AcDbEntity
  8
CDIM
100
AcDbLine
 10
8.135044999999999
 20
1.59375
 30
0.0
 11
7.270089999999999
 21
1.59375
 31
0.0
  0
LINE
  5
58
330
30
100
AcDbEntity
  8
CDIM
100
AcDbLine
 10
7.4375
 20
2.45759
 30
0.0
 11
7.4375
 21
2.370534999999999
 31
0.0
  0
LINE
  5
59
330
30
100
AcDbEntity
  8
CDIM
100
AcDbLine
 10
7.4375
 20
1.761159999999999
 30
0.0
 11
7.4375
 21
1.848215
 31
0.0
  0
SOLID
  5
5A
330
30
100
AcDbEntity
  8
CDIM
100
AcDbTrace
 10
7.465402
 20
2.45759
 30
0.0
 11
7.409597999999999
 21
2.45759
 31
0.0
 12
7.4375
 22
2.625
 32
0.0
 13
7.4375
 23
2.625
 33
0.0
  0
SOLID
  5
5B
330
30
100
AcDbEntity
  8
CDIM
100
AcDbTrace
 10
7.465402
 20
1.761159999999999
 30
0.0
 11
7.409597999999999
 21
1.761159999999999
 31
0.0
 12
7.4375
 22
1.59375
 32
0.0
 13
7.4375
 23
1.59375
 33
0.0
  0
TEXT
  5
5C
330
30
100
AcDbEntity
  8
CDIM
100
AcDbText
 10
7.169643999999999
 20
2.015625
 30
0.0
 40
0.187499
  1
1.03
  7
STR
100
AcDbText
  0
LINE
  5
5D
330
30
100
AcDbEntity
  8
CDIM
100
AcDbLine
 10
7.853794999999999
 20
2.625
 30
0.0
 11
6.76786
 21
2.625
 31
0.0
  0
LINE
  5
5E
330
30
100
AcDbEntity
  8
CDIM
100
AcDbLine
 10
7.853794999999999
 20
0.625
 30
0.0
 11
6.76786
 21
0.625
 31
0.0
  0
LINE
  5
5F
330
30
100
AcDbEntity
  8
CDIM
100
AcDbLine
 10
6.93527
 20
2.45759
 30
0.0
 11
6.93527
 21
1.57366
 31
0.0
  0
LINE
  5
60
330
30
100
AcDbEntity
  8
CDIM
100
AcDbLine
 10
6.93527
 20
0.7924100000000001
 30
0.0
 11
6.93527
 21
1.051339999999999
 31
0.0
  0
SOLID
  5
61
330
30
100
AcDbEntity
  8
CDIM
100
AcDbTrace
 10
6.963172
 20
2.45759
 30
0.0
 11
6.907367999999999
 21
2.45759
 31
0.0
 12
6.93527
 22
2.625
 32
0.0
 13
6.93527
 23
2.625
 33
0.0
  0
SOLID
  5
62
330
30
100
AcDbEntity
  8
CDIM
100
AcDbTrace
 10
6.963172
 20
0.7924100000000001
 30
0.0
 11
6.907367999999999
 21
0.7924100000000001
 31
0.0
 12
6.93527
 22
0.625
 32
0.0
 13
6.93527
 23
0.625
 33
0.0
  0
TEXT
  5
63
330
30
100
AcDbEntity
  8
CDIM
100
AcDbText
 10
6.649557
 20
1.21875
 30
0.0
 40
0.187499
  1
2.00
  7
STR
100
AcDbText
  0
ENDBLK
  5
64
330
30
100
AcDbEntity
  8
0
100
AcDbBlockEnd
  0
BLOCK
  5
6B
330
36
100
AcDbEntity
  8
0
100
AcDbBlockBegin
  2
100CROSS
 70
     0
 10
5.6875
 20
7.71875
 30
0.0
  3
100CROSS
  1

  0
INSERT
  5
6D
330
36
100
AcDbEntity
  8
0
100
AcDbBlockReference
  2
050CROSS
 10
5.6875
 20
7.71875
 30
0.0
  0
ENDBLK
  5
6E
330
36
100
AcDbEntity
  8
0
100
AcDbBlockEnd
  0
BLOCK
  5
77
330
3B
100
AcDbEntity
  8
0
100
AcDbBlockBegin
  2
D01SFACE
 70
     0
 10
4.125
 20
8.34375
 30
0.0
  3
D01SFACE
  1

  0
INSERT
  5
79
330
3B
100
AcDbEntity
  8
CSOLID
100
AcDbBlockReference
  2
D01I
 10
4.125
 20
8.34375
 30
0.0
 41
-1.0
  0
ENDBLK
  5
7A
330
3B
100
AcDbEntity
  8
0
100
AcDbBlockEnd
  0
BLOCK
  5
65
330
3D
100
AcDbEntity
  8
0
100
AcDbBlockBegin
  2
RECTANG
 70
     0
 10
0.0
 20
0.0
 30
0.0
  3
RECTANG
  1

  0
LINE
  5
66
330
3D
100
AcDbEntity
  8
0
100
AcDbLine
 10
0.0
 20
0.0
 30
0.0
 11
1.0
 21
0.0
 31
0.0
  0
LINE
  5
67
330
3D
100
AcDbEntity
  8
0
100
AcDbLine
 10
1.0
 20
0.0
 30
0.0
 11
1.0
 21
1.0
 31
0.0
  0
LINE
  5
68
330
3D
100
AcDbEntity
  8
0
100
AcDbLine
 10
1.0
 20
1.0
 30
0.0
 11
0.0
 21
1.0
 31
0.0
  0
LINE
  5
69
330
3D
100
AcDbEntity
  8
0
100
AcDbLine
 10
0.0
 20
1.0
 30
0.0
 11
0.0
 21
0.0
 31
0.0
  0
ENDBLK
  5
6A
330
3D
100
AcDbEntity
  8
0
100
AcDbBlockEnd
  0
BLOCK
  5
6F
330
6C
100
AcDbEntity
  8
0
100
AcDbBlockBegin
  2
050CROSS
 70
     0
 10
5.0625
 20
8.125
 30
0.0
  3
050CROSS
  1

  0
LINE
  5
70
330
6C
100
AcDbEntity
  8
0
100
AcDbLine
 10
5.0625
 20
8.40625
 30
0.0
 11
5.0625
 21
8.90625
 31
0.0
  0
LINE
  5
71
330
6C
100
AcDbEntity
  8
0
100
AcDbLine
 10
5.0625
 20
8.0
 30
0.0
 11
5.0625
 21
8.25
 31
0.0
  0
LINE
  5
72
330
6C
100
AcDbEntity
  8
0
100
AcDbLine
 10
5.0625
 20
7.28125
 30
0.0
 11
5.0625
 21
7.84375
 31
0.0
  0
LINE
  5
73
330
6C
100
AcDbEntity
  8
0
100
AcDbLine
 10
5.3125
 20
8.125
 30
0.0
 11
5.875
 21
8.125
 31
0.0
  0
LINE
  5
74
330
6C
100
AcDbEntity
  8
0
100
AcDbLine
 10
4.96875
 20
8.125
 30
0.0
 11
5.15625
 21
8.125
 31
0.0
  0
LINE
  5
75
330
6C
100
AcDbEntity
  8
0
100
AcDbLine
 10
4.25
 20
8.125
 30
0.0
 11
4.8125
 21
8.125
 31
0.0
  0
ENDBLK
  5
76
330
6C
100
AcDbEntity
  8
0
100
AcDbBlockEnd
  0
BLOCK
  5
7B
330
78
100
AcDbEntity
  8
0
100
AcDbBlockBegin
  2
D01I
 70
     0
 10
4.625
 20
3.375
 30
0.0
  3
D01I
  1

  0
LWPOLYLINE
  5
7C
330
78
100
AcDbEntity
  8
CSOLID
100
AcDbPolyline
 90
        4
 70
     1
 43
0.0
 10
5.362391
 20
2.692749
 10
4.984077
 20
2.376935
 42
-1.0
 10
4.701458999999999
 20
2.710900999999999
 10
5.079773
 20
3.026715
 42
-1.0
  0
LWPOLYLINE
  5
82
330
78
100
AcDbEntity
  8
CSOLID
100
AcDbPolyline
 90
        4
 70
     1
 43
0.0
 10
5.768391
 20
2.348749
 10
5.390076999999999
 20
2.032934999999999
 42
-1.0
 10
5.107458999999999
 20
2.366900999999999
 10
5.485773
 20
2.682714999999999
 42
-1.0
  0
LINE
  5
88
330
78
100
AcDbEntity
  8
CSOLID
100
AcDbLine
 10
5.152694
 20
2.28237
 30
0.0
 11
5.558694
 21
2.62637
 31
0.0
  0
LINE
  5
89
330
78
100
AcDbEntity
  8
CSOLID
100
AcDbLine
 10
5.720305999999999
 20
2.435629999999999
 30
0.0
 11
5.314306
 21
2.091629999999999
 31
0.0
  0
ARC
  5
8A
330
78
100
AcDbEntity
  8
CSOLID
100
AcDbCircle
 10
5.2335
 20
2.186999999999999
 30
0.0
 40
0.125
100
AcDbArc
 50
130.2742939999999
 51
310.274294
  0
ARC
  5
8B
330
78
100
AcDbEntity
  8
CSOLID
100
AcDbCircle
 10
5.639499999999999
 20
2.531
 30
0.0
 40
0.125
100
AcDbArc
 50
310.274294
 51
130.2742939999999
  0
ARC
  5
8C
330
78
100
AcDbEntity
  8
CSOLID
100
AcDbCircle
 10
5.2335
 20
2.875
 30
0.0
 40
0.125
100
AcDbArc
 50
310.274294
 51
130.2742939999999
  0
ARC
  5
8D
330
78
100
AcDbEntity
  8
CSOLID
100
AcDbCircle
 10
4.827499999999999
 20
2.531
 30
0.0
 40
0.125
100
AcDbArc
 50
130.2742939999999
 51
310.274294
  0
LINE
  5
8E
330
78
100
AcDbEntity
  8
CSOLID
100
AcDbLine
 10
5.314306
 20
2.77963
 30
0.0
 11
4.908305999999999
 21
2.435629999999999
 31
0.0
  0
LINE
  5
8F
330
78
100
AcDbEntity
  8
CSOLID
100
AcDbLine
 10
4.746694
 20
2.62637
 30
0.0
 11
5.152694
 21
2.970369999999999
 31
0.0
  0
INSERT
  5
90
330
78
100
AcDbEntity
  8
CCENTER
100
AcDbBlockReference
  2
100CROSS
 10
4.625
 20
3.375
 30
0.0
 41
0.34
 42
0.34
 43
0.34
  0
INSERT
  5
91
330
78
100
AcDbEntity
  8
CCENTER
100
AcDbBlockReference
  2
100CROSS
 10
5.84375
 20
3.375
 30
0.0
 41
0.34
 42
0.34
 43
0.34
  0
INSERT
  5
92
330
78
100
AcDbEntity
  8
CCENTER
100
AcDbBlockReference
  2
100CROSS
 10
5.875
 20
1.78125
 30
0.0
 41
0.34
 42
0.34
 43
0.34
  0
INSERT
  5
93
330
78
100
AcDbEntity
  8
CCENTER
100
AcDbBlockReference
  2
100CROSS
 10
4.59375
 20
1.78125
 30
0.0
 41
0.34
 42
0.34
 43
0.34
  0
INSERT
  5
94
330
78
100
AcDbEntity
  8
CCENTER
100
AcDbBlockReference
  2
100CROSS
 10
4.827499999999999
 20
2.531
 30
0.0
 41
0.4
 42
0.4
  0
INSERT
  5
95
330
78
100
AcDbEntity
  8
CCENTER
100
AcDbBlockReference
  2
100CROSS
 10
5.2335
 20
2.875
 30
0.0
 41
0.4
 42
0.4
  0
INSERT
  5
96
330
78
100
AcDbEntity
  8
CCENTER
100
AcDbBlockReference
  2
100CROSS
 10
5.639999999999999
 20
2.531
 30
0.0
 41
0.4
 42
0.4
  0
INSERT
  5
97
330
78
100
AcDbEntity
  8
CCENTER
100
AcDbBlockReference
  2
100CROSS
 10
5.2335
 20
2.186999999999999
 30
0.0
 41
0.4
 42
0.4
  0
INSERT
  5
98
330
78
100
AcDbEntity
  8
CCENTER
100
AcDbBlockReference
  2
100CROSS
 10
4.594999999999999
 20
2.075
 30
0.0
 41
0.171
 42
0.171
  0
CIRCLE
  5
99
330
78
100
AcDbEntity
  8
CSOLID
100
AcDbCircle
 10
4.625
 20
3.375
 30
0.0
 40
0.1095
  0
CIRCLE
  5
9A
330
78
100
AcDbEntity
  8
CSOLID
100
AcDbCircle
 10
5.84375
 20
3.375
 30
0.0
 40
0.1095
  0
CIRCLE
  5
9B
330
78
100
AcDbEntity
  8
CSOLID
100
AcDbCircle
 10
5.875
 20
1.78125
 30
0.0
 40
0.1095
  0
CIRCLE
  5
9C
330
78
100
AcDbEntity
  8
CSOLID
100
AcDbCircle
 10
4.59375
 20
1.78125
 30
0.0
 40
0.1095
  0
CIRCLE
  5
9D
330
78
100
AcDbEntity
  8
CSOLID
100
AcDbCircle
 10
4.594949999999999
 20
2.075384999999999
 30
0.0
 40
0.0625
  0
ENDBLK
  5
9E
330
78
100
AcDbEntity
  8
0
100
AcDbBlockEnd
  0
BLOCK
  5
A0
330
9F
100
AcDbEntity
  8
0
100
AcDbBlockBegin
  2
190SHCST
 70
     0
 10
0.0
 20
0.0
 30
0.0
  3
190SHCST
  1

  0
CIRCLE
  5
A1
330
9F
100
AcDbEntity
  8
DAMAN
100
AcDbCircle
 10
0.0
 20
0.0
 30
0.0
 40
0.156
  0
CIRCLE
  5
A2
330
9F
100
AcDbEntity
  8
DAMAN
100
AcDbCircle
 10
0.0
 20
0.0
 30
0.0
 40
0.09
  0
LWPOLYLINE
  5
A3
330
9F
100
AcDbEntity
  8
DAMAN
100
AcDbPolyline
 90
        6
 70
     1
 43
0.0
 10
-0.045
 20
0.077942
 10
-0.09
 20
0.0
 10
-0.045
 20
-0.077942
 10
0.045
 20
-0.077942
 10
0.09
 20
0.0
 10
0.045
 20
0.077942
  0
CIRCLE
  5
AB
330
9F
100
AcDbEntity
  8
DAMAN
100
AcDbCircle
 10
0.0
 20
0.0
 30
0.0
 40
0.1375
  0
ENDBLK
  5
AC
330
9F
100
AcDbEntity
  8
0
100
AcDbBlockEnd
  0
BLOCK
  5
AE
330
AD
100
AcDbEntity
  8
0
100
AcDbBlockBegin
  2
012NPTFT
 70
     0
 10
0.0
 20
0.0
 30
0.0
  3
012NPTFT
  1

  0
CIRCLE
  5
AF
330
AD
100
AcDbEntity
  8
DAMAN
  6
HIDDEN
100
AcDbCircle
 10
0.0
 20
0.0
 30
0.0
 40
0.1875
  0
CIRCLE
  5
B0
330
AD
100
AcDbEntity
  8
DAMAN
100
AcDbCircle
 10
0.0
 20
0.0
 30
0.0
 40
0.2105
  0
CIRCLE
  5
B1
330
AD
100
AcDbEntity
  8
DAMAN
100
AcDbCircle
 10
0.0
 20
0.0
 30
0.0
 40
0.1695
  0
INSERT
  5
B2
330
AD
100
AcDbEntity
  8
DAMAN
100
AcDbBlockReference
  2
100CROSS
 10
0.0
 20
0.0
 30
0.0
 41
0.43
 42
0.43
  0
ENDBLK
  5
B3
330
AD
100
AcDbEntity
  8
0
100
AcDbBlockEnd
  0
BLOCK
  5
B5
330
B4
100
AcDbEntity
  8
0
100
AcDbBlockBegin
  2
190SHCS
 70
     0
 10
0.0
 20
0.0
 30
0.0
  3
190SHCS
  1

  0
INSERT
  5
B7
330
B4
100
AcDbEntity
  8
DAMAN
100
AcDbBlockReference
  2
250SHCS
 10
5.59375
 20
4.4375
 30
0.0
 41
0.7700000000000001
 42
0.7700000000000001
 43
0.7700000000000001
  0
ENDBLK
  5
B8
330
B4
100
AcDbEntity
  8
0
100
AcDbBlockEnd
  0
BLOCK
  5
B9
330
B6
100
AcDbEntity
  8
0
100
AcDbBlockBegin
  2
250SHCS
 70
     0
 10
0.0
 20
0.0
 30
0.0
  3
250SHCS
  1

  0
LINE
  5
BA
330
B6
100
AcDbEntity
  8
DAMAN
100
AcDbLine
 10
-0.1875
 20
0.0
 30
0.0
 11
-0.1875
 21
0.21875
 31
0.0
  0
LINE
  5
BB
330
B6
100
AcDbEntity
  8
DAMAN
100
AcDbLine
 10
-0.15625
 20
0.25
 30
0.0
 11
0.15625
 21
0.25
 31
0.0
  0
LINE
  5
BC
330
B6
100
AcDbEntity
  8
DAMAN
100
AcDbLine
 10
0.1875
 20
0.21875
 30
0.0
 11
0.1875
 21
0.0
 31
0.0
  0
LINE
  5
BD
330
B6
100
AcDbEntity
  8
DAMAN
100
AcDbLine
 10
-0.1875
 20
0.21875
 30
0.0
 11
0.1875
 21
0.21875
 31
0.0
  0
LINE
  5
BE
330
B6
100
AcDbEntity
  8
DAMAN
100
AcDbLine
 10
0.1875
 20
0.0
 30
0.0
 11
-0.1875
 21
0.0
 31
0.0
  0
LINE
  5
BF
330
B6
100
AcDbEntity
  8
DAMAN
100
AcDbLine
 10
0.15625
 20
0.25
 30
0.0
 11
0.1875
 21
0.21875
 31
0.0
  0
LINE
  5
C0
330
B6
100
AcDbEntity
  8
DAMAN
100
AcDbLine
 10
-0.15625
 20
0.25
 30
0.0
 11
-0.1875
 21
0.21875
 31
0.0
  0
ENDBLK
  5
C1
330
B6
100
AcDbEntity
  8
0
100
AcDbBlockEnd
  0
ENDSEC
  0
SECTION
  2
ENTITIES
  0
INSERT
  5
C2
330
1E
100
AcDbEntity
  8
DAMAN
100
AcDbBlockReference
  2
RECTANG
 10
3.21875
 20
2.125
 30
0.0
 41
1.6875
 42
2.0
 43
1.6875
  0
LINE
  5
C4
330
1E
100
AcDbEntity
  8
DAMAN
100
AcDbLine
 10
3.21875
 20
0.875
 30
0.0
 11
4.906749999999999
 21
0.875
 31
0.0
  0
LINE
  5
C5
330
1E
100
AcDbEntity
  8
DAMAN
100
AcDbLine
 10
4.906749999999999
 20
0.875
 30
0.0
 11
4.906749999999999
 21
1.625
 31
0.0
  0
LINE
  5
C6
330
1E
100
AcDbEntity
  8
DAMAN
100
AcDbLine
 10
4.906749999999999
 20
1.625
 30
0.0
 11
3.21875
 21
1.625
 31
0.0
  0
LINE
  5
C7
330
1E
100
AcDbEntity
  8
DAMAN
100
AcDbLine
 10
3.21875
 20
1.625
 30
0.0
 11
3.21875
 21
0.875
 31
0.0
  0
TEXT
  5
C9
330
1E
100
AcDbEntity
  8
DAMAN
100
AcDbText
 10
3.34375
 20
1.40625
 30
0.0
 40
0.125
  1
DAMAN****
100
AcDbText
  0
INSERT
  5
CE
330
1E
100
AcDbEntity
  8
DAMAN
100
AcDbBlockReference
  2
190SHCST
 10
3.453125
 20
3.9375
 30
0.0
  0
INSERT
  5
CF
330
1E
100
AcDbEntity
  8
DAMAN
100
AcDbBlockReference
  2
190SHCST
 10
4.671875
 20
3.9375
 30
0.0
  0
INSERT
  5
D0
330
1E
100
AcDbEntity
  8
DAMAN
100
AcDbBlockReference
  2
190SHCST
 10
4.703125
 20
2.34375
 30
0.0
  0
INSERT
  5
D1
330
1E
100
AcDbEntity
  8
DAMAN
100
AcDbBlockReference
  2
190SHCST
 10
3.421875
 20
2.34375
 30
0.0
  0
INSERT
  5
D2
330
1E
100
AcDbEntity
  8
DAMAN
100
AcDbBlockReference
  2
190SHCS
 10
9.90625
 20
-1.65625
 30
0.0
 50
90.0
  0
INSERT
  5
D3
330
1E
100
AcDbEntity
  8
DAMAN
100
AcDbBlockReference
  2
190SHCS
 10
9.90625
 20
-3.24975
 30
0.0
 50
90.0
  0
INSERT
  5
D4
330
1E
100
AcDbEntity
  8
DAMAN
100
AcDbBlockReference
  2
190SHCS
 10
-2.171999999999999
 20
-2.8125
 30
0.0
  0
INSERT
  5
D5
330
1E
100
AcDbEntity
  8
DAMAN
100
AcDbBlockReference
  2
190SHCS
 10
-0.8909999999999998
 20
-2.8125
 30
0.0
  0
LINE
  5
DA
330
1E
100
AcDbEntity
  8
DAMAN
100
AcDbLine
 10
5.46875
 20
2.125
 30
0.0
 11
6.21875
 21
2.125
 31
0.0
  0
LINE
  5
DB
330
1E
100
AcDbEntity
  8
DAMAN
100
AcDbLine
 10
6.21875
 20
2.125
 30
0.0
 11
6.21875
 21
4.125
 31
0.0
  0
LINE
  5
DC
330
1E
100
AcDbEntity
  8
DAMAN
100
AcDbLine
 10
6.21875
 20
4.125
 30
0.0
 11
5.46875
 21
4.125
 31
0.0
  0
LINE
  5
DD
330
1E
100
AcDbEntity
  8
DAMAN
100
AcDbLine
 10
5.46875
 20
4.125
 30
0.0
 11
5.46875
 21
2.125
 31
0.0
  0
ENDSEC
  0
SECTION
  2
OBJECTS
  0
DICTIONARY
  5
C
330
0
100
AcDbDictionary
  3
ACAD_GROUP
350
D
  3
ACAD_LAYOUT
350
19
  3
ACAD_MLINESTYLE
350
16
  3
ACAD_PLOTSETTINGS
350
18
  3
ACAD_PLOTSTYLENAME
350
E
  3
ACDBHEADERROUNDTRIPXREC
350
14E
  0
DICTIONARY
  5
170
330
1E
100
AcDbDictionary
280
     1
  3
ACAD_LAYOUTSELFREF
360
171
  0
DICTIONARY
  5
16E
330
1A
100
AcDbDictionary
280
     1
  3
ACAD_LAYOUTSELFREF
360
16F
  0
DICTIONARY
  5
D
102
{ACAD_REACTORS
330
C
102
}
330
C
100
AcDbDictionary
  0
DICTIONARY
  5
19
102
{ACAD_REACTORS
330
C
102
}
330
C
100
AcDbDictionary
  0
DICTIONARY
  5
16
102
{ACAD_REACTORS
330
C
102
}
330
C
100
AcDbDictionary
  3
STANDARD
350
17
  0
DICTIONARY
  5
18
102
{ACAD_REACTORS
330
C
102
}
330
C
100
AcDbDictionary
  0
ACDBDICTIONARYWDFLT
  5
E
102
{ACAD_REACTORS
330
C
102
}
330
C
100
AcDbDictionary
281
     1
  3
Normal
350
F
100
AcDbDictionaryWithDefault
340
F
  0
DICTIONARY
  5
14E
102
{ACAD_REACTORS
330
C
102
}
330
C
100
AcDbDictionary
  3
CEPSNTYPE
350
158
  3
FINGERPRINTGUID
350
159
  3
HYPERLINKBASE
350
151
  3
INSUNITS
350
157
  3
LAYOUTDICT
350
153
  3
LWETCUNION
350
156
  3
PLOTSETDICT
350
154
  3
PLOTSTYLNAMDICT
350
155
  3
PSVPSCALE
350
15B
  3
PUCSBASE
350
15E
  3
PUCSORGBACK
350
164
  3
PUCSORGBOTTOM
350
160
  3
PUCSORGFRONT
350
163
  3
PUCSORGLEFT
350
161
  3
PUCSORGRIGHT
350
162
  3
PUCSORGTOP
350
15F
  3
PUCSORTHOREF
350
15C
  3
PUCSORTHOVIEW
350
15D
  3
STYLESHEET
350
152
  3
TSTACKALIGN
350
14F
  3
TSTACKSIZE
350
150
  3
UCSBASE
350
167
  3
UCSORGBACK
350
16D
  3
UCSORGBOTTOM
350
169
  3
UCSORGFRONT
350
16C
  3
UCSORGLEFT
350
16A
  3
UCSORGRIGHT
350
16B
  3
UCSORGTOP
350
168
  3
UCSORTHOREF
350
165
  3
UCSORTHOVIEW
350
166
  3
VERSIONGUID
350
15A
  0
XRECORD
  5
171
102
{ACAD_REACTORS
330
170
102
}
330
170
100
AcDbXrecord
340
1E
  0
XRECORD
  5
16F
102
{ACAD_REACTORS
330
16E
102
}
330
16E
100
AcDbXrecord
340
1A
  0
MLINESTYLE
  5
17
102
{ACAD_REACTORS
330
16
102
}
330
16
100
AcDbMlineStyle
  2
STANDARD
 70
     0
  3

 62
   256
 51
90.0
 52
90.0
 71
     2
 49
0.5
 62
   256
  6
BYLAYER
 49
-0.5
 62
   256
  6
BYLAYER
  0
ACDBPLACEHOLDER
  5
F
102
{ACAD_REACTORS
330
E
102
}
330
E
100
AcDbPlaceHolder
280
     0
  0
XRECORD
  5
158
102
{ACAD_REACTORS
330
14E
102
}
330
14E
100
AcDbXrecord
 90
        0
  0
XRECORD
  5
159
102
{ACAD_REACTORS
330
14E
102
}
330
14E
100
AcDbXrecord
  1
{544A32EB-CD88-426D-A8E5-410390209C24}
  0
XRECORD
  5
151
102
{ACAD_REACTORS
330
14E
102
}
330
14E
100
AcDbXrecord
  1

  0
XRECORD
  5
157
102
{ACAD_REACTORS
330
14E
102
}
330
14E
100
AcDbXrecord
 90
        0
  0
XRECORD
  5
153
102
{ACAD_REACTORS
330
14E
102
}
330
14E
100
AcDbXrecord
340
19
  0
XRECORD
  5
156
102
{ACAD_REACTORS
330
14E
102
}
330
14E
100
AcDbXrecord
 90
    10781
  0
XRECORD
  5
154
102
{ACAD_REACTORS
330
14E
102
}
330
14E
100
AcDbXrecord
340
18
  0
XRECORD
  5
155
102
{ACAD_REACTORS
330
14E
102
}
330
14E
100
AcDbXrecord
340
E
  0
XRECORD
  5
15B
102
{ACAD_REACTORS
330
14E
102
}
330
14E
100
AcDbXrecord
 40
0.0
  0
XRECORD
  5
15E
102
{ACAD_REACTORS
330
14E
102
}
330
14E
100
AcDbXrecord
340
0
  0
XRECORD
  5
164
102
{ACAD_REACTORS
330
14E
102
}
330
14E
100
AcDbXrecord
 10
0.0
 20
0.0
 30
0.0
  0
XRECORD
  5
160
102
{ACAD_REACTORS
330
14E
102
}
330
14E
100
AcDbXrecord
 10
0.0
 20
0.0
 30
0.0
  0
XRECORD
  5
163
102
{ACAD_REACTORS
330
14E
102
}
330
14E
100
AcDbXrecord
 10
0.0
 20
0.0
 30
0.0
  0
XRECORD
  5
161
102
{ACAD_REACTORS
330
14E
102
}
330
14E
100
AcDbXrecord
 10
0.0
 20
0.0
 30
0.0
  0
XRECORD
  5
162
102
{ACAD_REACTORS
330
14E
102
}
330
14E
100
AcDbXrecord
 10
0.0
 20
0.0
 30
0.0
  0
XRECORD
  5
15F
102
{ACAD_REACTORS
330
14E
102
}
330
14E
100
AcDbXrecord
 10
0.0
 20
0.0
 30
0.0
  0
XRECORD
  5
15C
102
{ACAD_REACTORS
330
14E
102
}
330
14E
100
AcDbXrecord
340
0
  0
XRECORD
  5
15D
102
{ACAD_REACTORS
330
14E
102
}
330
14E
100
AcDbXrecord
 70
     0
  0
XRECORD
  5
152
102
{ACAD_REACTORS
330
14E
102
}
330
14E
100
AcDbXrecord
  1

  0
XRECORD
  5
14F
102
{ACAD_REACTORS
330
14E
102
}
330
14E
100
AcDbXrecord
 90
        1
  0
XRECORD
  5
150
102
{ACAD_REACTORS
330
14E
102
}
330
14E
100
AcDbXrecord
 90
       70
  0
XRECORD
  5
167
102
{ACAD_REACTORS
330
14E
102
}
330
14E
100
AcDbXrecord
340
0
  0
XRECORD
  5
16D
102
{ACAD_REACTORS
330
14E
102
}
330
14E
100
AcDbXrecord
 10
0.0
 20
0.0
 30
0.0
  0
XRECORD
  5
169
102
{ACAD_REACTORS
330
14E
102
}
330
14E
100
AcDbXrecord
 10
0.0
 20
0.0
 30
0.0
  0
XRECORD
  5
16C
102
{ACAD_REACTORS
330
14E
102
}
330
14E
100
AcDbXrecord
 10
0.0
 20
0.0
 30
0.0
  0
XRECORD
  5
16A
102
{ACAD_REACTORS
330
14E
102
}
330
14E
100
AcDbXrecord
 10
0.0
 20
0.0
 30
0.0
  0
XRECORD
  5
16B
102
{ACAD_REACTORS
330
14E
102
}
330
14E
100
AcDbXrecord
 10
0.0
 20
0.0
 30
0.0
  0
XRECORD
  5
168
102
{ACAD_REACTORS
330
14E
102
}
330
14E
100
AcDbXrecord
 10
0.0
 20
0.0
 30
0.0
  0
XRECORD
  5
165
102
{ACAD_REACTORS
330
14E
102
}
330
14E
100
AcDbXrecord
340
0
  0
XRECORD
  5
166
102
{ACAD_REACTORS
330
14E
102
}
330
14E
100
AcDbXrecord
 70
     0
  0
XRECORD
  5
15A
102
{ACAD_REACTORS
330
14E
102
}
330
14E
100
AcDbXrecord
  1
{6BE7C5C2-5744-428A-8306-743960385BCC}
  0
ENDSEC
  0
EOF
