ISO-10303-21;
HEADER;
/****************************************************************
 * Generated by software with PDElib inside                    *
 * PDElib Version v51a, created Tue 11/30/2010                  *
 * ITI Transcendata (http://www.transcendata.com/)              *
 ****************************************************************/
FILE_DESCRIPTION((''),'2;1');
FILE_NAME('C:\\Documents and Settings\\trevorh\\Desktop\\185-400RU.stp','2013-12-13T12:51:06',('trevorh'),(''),'Autodesk Inventor 2012','Autodesk Inventor 2012','');
FILE_SCHEMA(('AUTOMOTIVE_DESIGN { 1 0 10303 214 1 1 1 1 }'));
ENDSEC;
DATA;
#5=APPLICATION_CONTEXT('automotive design');
#6=APPLICATION_PROTOCOL_DEFINITION('International Standard','automotive_design',2001,#5);
#7=PRODUCT_CONTEXT('',#5,'mechanical');
#8=PRODUCT('C:\\Program Files\\PARO\\Hydroman 800\\Export\\185-400RU','C:\\Program Files\\PARO\\Hydroman 800\\Export\\185-400RU',$,(#7));
#9=PRODUCT_RELATED_PRODUCT_CATEGORY('part',$,(#8));
#10=PRODUCT_DEFINITION_FORMATION('',$,#8);
#11=PRODUCT_DEFINITION_CONTEXT('part definition',#5,'design');
#12=PRODUCT_DEFINITION('',$,#10,#11);
#18=(NAMED_UNIT(*)PLANE_ANGLE_UNIT()SI_UNIT($,.RADIAN.));
#19=DIMENSIONAL_EXPONENTS(0.0,0.0,0.0,0.0,0.0,0.0,0.0);
#20=PLANE_ANGLE_MEASURE_WITH_UNIT(PLANE_ANGLE_MEASURE(0.0174532925),#18);
#24=(CONVERSION_BASED_UNIT('DEGREE',#20)NAMED_UNIT(#19)PLANE_ANGLE_UNIT());
#28=(NAMED_UNIT(*)SI_UNIT($,.STERADIAN.)SOLID_ANGLE_UNIT());
#32=(LENGTH_UNIT()NAMED_UNIT(*)SI_UNIT(.MILLI.,.METRE.));
#34=UNCERTAINTY_MEASURE_WITH_UNIT(LENGTH_MEASURE(0.01),#32,'DISTANCE_ACCURACY_VALUE','');
#36=(GEOMETRIC_REPRESENTATION_CONTEXT(3)GLOBAL_UNCERTAINTY_ASSIGNED_CONTEXT((#34))GLOBAL_UNIT_ASSIGNED_CONTEXT((#24,#28,#32))REPRESENTATION_CONTEXT('None','None'));
#37=AXIS2_PLACEMENT_3D('',#38,#39,#40);
#38=CARTESIAN_POINT('',(0.0,0.0,0.0));
#39=DIRECTION('',(0.0,0.0,1.0));
#40=DIRECTION('',(1.0,0.0,0.0));
#41=SHAPE_REPRESENTATION('',(#37),#36);
#42=PRODUCT_DEFINITION_SHAPE('','',#12);
#43=SHAPE_DEFINITION_REPRESENTATION(#42,#41);
#49=(NAMED_UNIT(*)PLANE_ANGLE_UNIT()SI_UNIT($,.RADIAN.));
#50=DIMENSIONAL_EXPONENTS(0.0,0.0,0.0,0.0,0.0,0.0,0.0);
#51=PLANE_ANGLE_MEASURE_WITH_UNIT(PLANE_ANGLE_MEASURE(0.0174532925),#49);
#55=(CONVERSION_BASED_UNIT('DEGREE',#51)NAMED_UNIT(#50)PLANE_ANGLE_UNIT());
#59=(NAMED_UNIT(*)SI_UNIT($,.STERADIAN.)SOLID_ANGLE_UNIT());
#63=(LENGTH_UNIT()NAMED_UNIT(*)SI_UNIT(.MILLI.,.METRE.));
#65=UNCERTAINTY_MEASURE_WITH_UNIT(LENGTH_MEASURE(0.000001),#63,'DISTANCE_ACCURACY_VALUE','');
#67=(GEOMETRIC_REPRESENTATION_CONTEXT(3)GLOBAL_UNCERTAINTY_ASSIGNED_CONTEXT((#65))GLOBAL_UNIT_ASSIGNED_CONTEXT((#55,#59,#63))REPRESENTATION_CONTEXT('','3D'));
#68=CARTESIAN_POINT('',(93.675200000000004,7.950200000000001,7.937500000000001));
#69=DIRECTION('',(0.0,0.0,1.0));
#70=DIRECTION('',(1.0,0.0,0.0));
#71=AXIS2_PLACEMENT_3D('',#68,#69,#70);
#72=CYLINDRICAL_SURFACE('',#71,3.2639);
#73=CARTESIAN_POINT('',(96.93910000000001,7.950200000000001,15.875000000000002));
#74=VERTEX_POINT('',#73);
#75=CARTESIAN_POINT('',(93.675200000000004,7.950200000000001,15.875000000000002));
#76=DIRECTION('',(0.0,0.0,-1.0));
#77=DIRECTION('',(1.0,0.0,0.0));
#78=AXIS2_PLACEMENT_3D('',#75,#76,#77);
#79=CIRCLE('',#78,3.2639);
#80=EDGE_CURVE('',#74,#74,#79,.T.);
#81=ORIENTED_EDGE('',*,*,#80,.F.);
#82=EDGE_LOOP('',(#81));
#83=FACE_OUTER_BOUND('',#82,.T.);
#84=CARTESIAN_POINT('',(96.93910000000001,7.950200000000001,0.0));
#85=VERTEX_POINT('',#84);
#86=CARTESIAN_POINT('',(93.675200000000004,7.950200000000001,0.0));
#87=DIRECTION('',(0.0,0.0,1.0));
#88=DIRECTION('',(1.0,0.0,0.0));
#89=AXIS2_PLACEMENT_3D('',#86,#87,#88);
#90=CIRCLE('',#89,3.263900000000004);
#91=EDGE_CURVE('',#85,#85,#90,.T.);
#92=ORIENTED_EDGE('',*,*,#91,.F.);
#93=EDGE_LOOP('',(#92));
#94=FACE_BOUND('',#93,.T.);
#95=ADVANCED_FACE('',(#83,#94),#72,.F.);
#96=CARTESIAN_POINT('',(7.950200000000001,7.950200000000001,7.937500000000001));
#97=DIRECTION('',(0.0,0.0,1.0));
#98=DIRECTION('',(1.0,0.0,0.0));
#99=AXIS2_PLACEMENT_3D('',#96,#97,#98);
#100=CYLINDRICAL_SURFACE('',#99,3.2639);
#101=CARTESIAN_POINT('',(11.2141,7.950200000000001,15.875000000000002));
#102=VERTEX_POINT('',#101);
#103=CARTESIAN_POINT('',(7.950200000000001,7.950200000000001,15.875000000000002));
#104=DIRECTION('',(0.0,0.0,-1.0));
#105=DIRECTION('',(1.0,0.0,0.0));
#106=AXIS2_PLACEMENT_3D('',#103,#104,#105);
#107=CIRCLE('',#106,3.2639);
#108=EDGE_CURVE('',#102,#102,#107,.T.);
#109=ORIENTED_EDGE('',*,*,#108,.F.);
#110=EDGE_LOOP('',(#109));
#111=FACE_OUTER_BOUND('',#110,.T.);
#112=CARTESIAN_POINT('',(11.2141,7.950200000000001,0.0));
#113=VERTEX_POINT('',#112);
#114=CARTESIAN_POINT('',(7.950200000000001,7.950200000000001,0.0));
#115=DIRECTION('',(0.0,0.0,1.0));
#116=DIRECTION('',(1.0,0.0,0.0));
#117=AXIS2_PLACEMENT_3D('',#114,#115,#116);
#118=CIRCLE('',#117,3.263900000000004);
#119=EDGE_CURVE('',#113,#113,#118,.T.);
#120=ORIENTED_EDGE('',*,*,#119,.F.);
#121=EDGE_LOOP('',(#120));
#122=FACE_BOUND('',#121,.T.);
#123=ADVANCED_FACE('',(#111,#122),#100,.F.);
#124=CARTESIAN_POINT('',(0.0,0.0,0.0));
#125=DIRECTION('',(-1.0,0.0,0.0));
#126=DIRECTION('',(0.0,0.0,1.0));
#127=AXIS2_PLACEMENT_3D('',#124,#125,#126);
#128=PLANE('',#127);
#129=CARTESIAN_POINT('',(0.0,0.0,15.875000000000002));
#130=VERTEX_POINT('',#129);
#131=CARTESIAN_POINT('',(0.0,19.050000000000004,15.875000000000002));
#132=VERTEX_POINT('',#131);
#133=CARTESIAN_POINT('',(0.0,0.0,15.875000000000002));
#134=DIRECTION('',(0.0,1.0,0.0));
#135=VECTOR('',#134,19.050000000000004);
#136=LINE('',#133,#135);
#137=EDGE_CURVE('',#130,#132,#136,.T.);
#138=ORIENTED_EDGE('',*,*,#137,.T.);
#139=CARTESIAN_POINT('',(0.0,19.050000000000004,0.0));
#140=VERTEX_POINT('',#139);
#141=CARTESIAN_POINT('',(0.0,19.050000000000004,0.0));
#142=DIRECTION('',(0.0,0.0,1.0));
#143=VECTOR('',#142,15.875000000000002);
#144=LINE('',#141,#143);
#145=EDGE_CURVE('',#140,#132,#144,.T.);
#146=ORIENTED_EDGE('',*,*,#145,.F.);
#147=CARTESIAN_POINT('',(0.0,0.0,0.0));
#148=VERTEX_POINT('',#147);
#149=CARTESIAN_POINT('',(0.0,19.050000000000004,0.0));
#150=DIRECTION('',(0.0,-1.0,0.0));
#151=VECTOR('',#150,19.050000000000004);
#152=LINE('',#149,#151);
#153=EDGE_CURVE('',#140,#148,#152,.T.);
#154=ORIENTED_EDGE('',*,*,#153,.T.);
#155=CARTESIAN_POINT('',(0.0,0.0,0.0));
#156=DIRECTION('',(0.0,0.0,1.0));
#157=VECTOR('',#156,15.875000000000002);
#158=LINE('',#155,#157);
#159=EDGE_CURVE('',#148,#130,#158,.T.);
#160=ORIENTED_EDGE('',*,*,#159,.T.);
#161=EDGE_LOOP('',(#138,#146,#154,#160));
#162=FACE_OUTER_BOUND('',#161,.T.);
#163=ADVANCED_FACE('',(#162),#128,.T.);
#164=CARTESIAN_POINT('',(0.0,19.050000000000004,0.0));
#165=DIRECTION('',(0.0,1.0,0.0));
#166=DIRECTION('',(0.0,0.0,1.0));
#167=AXIS2_PLACEMENT_3D('',#164,#165,#166);
#168=PLANE('',#167);
#169=CARTESIAN_POINT('',(101.59999999999999,19.050000000000004,15.875000000000002));
#170=VERTEX_POINT('',#169);
#171=CARTESIAN_POINT('',(0.0,19.050000000000004,15.875000000000002));
#172=DIRECTION('',(1.0,0.0,0.0));
#173=VECTOR('',#172,101.59999999999999);
#174=LINE('',#171,#173);
#175=EDGE_CURVE('',#132,#170,#174,.T.);
#176=ORIENTED_EDGE('',*,*,#175,.T.);
#177=CARTESIAN_POINT('',(101.59999999999999,19.050000000000004,0.0));
#178=VERTEX_POINT('',#177);
#179=CARTESIAN_POINT('',(101.59999999999999,19.050000000000004,0.0));
#180=DIRECTION('',(0.0,0.0,1.0));
#181=VECTOR('',#180,15.875000000000002);
#182=LINE('',#179,#181);
#183=EDGE_CURVE('',#178,#170,#182,.T.);
#184=ORIENTED_EDGE('',*,*,#183,.F.);
#185=CARTESIAN_POINT('',(101.59999999999999,19.050000000000004,0.0));
#186=DIRECTION('',(-1.0,0.0,0.0));
#187=VECTOR('',#186,101.59999999999999);
#188=LINE('',#185,#187);
#189=EDGE_CURVE('',#178,#140,#188,.T.);
#190=ORIENTED_EDGE('',*,*,#189,.T.);
#191=ORIENTED_EDGE('',*,*,#145,.T.);
#192=EDGE_LOOP('',(#176,#184,#190,#191));
#193=FACE_OUTER_BOUND('',#192,.T.);
#194=ADVANCED_FACE('',(#193),#168,.T.);
#195=CARTESIAN_POINT('',(101.59999999999999,19.050000000000004,0.0));
#196=DIRECTION('',(1.0,0.0,0.0));
#197=DIRECTION('',(0.0,0.0,-1.0));
#198=AXIS2_PLACEMENT_3D('',#195,#196,#197);
#199=PLANE('',#198);
#200=CARTESIAN_POINT('',(101.59999999999999,0.0,15.875000000000002));
#201=VERTEX_POINT('',#200);
#202=CARTESIAN_POINT('',(101.59999999999999,19.050000000000004,15.875000000000002));
#203=DIRECTION('',(0.0,-1.0,0.0));
#204=VECTOR('',#203,19.050000000000004);
#205=LINE('',#202,#204);
#206=EDGE_CURVE('',#170,#201,#205,.T.);
#207=ORIENTED_EDGE('',*,*,#206,.T.);
#208=CARTESIAN_POINT('',(101.59999999999999,0.0,0.0));
#209=VERTEX_POINT('',#208);
#210=CARTESIAN_POINT('',(101.59999999999999,0.0,0.0));
#211=DIRECTION('',(0.0,0.0,1.0));
#212=VECTOR('',#211,15.875000000000002);
#213=LINE('',#210,#212);
#214=EDGE_CURVE('',#209,#201,#213,.T.);
#215=ORIENTED_EDGE('',*,*,#214,.F.);
#216=CARTESIAN_POINT('',(101.59999999999999,0.0,0.0));
#217=DIRECTION('',(0.0,1.0,0.0));
#218=VECTOR('',#217,19.050000000000004);
#219=LINE('',#216,#218);
#220=EDGE_CURVE('',#209,#178,#219,.T.);
#221=ORIENTED_EDGE('',*,*,#220,.T.);
#222=ORIENTED_EDGE('',*,*,#183,.T.);
#223=EDGE_LOOP('',(#207,#215,#221,#222));
#224=FACE_OUTER_BOUND('',#223,.T.);
#225=ADVANCED_FACE('',(#224),#199,.T.);
#226=CARTESIAN_POINT('',(101.59999999999999,0.0,0.0));
#227=DIRECTION('',(0.0,-1.0,0.0));
#228=DIRECTION('',(0.0,0.0,-1.0));
#229=AXIS2_PLACEMENT_3D('',#226,#227,#228);
#230=PLANE('',#229);
#231=CARTESIAN_POINT('',(101.59999999999999,0.0,15.875000000000002));
#232=DIRECTION('',(-1.0,0.0,0.0));
#233=VECTOR('',#232,101.59999999999999);
#234=LINE('',#231,#233);
#235=EDGE_CURVE('',#201,#130,#234,.T.);
#236=ORIENTED_EDGE('',*,*,#235,.T.);
#237=ORIENTED_EDGE('',*,*,#159,.F.);
#238=CARTESIAN_POINT('',(0.0,0.0,0.0));
#239=DIRECTION('',(1.0,0.0,0.0));
#240=VECTOR('',#239,101.59999999999999);
#241=LINE('',#238,#240);
#242=EDGE_CURVE('',#148,#209,#241,.T.);
#243=ORIENTED_EDGE('',*,*,#242,.T.);
#244=ORIENTED_EDGE('',*,*,#214,.T.);
#245=EDGE_LOOP('',(#236,#237,#243,#244));
#246=FACE_OUTER_BOUND('',#245,.T.);
#247=ADVANCED_FACE('',(#246),#230,.T.);
#248=CARTESIAN_POINT('',(50.799999999999997,9.525000000000004,0.0));
#249=DIRECTION('',(0.0,0.0,1.0));
#250=DIRECTION('',(1.0,0.0,0.0));
#251=AXIS2_PLACEMENT_3D('',#248,#249,#250);
#252=PLANE('',#251);
#253=ORIENTED_EDGE('',*,*,#242,.F.);
#254=ORIENTED_EDGE('',*,*,#153,.F.);
#255=ORIENTED_EDGE('',*,*,#189,.F.);
#256=ORIENTED_EDGE('',*,*,#220,.F.);
#257=EDGE_LOOP('',(#253,#254,#255,#256));
#258=FACE_OUTER_BOUND('',#257,.T.);
#259=ORIENTED_EDGE('',*,*,#91,.T.);
#260=EDGE_LOOP('',(#259));
#261=FACE_BOUND('',#260,.T.);
#262=ORIENTED_EDGE('',*,*,#119,.T.);
#263=EDGE_LOOP('',(#262));
#264=FACE_BOUND('',#263,.T.);
#265=ADVANCED_FACE('',(#258,#261,#264),#252,.F.);
#266=CARTESIAN_POINT('',(50.799999999999997,9.525000000000004,15.875000000000002));
#267=DIRECTION('',(0.0,0.0,1.0));
#268=DIRECTION('',(1.0,0.0,0.0));
#269=AXIS2_PLACEMENT_3D('',#266,#267,#268);
#270=PLANE('',#269);
#271=ORIENTED_EDGE('',*,*,#137,.F.);
#272=ORIENTED_EDGE('',*,*,#235,.F.);
#273=ORIENTED_EDGE('',*,*,#206,.F.);
#274=ORIENTED_EDGE('',*,*,#175,.F.);
#275=EDGE_LOOP('',(#271,#272,#273,#274));
#276=FACE_OUTER_BOUND('',#275,.T.);
#277=ORIENTED_EDGE('',*,*,#80,.T.);
#278=EDGE_LOOP('',(#277));
#279=FACE_BOUND('',#278,.T.);
#280=ORIENTED_EDGE('',*,*,#108,.T.);
#281=EDGE_LOOP('',(#280));
#282=FACE_BOUND('',#281,.T.);
#283=ADVANCED_FACE('',(#276,#279,#282),#270,.T.);
#284=CLOSED_SHELL('',(#95,#123,#163,#194,#225,#247,#265,#283));
#285=MANIFOLD_SOLID_BREP('Solid1',#284);
#286=COLOUR_RGB('Aluminum (Polished)',0.949020028114319,0.925490021705627,0.933332979679108);
#287=FILL_AREA_STYLE_COLOUR('Aluminum (Polished)',#286);
#288=FILL_AREA_STYLE('Aluminum (Polished)',(#287));
#289=SURFACE_STYLE_FILL_AREA(#288);
#290=SURFACE_SIDE_STYLE('Aluminum (Polished)',(#289));
#291=SURFACE_STYLE_USAGE(.BOTH.,#290);
#292=PRESENTATION_STYLE_ASSIGNMENT((#291));
#293=STYLED_ITEM('',(#292),#285);
#294=MECHANICAL_DESIGN_GEOMETRIC_PRESENTATION_REPRESENTATION('',(#293),#36);
#295=ADVANCED_BREP_SHAPE_REPRESENTATION('ABSR',(#285),#36);
#296=SHAPE_REPRESENTATION_RELATIONSHIP('SRR','None',#295,#41);
ENDSEC;
END-ISO-10303-21;
